  0
SECTION
  2
HEADER
  9
$ACADVER
  1
AC1009
  9
$INSBASE
 10
0.0
 20
0.0
 30
0.0
  9
$EXTMIN
 10
-0.0204638472032742
 20
-2.960436562073669
 30
0.0
  9
$EXTMAX
 10
355.0
 20
265.0
 30
0.0
  9
$LIMMIN
 10
0.0
 20
0.0
  9
$LIMMAX
 10
375.0
 20
270.0
  9
$ORTHOMODE
 70
     1
  9
$REGENMODE
 70
     1
  9
$FILLMODE
 70
     1
  9
$QTEXTMODE
 70
     0
  9
$MIRRTEXT
 70
     0
  9
$DRAGMODE
 70
     2
  9
$LTSCALE
 40
10.0
  9
$OSMODE
 70
  3071
  9
$ATTMODE
 70
     1
  9
$TEXTSIZE
 40
0.2
  9
$TRACEWID
 40
0.05
  9
$TEXTSTYLE
  7
STANDARD
  9
$CLAYER
  8
0
  9
$CELTYPE
  6
BYLAYER
  9
$CECOLOR
 62
   256
  9
$DIMSCALE
 40
1.0
  9
$DIMASZ
 40
3.0
  9
$DIMEXO
 40
2.0
  9
$DIMDLI
 40
0.38
  9
$DIMRND
 40
0.0
  9
$DIMDLE
 40
0.0
  9
$DIMEXE
 40
2.0
  9
$DIMTP
 40
0.0
  9
$DIMTM
 40
0.0
  9
$DIMTXT
 40
3.2000000000000002
  9
$DIMCEN
 40
0.0
  9
$DIMTSZ
 40
0.0
  9
$DIMTOL
 70
     0
  9
$DIMLIM
 70
     0
  9
$DIMTIH
 70
     0
  9
$DIMTOH
 70
     0
  9
$DIMSE1
 70
     0
  9
$DIMSE2
 70
     0
  9
$DIMTAD
 70
     1
  9
$DIMZIN
 70
     0
  9
$DIMBLK
  1

  9
$DIMASO
 70
     1
  9
$DIMSHO
 70
     0
  9
$DIMPOST
  1

  9
$DIMAPOST
  1

  9
$DIMALT
 70
     0
  9
$DIMALTD
 70
     2
  9
$DIMALTF
 40
25.399999999999999
  9
$DIMLFAC
 40
1.0
  9
$DIMTOFL
 70
     0
  9
$DIMTVP
 40
1.6000000000000001
  9
$DIMTIX
 70
     1
  9
$DIMSOXD
 70
     0
  9
$DIMSAH
 70
     0
  9
$DIMBLK1
  1

  9
$DIMBLK2
  1

  9
$DIMSTYLE
  2
STANDARD
  9
$DIMCLRD
 70
     0
  9
$DIMCLRE
 70
     0
  9
$DIMCLRT
 70
     0
  9
$DIMTFAC
 40
1.0
  9
$DIMGAP
 40
0.09
  9
$LUNITS
 70
     2
  9
$LUPREC
 70
     1
  9
$SKETCHINC
 40
0.1
  9
$FILLETRAD
 40
0.0
  9
$AUNITS
 70
     0
  9
$AUPREC
 70
     0
  9
$MENU
  1
E:\r13\win\SUPPORT\ACAD
  9
$ELEVATION
 40
0.0
  9
$PELEVATION
 40
0.0
  9
$THICKNESS
 40
0.0
  9
$LIMCHECK
 70
     0
  9
$BLIPMODE
 70
     0
  9
$CHAMFERA
 40
0.0
  9
$CHAMFERB
 40
0.0
  9
$SKPOLY
 70
     0
  9
$TDCREATE
 40
2449840.6039351849
  9
$TDUPDATE
 40
2456597.5475721988
  9
$TDINDWG
 40
0.0004783565
  9
$TDUSRTIMER
 40
0.0004783565
  9
$USRTIMER
 70
     1
  9
$ANGBASE
 50
0.0
  9
$ANGDIR
 70
     0
  9
$PDMODE
 70
     0
  9
$PDSIZE
 40
0.0
  9
$PLINEWID
 40
0.0
  9
$COORDS
 70
     1
  9
$SPLFRAME
 70
     0
  9
$SPLINETYPE
 70
     6
  9
$SPLINESEGS
 70
     8
  9
$ATTDIA
 70
     0
  9
$ATTREQ
 70
     1
  9
$HANDLING
 70
     1
  9
$HANDSEED
  5
308
  9
$SURFTAB1
 70
     6
  9
$SURFTAB2
 70
     6
  9
$SURFTYPE
 70
     6
  9
$SURFU
 70
     6
  9
$SURFV
 70
     6
  9
$UCSNAME
  2

  9
$UCSORG
 10
0.0
 20
0.0
 30
0.0
  9
$UCSXDIR
 10
1.0
 20
0.0
 30
0.0
  9
$UCSYDIR
 10
0.0
 20
1.0
 30
0.0
  9
$PUCSNAME
  2

  9
$PUCSORG
 10
0.0
 20
0.0
 30
0.0
  9
$PUCSXDIR
 10
1.0
 20
0.0
 30
0.0
  9
$PUCSYDIR
 10
0.0
 20
1.0
 30
0.0
  9
$USERI1
 70
     0
  9
$USERI2
 70
     1
  9
$USERI3
 70
     1
  9
$USERI4
 70
     0
  9
$USERI5
 70
     0
  9
$USERR1
 40
0.0
  9
$USERR2
 40
0.0
  9
$USERR3
 40
0.0
  9
$USERR4
 40
0.0
  9
$USERR5
 40
0.0
  9
$WORLDVIEW
 70
     1
  9
$SHADEDGE
 70
     3
  9
$SHADEDIF
 70
    70
  9
$TILEMODE
 70
     1
  9
$MAXACTVP
 70
    16
  9
$PLIMCHECK
 70
     0
  9
$PEXTMIN
 10
1.0000000000000000E+020
 20
1.0000000000000000E+020
 30
1.0000000000000000E+020
  9
$PEXTMAX
 10
-1.0000000000000000E+020
 20
-1.0000000000000000E+020
 30
-1.0000000000000000E+020
  9
$PLIMMIN
 10
0.0
 20
0.0
  9
$PLIMMAX
 10
12.0
 20
9.0
  9
$UNITMODE
 70
     0
  9
$VISRETAIN
 70
     0
  9
$PLINEGEN
 70
     0
  9
$PSLTSCALE
 70
     0
  0
ENDSEC
  0
SECTION
  2
TABLES
  0
TABLE
  2
VPORT
 70
     1
  0
VPORT
  2
*ACTIVE
 70
     0
 10
0.0
 20
0.0
 11
1.0
 21
1.0
 12
195.04380321732449
 22
133.5127261426681
 13
0.0
 23
0.0
 14
10.0
 24
10.0
 15
10.0
 25
10.0
 16
0.0
 26
0.0
 36
1.0
 17
0.0
 27
0.0
 37
0.0
 40
275.42274993631997
 41
1.831871345029239
 42
50.0
 43
0.0
 44
0.0
 50
0.0
 51
0.0
 71
     0
 72
   500
 73
     1
 74
     0
 75
     0
 76
     0
 77
     0
 78
     2
  0
ENDTAB
  0
TABLE
  2
LTYPE
 70
     4
  0
LTYPE
  2
CONTINUOUS
 70
     0
  3
Solid Line
 72
    65
 73
     0
 40
0.0
  0
LTYPE
  2
CENTER
 70
     0
  3
____ _ ____ _ ____ _ ____ _ ____ _ ____ _ ____
 72
    65
 73
     4
 40
2.0
 49
1.25
 49
-0.25
 49
0.25
 49
-0.25
  0
LTYPE
  2
HIDDEN
 70
     0
  3
_ _ _ _ _ _ _ _ _ _ _ _ _ _ _ _ _ _ _ _ _ _ _
 72
    65
 73
     2
 40
0.375
 49
0.25
 49
-0.125
  0
LTYPE
  2
PHANTOM2
 70
     0
  3
___ _ _ ___ _ _ ___ _ _ ___ _ _
 72
    65
 73
     6
 40
1.25
 49
0.625
 49
-0.125
 49
0.125
 49
-0.125
 49
0.125
 49
-0.125
  0
ENDTAB
  0
TABLE
  2
LAYER
 70
     4
  0
LAYER
  2
0
 70
     0
 62
     7
  6
CONTINUOUS
  0
LAYER
  2
1
 70
     0
 62
     1
  6
CENTER
  0
LAYER
  2
3
 70
     0
 62
     3
  6
CONTINUOUS
  0
LAYER
  2
2
 70
     0
 62
     2
  6
HIDDEN
  0
ENDTAB
  0
TABLE
  2
STYLE
 70
     2
  0
STYLE
  2
STANDARD
 70
     0
 40
0.0
 41
1.0
 50
0.0
 71
     0
 42
0.2
  3
TXT
  4
BIGFONT
  0
STYLE
  2
STANDARD1
 70
     0
 40
0.0
 41
1.0
 50
0.0
 71
     0
 42
3.0
  3
txt
  4

  0
ENDTAB
  0
TABLE
  2
VIEW
 70
     1
  0
VIEW
  2
ALL
 70
     0
 40
270.0
 10
220.99159663865549
 20
135.0
 41
0.0
 11
0.0
 21
0.0
 31
1.0
 12
0.0
 22
0.0
 32
0.0
 42
0.0
 43
0.0
 44
0.0
 50
0.0
 71
     0
  0
ENDTAB
  0
TABLE
  2
UCS
 70
     0
  0
ENDTAB
  0
TABLE
  2
APPID
 70
     3
  0
APPID
  2
ACAD
 70
     0
  0
APPID
  2
ACAD_MLEADERVER
 70
     0
  0
APPID
  2
ACAD_NAV_VCDISPLAY
 70
     0
  0
ENDTAB
  0
TABLE
  2
DIMSTYLE
 70
     1
  0
DIMSTYLE
  2
STANDARD
 70
     0
  3

  4

  5

  6

  7

 40
1.0
 41
0.18
 42
0.0625
 43
0.38
 44
0.18
 45
0.0
 46
0.0
 47
0.0
 48
0.0
140
0.18
141
0.09
142
0.0
143
25.399999999999999
144
1.0
145
0.0
146
1.0
147
0.09
 71
     0
 72
     0
 73
     1
 74
     1
 75
     0
 76
     0
 77
     0
 78
     0
170
     0
171
     2
172
     0
173
     0
174
     0
175
     0
176
     0
177
     0
178
     0
  0
ENDTAB
  0
ENDSEC
  0
SECTION
  2
BLOCKS
  0
BLOCK
  8
0
  2
$MODEL_SPACE
 70
     0
 10
0.0
 20
0.0
 30
0.0
  3
$MODEL_SPACE
  1

  0
ENDBLK
  5
14E
  8
0
  0
BLOCK
 67
     1
  8
0
  2
$PAPER_SPACE
 70
     0
 10
0.0
 20
0.0
 30
0.0
  3
$PAPER_SPACE
  1

  0
ENDBLK
  5
14C
 67
     1
  8
0
  0
BLOCK
  8
0
  2
*X0
 70
     1
 10
0.0
 20
0.0
 30
0.0
  3
*X0
  1

  0
LINE
  5
2D
  8
0
 62
     0
 10
201.0
 20
120.0
 30
0.0
 11
214.0
 21
120.0
 31
0.0
  0
LINE
  5
2E
  8
0
 62
     0
 10
201.0
 20
121.0
 30
0.0
 11
214.0
 21
121.0
 31
0.0
  0
LINE
  5
2F
  8
0
 62
     0
 10
201.0
 20
122.0
 30
0.0
 11
214.0
 21
122.0
 31
0.0
  0
LINE
  5
30
  8
0
 62
     0
 10
201.0
 20
123.0
 30
0.0
 11
214.0
 21
123.0
 31
0.0
  0
LINE
  5
31
  8
0
 62
     0
 10
201.0
 20
124.0
 30
0.0
 11
214.0
 21
124.0
 31
0.0
  0
LINE
  5
32
  8
0
 62
     0
 10
201.0
 20
125.0
 30
0.0
 11
214.0
 21
125.0
 31
0.0
  0
LINE
  5
33
  8
0
 62
     0
 10
201.0
 20
126.0
 30
0.0
 11
214.0
 21
126.0
 31
0.0
  0
LINE
  5
34
  8
0
 62
     0
 10
201.0
 20
127.0
 30
0.0
 11
214.0
 21
127.0
 31
0.0
  0
LINE
  5
35
  8
0
 62
     0
 10
201.0
 20
128.0
 30
0.0
 11
214.0
 21
128.0
 31
0.0
  0
LINE
  5
36
  8
0
 62
     0
 10
201.0
 20
129.0
 30
0.0
 11
214.0
 21
129.0
 31
0.0
  0
LINE
  5
37
  8
0
 62
     0
 10
201.0
 20
130.0
 30
0.0
 11
214.0
 21
130.0
 31
0.0
  0
LINE
  5
38
  8
0
 62
     0
 10
201.0
 20
131.0
 30
0.0
 11
214.0
 21
131.0
 31
0.0
  0
LINE
  5
39
  8
0
 62
     0
 10
201.0
 20
132.0
 30
0.0
 11
214.0
 21
132.0
 31
0.0
  0
LINE
  5
3A
  8
0
 62
     0
 10
201.0
 20
133.0
 30
0.0
 11
214.0
 21
133.0
 31
0.0
  0
LINE
  5
3B
  8
0
 62
     0
 10
201.0
 20
134.0
 30
0.0
 11
214.0
 21
134.0
 31
0.0
  0
LINE
  5
3C
  8
0
 62
     0
 10
201.0
 20
135.0
 30
0.0
 11
214.0
 21
135.0
 31
0.0
  0
LINE
  5
3D
  8
0
 62
     0
 10
201.0
 20
136.0
 30
0.0
 11
214.0
 21
136.0
 31
0.0
  0
LINE
  5
3E
  8
0
 62
     0
 10
201.0
 20
137.0
 30
0.0
 11
214.0
 21
137.0
 31
0.0
  0
LINE
  5
3F
  8
0
 62
     0
 10
201.0
 20
138.0
 30
0.0
 11
214.0
 21
138.0
 31
0.0
  0
LINE
  5
40
  8
0
 62
     0
 10
201.0
 20
139.0
 30
0.0
 11
214.0
 21
139.0
 31
0.0
  0
LINE
  5
41
  8
0
 62
     0
 10
201.0
 20
140.0
 30
0.0
 11
214.0
 21
140.0
 31
0.0
  0
LINE
  5
42
  8
0
 62
     0
 10
201.0
 20
141.0
 30
0.0
 11
214.0
 21
141.0
 31
0.0
  0
LINE
  5
43
  8
0
 62
     0
 10
201.0
 20
142.0
 30
0.0
 11
214.0
 21
142.0
 31
0.0
  0
LINE
  5
44
  8
0
 62
     0
 10
201.0
 20
143.0
 30
0.0
 11
214.0
 21
143.0
 31
0.0
  0
LINE
  5
45
  8
0
 62
     0
 10
201.0
 20
144.0
 30
0.0
 11
214.0
 21
144.0
 31
0.0
  0
LINE
  5
46
  8
0
 62
     0
 10
201.0
 20
145.0
 30
0.0
 11
214.0
 21
145.0
 31
0.0
  0
LINE
  5
47
  8
0
 62
     0
 10
201.0
 20
146.0
 30
0.0
 11
214.0
 21
146.0
 31
0.0
  0
LINE
  5
48
  8
0
 62
     0
 10
201.0
 20
147.0
 30
0.0
 11
214.0
 21
147.0
 31
0.0
  0
LINE
  5
49
  8
0
 62
     0
 10
201.0
 20
148.0
 30
0.0
 11
214.0
 21
148.0
 31
0.0
  0
LINE
  5
4A
  8
0
 62
     0
 10
201.0
 20
149.0
 30
0.0
 11
214.0
 21
149.0
 31
0.0
  0
LINE
  5
4B
  8
0
 62
     0
 10
201.0
 20
150.0
 30
0.0
 11
214.0
 21
150.0
 31
0.0
  0
LINE
  5
4C
  8
0
 62
     0
 10
201.0
 20
151.0
 30
0.0
 11
214.0
 21
151.0
 31
0.0
  0
LINE
  5
4D
  8
0
 62
     0
 10
201.0
 20
152.0
 30
0.0
 11
214.0
 21
152.0
 31
0.0
  0
LINE
  5
4E
  8
0
 62
     0
 10
201.0
 20
153.0
 30
0.0
 11
214.0
 21
153.0
 31
0.0
  0
LINE
  5
4F
  8
0
 62
     0
 10
201.0
 20
154.0
 30
0.0
 11
214.0
 21
154.0
 31
0.0
  0
LINE
  5
50
  8
0
 62
     0
 10
201.0
 20
155.0
 30
0.0
 11
214.0
 21
155.0
 31
0.0
  0
LINE
  5
51
  8
0
 62
     0
 10
201.0
 20
156.0
 30
0.0
 11
214.0
 21
156.0
 31
0.0
  0
LINE
  5
52
  8
0
 62
     0
 10
201.0
 20
157.0
 30
0.0
 11
214.0
 21
157.0
 31
0.0
  0
LINE
  5
53
  8
0
 62
     0
 10
201.0
 20
158.0
 30
0.0
 11
214.0
 21
158.0
 31
0.0
  0
LINE
  5
54
  8
0
 62
     0
 10
201.0
 20
159.0
 30
0.0
 11
214.0
 21
159.0
 31
0.0
  0
LINE
  5
55
  8
0
 62
     0
 10
201.0
 20
160.0
 30
0.0
 11
214.0
 21
160.0
 31
0.0
  0
LINE
  5
56
  8
0
 62
     0
 10
201.0
 20
119.0
 30
0.0
 11
214.0
 21
119.0
 31
0.0
  0
LINE
  5
57
  8
0
 62
     0
 10
201.0
 20
118.0
 30
0.0
 11
214.0
 21
118.0
 31
0.0
  0
LINE
  5
58
  8
0
 62
     0
 10
201.0
 20
117.0
 30
0.0
 11
214.0
 21
117.0
 31
0.0
  0
LINE
  5
59
  8
0
 62
     0
 10
201.0
 20
116.0
 30
0.0
 11
214.0
 21
116.0
 31
0.0
  0
LINE
  5
5A
  8
0
 62
     0
 10
201.0
 20
115.0
 30
0.0
 11
214.0
 21
115.0
 31
0.0
  0
LINE
  5
5B
  8
0
 62
     0
 10
201.0
 20
114.0
 30
0.0
 11
214.0
 21
114.0
 31
0.0
  0
LINE
  5
5C
  8
0
 62
     0
 10
201.0
 20
113.0
 30
0.0
 11
214.0
 21
113.0
 31
0.0
  0
LINE
  5
5D
  8
0
 62
     0
 10
201.0
 20
112.0
 30
0.0
 11
214.0
 21
112.0
 31
0.0
  0
LINE
  5
5E
  8
0
 62
     0
 10
201.0
 20
111.0
 30
0.0
 11
214.0
 21
111.0
 31
0.0
  0
LINE
  5
5F
  8
0
 62
     0
 10
201.0
 20
110.0
 30
0.0
 11
214.0
 21
110.0
 31
0.0
  0
LINE
  5
60
  8
0
 62
     0
 10
201.0
 20
109.0
 30
0.0
 11
214.0
 21
109.0
 31
0.0
  0
LINE
  5
61
  8
0
 62
     0
 10
201.0
 20
108.0
 30
0.0
 11
214.0
 21
108.0
 31
0.0
  0
LINE
  5
62
  8
0
 62
     0
 10
201.0
 20
107.0
 30
0.0
 11
214.0
 21
107.0
 31
0.0
  0
LINE
  5
63
  8
0
 62
     0
 10
201.0
 20
106.0
 30
0.0
 11
214.0
 21
106.0
 31
0.0
  0
LINE
  5
64
  8
0
 62
     0
 10
201.0
 20
105.0
 30
0.0
 11
214.0
 21
105.0
 31
0.0
  0
LINE
  5
65
  8
0
 62
     0
 10
201.0
 20
104.0
 30
0.0
 11
214.0
 21
104.0
 31
0.0
  0
LINE
  5
66
  8
0
 62
     0
 10
201.0
 20
103.0
 30
0.0
 11
214.0
 21
103.0
 31
0.0
  0
LINE
  5
67
  8
0
 62
     0
 10
201.0
 20
102.0
 30
0.0
 11
214.0
 21
102.0
 31
0.0
  0
LINE
  5
68
  8
0
 62
     0
 10
201.0
 20
101.0
 30
0.0
 11
214.0
 21
101.0
 31
0.0
  0
LINE
  5
69
  8
0
 62
     0
 10
201.0
 20
100.0
 30
0.0
 11
214.0
 21
100.0
 31
0.0
  0
LINE
  5
6A
  8
0
 62
     0
 10
201.0
 20
99.0
 30
0.0
 11
214.0
 21
99.0
 31
0.0
  0
LINE
  5
6B
  8
0
 62
     0
 10
201.0
 20
98.0
 30
0.0
 11
214.0
 21
98.0
 31
0.0
  0
LINE
  5
6C
  8
0
 62
     0
 10
201.0
 20
97.0
 30
0.0
 11
214.0
 21
97.0
 31
0.0
  0
LINE
  5
6D
  8
0
 62
     0
 10
201.0
 20
96.0
 30
0.0
 11
214.0
 21
96.0
 31
0.0
  0
LINE
  5
6E
  8
0
 62
     0
 10
201.0
 20
95.0
 30
0.0
 11
214.0
 21
95.0
 31
0.0
  0
LINE
  5
6F
  8
0
 62
     0
 10
201.0
 20
94.0
 30
0.0
 11
214.0
 21
94.0
 31
0.0
  0
LINE
  5
70
  8
0
 62
     0
 10
201.0
 20
93.0
 30
0.0
 11
214.0
 21
93.0
 31
0.0
  0
LINE
  5
71
  8
0
 62
     0
 10
201.0
 20
92.0
 30
0.0
 11
214.0
 21
92.0
 31
0.0
  0
LINE
  5
72
  8
0
 62
     0
 10
201.0
 20
91.0
 30
0.0
 11
214.0
 21
91.0
 31
0.0
  0
LINE
  5
73
  8
0
 62
     0
 10
201.0
 20
90.0
 30
0.0
 11
214.0
 21
90.0
 31
0.0
  0
LINE
  5
74
  8
0
 62
     0
 10
201.0
 20
89.0
 30
0.0
 11
214.0
 21
89.0
 31
0.0
  0
LINE
  5
75
  8
0
 62
     0
 10
201.0
 20
88.0
 30
0.0
 11
214.0
 21
88.0
 31
0.0
  0
LINE
  5
76
  8
0
 62
     0
 10
201.0
 20
87.0
 30
0.0
 11
214.0
 21
87.0
 31
0.0
  0
LINE
  5
77
  8
0
 62
     0
 10
201.0
 20
86.0
 30
0.0
 11
214.0
 21
86.0
 31
0.0
  0
LINE
  5
78
  8
0
 62
     0
 10
201.0
 20
85.0
 30
0.0
 11
214.0
 21
85.0
 31
0.0
  0
LINE
  5
79
  8
0
 62
     0
 10
201.0
 20
84.0
 30
0.0
 11
214.0
 21
84.0
 31
0.0
  0
LINE
  5
7A
  8
0
 62
     0
 10
201.0
 20
83.0
 30
0.0
 11
214.0
 21
83.0
 31
0.0
  0
LINE
  5
7B
  8
0
 62
     0
 10
201.0
 20
82.0
 30
0.0
 11
214.0
 21
82.0
 31
0.0
  0
LINE
  5
7C
  8
0
 62
     0
 10
201.0
 20
81.0
 30
0.0
 11
214.0
 21
81.0
 31
0.0
  0
LINE
  5
7D
  8
0
 62
     0
 10
201.0
 20
80.0
 30
0.0
 11
214.0
 21
80.0
 31
0.0
  0
ENDBLK
  5
7E
  8
0
  0
ENDSEC
  0
SECTION
  2
ENTITIES
  0
LINE
  5
8A
  8
1
 10
134.99999999999989
 20
105.0
 30
0.0
 11
198.69338300641431
 21
105.0
 31
0.0
  0
ARC
  5
8B
  8
0
 10
142.5
 20
105.0
 30
0.0
 40
2.5
 50
129.66646025875821
 51
230.33353974124191
  0
ARC
  5
8C
  8
0
 10
155.0
 20
122.5
 30
0.0
 40
24.0
 50
234.03260879473851
 51
293.43221484457212
  0
ARC
  5
8D
  8
0
 10
170.47999999999999
 20
87.250000000000014
 30
0.0
 40
14.5
 50
71.49137192305389
 51
114.1661438196881
  0
LINE
  5
8E
  8
0
 10
175.0829881598805
 20
101.0
 30
0.0
 11
180.0
 21
101.0
 31
0.0
  0
LINE
  5
8F
  8
0
 10
175.0829881598805
 20
109.0
 30
0.0
 11
180.0
 21
109.0
 31
0.0
  0
ARC
  5
90
  8
0
 10
170.47999999999999
 20
122.75
 30
0.0
 40
14.5
 50
245.8338561803119
 51
288.50862807694608
  0
ARC
  5
91
  8
0
 10
155.0
 20
87.500000000000014
 30
0.0
 40
24.0
 50
66.567785155427956
 51
125.96739120526151
  0
LINE
  5
92
  8
0
 10
175.0829881598805
 20
101.0
 30
0.0
 11
175.0829881598805
 21
109.0
 31
0.0
  0
ARC
  5
93
  8
0
 10
218.0
 20
119.5
 30
0.0
 40
2.0
 50
270.0
 51
0.0
  0
ARC
  5
94
  8
0
 10
218.0
 20
150.5
 30
0.0
 40
2.0
 50
0.0
 51
90.0
  0
ARC
  5
95
  8
0
 10
198.0
 20
114.5
 30
0.0
 40
3.0
 50
89.999999999999986
 51
179.99999999999989
  0
ARC
  5
96
  8
0
 10
198.0
 20
155.5
 30
0.0
 40
3.0
 50
180.0
 51
269.99999999999989
  0
ARC
  5
97
  8
0
 10
194.0
 20
174.0
 30
0.0
 40
1.0
 50
0.0
 51
90.0
  0
ARC
  5
98
  8
0
 10
181.0
 20
174.0
 30
0.0
 40
1.0
 50
89.999999999999943
 51
179.99999999999989
  0
ARC
  5
99
  8
0
 10
194.0
 20
96.000000000000014
 30
0.0
 40
1.0
 50
270.0
 51
0.0
  0
ARC
  5
9A
  8
0
 10
181.0
 20
96.000000000000014
 30
0.0
 40
1.0
 50
180.0
 51
269.99999999999989
  0
LINE
  5
9B
  8
0
 10
194.0
 20
175.0
 30
0.0
 11
194.0
 21
95.0
 31
0.0
  0
LINE
  5
9C
  8
0
 10
181.0
 20
175.0
 30
0.0
 11
181.0
 21
95.0
 31
0.0
  0
LINE
  5
9D
  8
0
 10
198.0
 20
152.5
 30
0.0
 11
218.0
 21
152.5
 31
0.0
  0
LINE
  5
9E
  8
0
 10
198.0
 20
117.5
 30
0.0
 11
218.0
 21
117.5
 31
0.0
  0
LINE
  5
9F
  8
0
 10
181.0
 20
175.0
 30
0.0
 11
194.0
 21
175.0
 31
0.0
  0
LINE
  5
A0
  8
0
 10
181.0
 20
95.000000000000014
 30
0.0
 11
194.0
 21
95.000000000000014
 31
0.0
  0
LINE
  5
A1
  8
0
 10
220.0
 20
150.5
 30
0.0
 11
220.0
 21
119.5
 31
0.0
  0
LINE
  5
A2
  8
0
 10
195.0
 20
174.0
 30
0.0
 11
195.0
 21
95.999998348187646
 31
0.0
  0
LINE
  5
A3
  8
1
 10
175.00000000000011
 20
135.0
 30
0.0
 11
225.0
 21
135.0
 31
0.0
  0
LINE
  5
A4
  8
0
 10
180.0
 20
174.0
 30
0.0
 11
180.0
 21
96.000000000000014
 31
0.0
  0
LINE
  5
A5
  8
2
 10
187.99999999999989
 20
127.5
 30
0.0
 11
183.6698729810777
 21
135.0
 31
0.0
  0
LINE
  5
A6
  8
2
 10
219.0
 20
127.0000000000001
 30
0.0
 11
220.00000000000011
 21
126.0000000000002
 31
0.0
  0
LINE
  5
A7
  8
2
 10
192.0
 20
135.0
 30
0.0
 11
192.0
 21
127.0
 31
0.0
  0
LINE
  5
A8
  8
2
 10
192.0
 20
127.0
 30
0.0
 11
219.0
 21
127.0000000000001
 31
0.0
  0
LINE
  5
A9
  8
2
 10
218.99999999999989
 20
135.0
 30
0.0
 11
219.0
 21
127.0
 31
0.0
  0
LINE
  5
AA
  8
2
 10
187.99999999999989
 20
127.5
 30
0.0
 11
191.99999999999989
 21
127.5
 31
0.0
  0
LINE
  5
AB
  8
2
 10
187.99999999999989
 20
127.5
 30
0.0
 11
187.9999999999998
 21
135.0
 31
0.0
  0
LINE
  5
AC
  8
2
 10
187.99999999999989
 20
142.5
 30
0.0
 11
187.9999999999998
 21
135.0
 31
0.0
  0
LINE
  5
AD
  8
2
 10
187.99999999999989
 20
142.5
 30
0.0
 11
191.99999999999989
 21
142.5
 31
0.0
  0
LINE
  5
AE
  8
2
 10
218.99999999999989
 20
135.0
 30
0.0
 11
219.0
 21
143.0
 31
0.0
  0
LINE
  5
AF
  8
2
 10
192.0
 20
143.0
 30
0.0
 11
219.0
 21
142.99999999999989
 31
0.0
  0
LINE
  5
B0
  8
2
 10
192.0
 20
135.0
 30
0.0
 11
192.0
 21
143.0
 31
0.0
  0
LINE
  5
B1
  8
2
 10
219.0
 20
142.99999999999989
 30
0.0
 11
220.00000000000011
 21
143.9999999999998
 31
0.0
  0
LINE
  5
B2
  8
2
 10
187.99999999999989
 20
142.5
 30
0.0
 11
183.6698729810777
 21
135.0
 31
0.0
  0
INSERT
  5
B3
  8
3
  2
*X0
 10
-20.0
 20
15.0
 30
0.0
  0
CIRCLE
  5
B4
  8
0
 10
60.0
 20
135.0
 30
0.0
 40
40.0
  0
CIRCLE
  5
B5
  8
0
 10
310.0
 20
135.0
 30
0.0
 40
40.0
  0
INSERT
  5
B6
  8
3
  2
*X0
 10
-20.0
 20
105.0
 30
0.0
  0
LINE
  5
B7
  8
2
 10
187.99999999999989
 20
232.5
 30
0.0
 11
183.6698729810777
 21
225.0
 31
0.0
  0
LINE
  5
B8
  8
2
 10
219.0
 20
232.99999999999989
 30
0.0
 11
220.00000000000011
 21
233.9999999999998
 31
0.0
  0
LINE
  5
B9
  8
2
 10
192.0
 20
225.0
 30
0.0
 11
192.0
 21
233.0
 31
0.0
  0
LINE
  5
BA
  8
2
 10
192.0
 20
233.0
 30
0.0
 11
219.0
 21
232.99999999999989
 31
0.0
  0
LINE
  5
BB
  8
2
 10
218.99999999999989
 20
225.0
 30
0.0
 11
219.0
 21
233.0
 31
0.0
  0
LINE
  5
BC
  8
2
 10
187.99999999999989
 20
232.5
 30
0.0
 11
191.99999999999989
 21
232.5
 31
0.0
  0
LINE
  5
BD
  8
2
 10
187.99999999999989
 20
232.5
 30
0.0
 11
187.9999999999998
 21
225.0
 31
0.0
  0
LINE
  5
BE
  8
2
 10
187.99999999999989
 20
217.50000000000011
 30
0.0
 11
187.9999999999998
 21
225.0
 31
0.0
  0
LINE
  5
BF
  8
2
 10
187.99999999999989
 20
217.50000000000011
 30
0.0
 11
191.99999999999989
 21
217.50000000000011
 31
0.0
  0
LINE
  5
C0
  8
2
 10
218.99999999999989
 20
225.0
 30
0.0
 11
219.0
 21
217.00000000000011
 31
0.0
  0
LINE
  5
C1
  8
2
 10
192.0
 20
217.00000000000011
 30
0.0
 11
219.0
 21
217.00000000000011
 31
0.0
  0
LINE
  5
C2
  8
2
 10
192.0
 20
225.0
 30
0.0
 11
192.0
 21
217.00000000000011
 31
0.0
  0
LINE
  5
C3
  8
2
 10
219.0
 20
217.00000000000011
 30
0.0
 11
220.00000000000011
 21
216.0000000000002
 31
0.0
  0
LINE
  5
C4
  8
2
 10
187.99999999999989
 20
217.50000000000011
 30
0.0
 11
183.6698729810777
 21
225.0
 31
0.0
  0
LINE
  5
C5
  8
0
 10
180.0
 20
264.0
 30
0.0
 11
180.0
 21
186.0
 31
0.0
  0
LINE
  5
C6
  8
1
 10
135.00000000000091
 20
225.0
 30
0.0
 11
225.0
 21
225.0
 31
0.0
  0
LINE
  5
C7
  8
0
 10
195.0
 20
264.0
 30
0.0
 11
195.0
 21
185.9999983481876
 31
0.0
  0
LINE
  5
C8
  8
0
 10
220.0
 20
240.5
 30
0.0
 11
220.0
 21
209.5
 31
0.0
  0
LINE
  5
C9
  8
0
 10
181.0
 20
185.0
 30
0.0
 11
194.0
 21
185.0
 31
0.0
  0
LINE
  5
CA
  8
0
 10
181.0
 20
265.0
 30
0.0
 11
194.0
 21
265.0
 31
0.0
  0
LINE
  5
CB
  8
0
 10
198.0
 20
207.5
 30
0.0
 11
218.0
 21
207.5
 31
0.0
  0
LINE
  5
CC
  8
0
 10
198.0
 20
242.5
 30
0.0
 11
218.0
 21
242.5
 31
0.0
  0
LINE
  5
CD
  8
0
 10
181.0
 20
265.0
 30
0.0
 11
181.0
 21
185.0
 31
0.0
  0
LINE
  5
CE
  8
0
 10
194.0
 20
265.0
 30
0.0
 11
194.0
 21
185.0
 31
0.0
  0
ARC
  5
CF
  8
0
 10
181.0
 20
186.0
 30
0.0
 40
1.0
 50
180.0
 51
269.99999999999989
  0
ARC
  5
D0
  8
0
 10
194.0
 20
186.0
 30
0.0
 40
1.0
 50
270.0
 51
0.0
  0
ARC
  5
D1
  8
0
 10
181.0
 20
264.0
 30
0.0
 40
1.0
 50
89.999999999999943
 51
179.99999999999989
  0
ARC
  5
D2
  8
0
 10
194.0
 20
264.0
 30
0.0
 40
1.0
 50
0.0
 51
90.0
  0
ARC
  5
D3
  8
0
 10
198.0
 20
245.5
 30
0.0
 40
3.0
 50
180.0
 51
269.99999999999989
  0
ARC
  5
D4
  8
0
 10
198.0
 20
204.5
 30
0.0
 40
3.0
 50
89.999999999999986
 51
179.99999999999989
  0
ARC
  5
D5
  8
0
 10
218.0
 20
240.5
 30
0.0
 40
2.0
 50
0.0
 51
90.0
  0
ARC
  5
D6
  8
0
 10
218.0
 20
209.5
 30
0.0
 40
2.0
 50
270.0
 51
0.0
  0
LINE
  5
D7
  8
0
 10
175.0829881598805
 20
221.0
 30
0.0
 11
175.0829881598805
 21
229.0
 31
0.0
  0
ARC
  5
D8
  8
0
 10
155.0
 20
207.5
 30
0.0
 40
24.0
 50
66.567785155427956
 51
125.96739120526151
  0
ARC
  5
D9
  8
0
 10
170.47999999999999
 20
242.75
 30
0.0
 40
14.5
 50
245.8338561803119
 51
288.50862807694608
  0
LINE
  5
DA
  8
0
 10
175.0829881598805
 20
229.0
 30
0.0
 11
180.0
 21
229.0
 31
0.0
  0
LINE
  5
DB
  8
0
 10
175.0829881598805
 20
221.0
 30
0.0
 11
180.0
 21
221.0
 31
0.0
  0
ARC
  5
DC
  8
0
 10
170.47999999999999
 20
207.25
 30
0.0
 40
14.5
 50
71.49137192305389
 51
114.1661438196881
  0
ARC
  5
DD
  8
0
 10
155.0
 20
242.5
 30
0.0
 40
24.0
 50
234.03260879473851
 51
293.43221484457212
  0
ARC
  5
DE
  8
0
 10
142.5
 20
225.0
 30
0.0
 40
2.5
 50
129.66646025875821
 51
230.33353974124191
  0
ARC
  5
DF
  8
0
 10
142.5
 20
45.0
 30
0.0
 40
2.5
 50
129.66646025875821
 51
230.33353974124191
  0
ARC
  5
E0
  8
0
 10
155.0
 20
62.5
 30
0.0
 40
24.0
 50
234.03260879473851
 51
293.43221484457212
  0
ARC
  5
E1
  8
0
 10
170.47999999999999
 20
27.25
 30
0.0
 40
14.5
 50
71.49137192305389
 51
114.1661438196881
  0
LINE
  5
E2
  8
0
 10
175.0829881598805
 20
41.0
 30
0.0
 11
180.0
 21
41.0
 31
0.0
  0
LINE
  5
E3
  8
0
 10
175.0829881598805
 20
49.0
 30
0.0
 11
180.0
 21
49.0
 31
0.0
  0
ARC
  5
E4
  8
0
 10
170.47999999999999
 20
62.75
 30
0.0
 40
14.5
 50
245.8338561803119
 51
288.50862807694608
  0
ARC
  5
E5
  8
0
 10
155.0
 20
27.5
 30
0.0
 40
24.0
 50
66.567785155427956
 51
125.96739120526151
  0
LINE
  5
E6
  8
0
 10
175.0829881598805
 20
41.0
 30
0.0
 11
175.0829881598805
 21
49.0
 31
0.0
  0
ARC
  5
E7
  8
0
 10
218.0
 20
29.5
 30
0.0
 40
2.0
 50
270.0
 51
0.0
  0
ARC
  5
E8
  8
0
 10
218.0
 20
60.500000000000028
 30
0.0
 40
2.0
 50
0.0
 51
90.0
  0
ARC
  5
E9
  8
0
 10
198.0
 20
24.5
 30
0.0
 40
3.0
 50
89.999999999999986
 51
179.99999999999989
  0
ARC
  5
EA
  8
0
 10
198.0
 20
65.500000000000028
 30
0.0
 40
3.0
 50
180.0
 51
269.99999999999989
  0
ARC
  5
EB
  8
0
 10
194.0
 20
84.0
 30
0.0
 40
1.0
 50
0.0
 51
90.0
  0
ARC
  5
EC
  8
0
 10
181.0
 20
84.0
 30
0.0
 40
1.0
 50
89.999999999999943
 51
179.99999999999989
  0
ARC
  5
ED
  8
0
 10
194.0
 20
6.0
 30
0.0
 40
1.0
 50
270.0
 51
0.0
  0
ARC
  5
EE
  8
0
 10
181.0
 20
6.0
 30
0.0
 40
1.0
 50
180.0
 51
269.99999999999989
  0
LINE
  5
EF
  8
0
 10
194.0
 20
85.0
 30
0.0
 11
194.0
 21
5.0
 31
0.0
  0
LINE
  5
F0
  8
0
 10
181.0
 20
85.0
 30
0.0
 11
181.0
 21
5.0
 31
0.0
  0
LINE
  5
F1
  8
0
 10
198.0
 20
62.500000000000028
 30
0.0
 11
218.0
 21
62.500000000000028
 31
0.0
  0
LINE
  5
F2
  8
0
 10
198.0
 20
27.5
 30
0.0
 11
218.0
 21
27.5
 31
0.0
  0
LINE
  5
F3
  8
0
 10
181.0
 20
85.0
 30
0.0
 11
194.0
 21
85.0
 31
0.0
  0
LINE
  5
F4
  8
0
 10
181.0
 20
5.0
 30
0.0
 11
194.0
 21
5.0
 31
0.0
  0
LINE
  5
F5
  8
0
 10
220.0
 20
60.500000000000028
 30
0.0
 11
220.0
 21
29.5
 31
0.0
  0
LINE
  5
F6
  8
0
 10
195.0
 20
84.0
 30
0.0
 11
195.0
 21
5.9999983481876589
 31
0.0
  0
LINE
  5
F7
  8
1
 10
135.00000000000091
 20
44.999999999999972
 30
0.0
 11
225.0
 21
45.0
 31
0.0
  0
LINE
  5
F8
  8
0
 10
180.0
 20
84.0
 30
0.0
 11
180.0
 21
6.0
 31
0.0
  0
LINE
  5
F9
  8
2
 10
187.99999999999989
 20
37.500000000000057
 30
0.0
 11
183.6698729810777
 21
45.0
 31
0.0
  0
LINE
  5
FA
  8
2
 10
219.0
 20
37.000000000000121
 30
0.0
 11
220.00000000000011
 21
36.000000000000171
 31
0.0
  0
LINE
  5
FB
  8
2
 10
192.0
 20
45.0
 30
0.0
 11
192.0
 21
37.000000000000057
 31
0.0
  0
LINE
  5
FC
  8
2
 10
192.0
 20
37.000000000000057
 30
0.0
 11
219.0
 21
37.000000000000121
 31
0.0
  0
LINE
  5
FD
  8
2
 10
218.99999999999989
 20
45.0
 30
0.0
 11
219.0
 21
37.000000000000057
 31
0.0
  0
LINE
  5
FE
  8
2
 10
187.99999999999989
 20
37.500000000000057
 30
0.0
 11
191.99999999999989
 21
37.500000000000057
 31
0.0
  0
LINE
  5
FF
  8
2
 10
187.99999999999989
 20
37.500000000000057
 30
0.0
 11
187.9999999999998
 21
45.0
 31
0.0
  0
LINE
  5
100
  8
2
 10
187.99999999999989
 20
52.5
 30
0.0
 11
187.9999999999998
 21
45.0
 31
0.0
  0
LINE
  5
101
  8
2
 10
187.99999999999989
 20
52.5
 30
0.0
 11
191.99999999999989
 21
52.5
 31
0.0
  0
LINE
  5
102
  8
2
 10
218.99999999999989
 20
45.0
 30
0.0
 11
219.0
 21
53.0
 31
0.0
  0
LINE
  5
103
  8
2
 10
192.0
 20
53.0
 30
0.0
 11
219.0
 21
52.999999999999893
 31
0.0
  0
LINE
  5
104
  8
2
 10
192.0
 20
45.0
 30
0.0
 11
192.0
 21
53.0
 31
0.0
  0
LINE
  5
105
  8
2
 10
219.0
 20
52.999999999999893
 30
0.0
 11
220.00000000000011
 21
53.999999999999829
 31
0.0
  0
LINE
  5
106
  8
2
 10
187.99999999999989
 20
52.5
 30
0.0
 11
183.6698729810777
 21
45.0
 31
0.0
  0
INSERT
  5
107
  8
3
  2
*X0
 10
-20.0
 20
-75.0
 30
0.0
  0
LINE
  5
108
  8
1
 10
105.0
 20
135.0
 30
0.0
 11
15.0
 21
135.0
 31
0.0
  0
LINE
  5
109
  8
1
 10
60.0
 20
180.0
 30
0.0
 11
60.0
 21
90.0
 31
0.0
  0
LINE
  5
10A
  8
1
 10
355.0
 20
135.0
 30
0.0
 11
265.0
 21
135.0
 31
0.0
  0
LINE
  5
10B
  8
1
 10
310.0
 20
180.0
 30
0.0
 11
310.0
 21
90.0
 31
0.0
  0
LINE
  5
10C
  8
1
 10
71.5
 20
105.0
 30
0.0
 11
48.5
 21
105.0
 31
0.0
  0
LINE
  5
10D
  8
1
 10
321.5
 20
105.0
 30
0.0
 11
298.5
 21
105.0
 31
0.0
  0
CIRCLE
  5
10E
  8
0
 10
60.0
 20
105.0
 30
0.0
 40
6.5
  0
CIRCLE
  5
10F
  8
0
 10
310.0
 20
135.0
 30
0.0
 40
17.500000000000028
  0
CIRCLE
  5
110
  8
0
 10
310.0
 20
135.0
 30
0.0
 40
7.9999999999998863
  0
TEXT
  5
279
  8
0
 62
     3
 10
0.0
 20
0.0
 30
0.0
 40
10.0
  1
AHG80R
  7
STANDARD1
  0
ENDSEC
  0
EOF
