  0
SECTION
  2
HEADER
  9
$ACADVER
  1
AC1009
  9
$INSBASE
 10
0.0
 20
0.0
 30
0.0
  9
$EXTMIN
 10
-0.0204638472032742
 20
-2.960436562073669
 30
0.0
  9
$EXTMAX
 10
383.42312378197818
 20
171.5968147622587
 30
0.0
  9
$LIMMIN
 10
0.0
 20
0.0
  9
$LIMMAX
 10
375.0
 20
270.0
  9
$ORTHOMODE
 70
     1
  9
$REGENMODE
 70
     1
  9
$FILLMODE
 70
     1
  9
$QTEXTMODE
 70
     0
  9
$MIRRTEXT
 70
     0
  9
$DRAGMODE
 70
     2
  9
$LTSCALE
 40
10.0
  9
$OSMODE
 70
  3071
  9
$ATTMODE
 70
     1
  9
$TEXTSIZE
 40
0.2
  9
$TRACEWID
 40
0.05
  9
$TEXTSTYLE
  7
STANDARD
  9
$CLAYER
  8
0
  9
$CELTYPE
  6
BYLAYER
  9
$CECOLOR
 62
   256
  9
$DIMSCALE
 40
1.0
  9
$DIMASZ
 40
3.0
  9
$DIMEXO
 40
2.0
  9
$DIMDLI
 40
0.38
  9
$DIMRND
 40
0.0
  9
$DIMDLE
 40
0.0
  9
$DIMEXE
 40
2.0
  9
$DIMTP
 40
0.0
  9
$DIMTM
 40
0.0
  9
$DIMTXT
 40
3.2000000000000002
  9
$DIMCEN
 40
0.09
  9
$DIMTSZ
 40
0.0
  9
$DIMTOL
 70
     0
  9
$DIMLIM
 70
     0
  9
$DIMTIH
 70
     0
  9
$DIMTOH
 70
     0
  9
$DIMSE1
 70
     0
  9
$DIMSE2
 70
     0
  9
$DIMTAD
 70
     1
  9
$DIMZIN
 70
     0
  9
$DIMBLK
  1

  9
$DIMASO
 70
     1
  9
$DIMSHO
 70
     0
  9
$DIMPOST
  1

  9
$DIMAPOST
  1

  9
$DIMALT
 70
     0
  9
$DIMALTD
 70
     2
  9
$DIMALTF
 40
25.399999999999999
  9
$DIMLFAC
 40
1.0
  9
$DIMTOFL
 70
     0
  9
$DIMTVP
 40
1.6000000000000001
  9
$DIMTIX
 70
     1
  9
$DIMSOXD
 70
     0
  9
$DIMSAH
 70
     0
  9
$DIMBLK1
  1

  9
$DIMBLK2
  1

  9
$DIMSTYLE
  2
STANDARD
  9
$DIMCLRD
 70
     0
  9
$DIMCLRE
 70
     0
  9
$DIMCLRT
 70
     0
  9
$DIMTFAC
 40
1.0
  9
$DIMGAP
 40
0.09
  9
$LUNITS
 70
     2
  9
$LUPREC
 70
     4
  9
$SKETCHINC
 40
0.1
  9
$FILLETRAD
 40
3.0
  9
$AUNITS
 70
     0
  9
$AUPREC
 70
     4
  9
$MENU
  1
E:\r13\win\SUPPORT\ACAD
  9
$ELEVATION
 40
0.0
  9
$PELEVATION
 40
0.0
  9
$THICKNESS
 40
0.0
  9
$LIMCHECK
 70
     0
  9
$BLIPMODE
 70
     0
  9
$CHAMFERA
 40
0.0
  9
$CHAMFERB
 40
0.0
  9
$SKPOLY
 70
     0
  9
$TDCREATE
 40
2449839.7832986112
  9
$TDUPDATE
 40
2456597.502022732
  9
$TDINDWG
 40
0.1520853819
  9
$TDUSRTIMER
 40
0.1520853819
  9
$USRTIMER
 70
     1
  9
$ANGBASE
 50
0.0
  9
$ANGDIR
 70
     0
  9
$PDMODE
 70
     0
  9
$PDSIZE
 40
0.0
  9
$PLINEWID
 40
0.0
  9
$COORDS
 70
     1
  9
$SPLFRAME
 70
     0
  9
$SPLINETYPE
 70
     6
  9
$SPLINESEGS
 70
     8
  9
$ATTDIA
 70
     0
  9
$ATTREQ
 70
     1
  9
$HANDLING
 70
     1
  9
$HANDSEED
  5
12DD
  9
$SURFTAB1
 70
     6
  9
$SURFTAB2
 70
     6
  9
$SURFTYPE
 70
     6
  9
$SURFU
 70
     6
  9
$SURFV
 70
     6
  9
$UCSNAME
  2

  9
$UCSORG
 10
0.0
 20
0.0
 30
0.0
  9
$UCSXDIR
 10
1.0
 20
0.0
 30
0.0
  9
$UCSYDIR
 10
0.0
 20
1.0
 30
0.0
  9
$PUCSNAME
  2

  9
$PUCSORG
 10
0.0
 20
0.0
 30
0.0
  9
$PUCSXDIR
 10
1.0
 20
0.0
 30
0.0
  9
$PUCSYDIR
 10
0.0
 20
1.0
 30
0.0
  9
$USERI1
 70
     0
  9
$USERI2
 70
     1
  9
$USERI3
 70
     1
  9
$USERI4
 70
     0
  9
$USERI5
 70
     0
  9
$USERR1
 40
0.0
  9
$USERR2
 40
0.0
  9
$USERR3
 40
0.0
  9
$USERR4
 40
0.0
  9
$USERR5
 40
0.0
  9
$WORLDVIEW
 70
     1
  9
$SHADEDGE
 70
     3
  9
$SHADEDIF
 70
    70
  9
$TILEMODE
 70
     1
  9
$MAXACTVP
 70
    16
  9
$PLIMCHECK
 70
     0
  9
$PEXTMIN
 10
1.0000000000000000E+020
 20
1.0000000000000000E+020
 30
1.0000000000000000E+020
  9
$PEXTMAX
 10
-1.0000000000000000E+020
 20
-1.0000000000000000E+020
 30
-1.0000000000000000E+020
  9
$PLIMMIN
 10
0.0
 20
0.0
  9
$PLIMMAX
 10
12.0
 20
9.0
  9
$UNITMODE
 70
     0
  9
$VISRETAIN
 70
     0
  9
$PLINEGEN
 70
     0
  9
$PSLTSCALE
 70
     0
  0
ENDSEC
  0
SECTION
  2
TABLES
  0
TABLE
  2
VPORT
 70
     1
  0
VPORT
  2
*ACTIVE
 70
     0
 10
0.0
 20
0.0
 11
1.0
 21
1.0
 12
199.26076629371491
 22
133.5127261426681
 13
0.0
 23
0.0
 14
10.0
 24
10.0
 15
10.0
 25
10.0
 16
0.0
 26
0.0
 36
1.0
 17
0.0
 27
0.0
 37
0.0
 40
275.42274993631997
 41
1.831871345029239
 42
50.0
 43
0.0
 44
0.0
 50
0.0
 51
0.0
 71
     0
 72
   500
 73
     1
 74
     0
 75
     0
 76
     0
 77
     0
 78
     0
  0
ENDTAB
  0
TABLE
  2
LTYPE
 70
     4
  0
LTYPE
  2
CONTINUOUS
 70
     0
  3
Solid Line
 72
    65
 73
     0
 40
0.0
  0
LTYPE
  2
CENTER
 70
     0
  3
____ _ ____ _ ____ _ ____ _ ____ _ ____ _ ____
 72
    65
 73
     4
 40
2.0
 49
1.25
 49
-0.25
 49
0.25
 49
-0.25
  0
LTYPE
  2
HIDDEN
 70
     0
  3
_ _ _ _ _ _ _ _ _ _ _ _ _ _ _ _ _ _ _ _ _ _ _
 72
    65
 73
     2
 40
0.375
 49
0.25
 49
-0.125
  0
LTYPE
  2
PHANTOM2
 70
     0
  3
___ _ _ ___ _ _ ___ _ _ ___ _ _
 72
    65
 73
     6
 40
1.25
 49
0.625
 49
-0.125
 49
0.125
 49
-0.125
 49
0.125
 49
-0.125
  0
ENDTAB
  0
TABLE
  2
LAYER
 70
     4
  0
LAYER
  2
0
 70
     0
 62
     7
  6
CONTINUOUS
  0
LAYER
  2
1
 70
     0
 62
     1
  6
CENTER
  0
LAYER
  2
2
 70
     0
 62
     2
  6
HIDDEN
  0
LAYER
  2
DEFPOINTS
 70
     0
 62
     7
  6
CONTINUOUS
  0
ENDTAB
  0
TABLE
  2
STYLE
 70
     2
  0
STYLE
  2
STANDARD
 70
     0
 40
0.0
 41
1.0
 50
0.0
 71
     0
 42
0.2
  3
TXT
  4
BIGFONT
  0
STYLE
  2
STANDARD1
 70
     0
 40
0.0
 41
1.0
 50
0.0
 71
     0
 42
3.0
  3
txt
  4

  0
ENDTAB
  0
TABLE
  2
VIEW
 70
     2
  0
VIEW
  2
ALL
 70
     0
 40
179.5384664489153
 10
135.0
 20
89.769233224457665
 41
0.0
 11
0.0
 21
0.0
 31
1.0
 12
0.0
 22
0.0
 32
0.0
 42
0.0
 43
0.0
 44
0.0
 50
0.0
 71
     0
  0
VIEW
  2
OLE1
 70
     0
 40
11.133766966105441
 10
152.27031770731199
 20
165.15764637775351
 41
20.06481025186628
 11
0.0
 21
0.0
 31
1.0
 12
0.0
 22
0.0
 32
0.0
 42
50.0
 43
0.0
 44
0.0
 50
0.0
 71
     0
  0
ENDTAB
  0
TABLE
  2
UCS
 70
     0
  0
ENDTAB
  0
TABLE
  2
APPID
 70
     4
  0
APPID
  2
ACAD
 70
     0
  0
APPID
  2
ACAD_EXEMPT_FROM_CAD_STANDARDS
 70
     0
  0
APPID
  2
ACAD_MLEADERVER
 70
     0
  0
APPID
  2
ACAD_NAV_VCDISPLAY
 70
     0
  0
ENDTAB
  0
TABLE
  2
DIMSTYLE
 70
     1
  0
DIMSTYLE
  2
STANDARD
 70
     0
  3

  4

  5

  6

  7

 40
1.0
 41
0.18
 42
0.0625
 43
0.38
 44
0.18
 45
0.0
 46
0.0
 47
0.0
 48
0.0
140
0.18
141
0.09
142
0.0
143
25.399999999999999
144
1.0
145
0.0
146
1.0
147
0.09
 71
     0
 72
     0
 73
     1
 74
     1
 75
     0
 76
     0
 77
     0
 78
     0
170
     0
171
     2
172
     0
173
     0
174
     0
175
     0
176
     0
177
     0
178
     0
  0
ENDTAB
  0
ENDSEC
  0
SECTION
  2
BLOCKS
  0
BLOCK
  8
0
  2
$MODEL_SPACE
 70
     0
 10
0.0
 20
0.0
 30
0.0
  3
$MODEL_SPACE
  1

  0
ENDBLK
  5
130
  8
0
  0
BLOCK
 67
     1
  8
0
  2
$PAPER_SPACE
 70
     0
 10
0.0
 20
0.0
 30
0.0
  3
$PAPER_SPACE
  1

  0
ENDBLK
  5
12E
 67
     1
  8
0
  0
ENDSEC
  0
SECTION
  2
ENTITIES
  0
LINE
  5
E8A
  8
0
 10
118.4231237819783
 20
31.805632727921171
 30
0.0
 11
147.92312378197829
 21
31.805632727921171
 31
0.0
  0
LINE
  5
E8B
  8
0
 10
118.4231237819783
 20
31.805632727921171
 30
0.0
 11
118.4231237819783
 21
51.805632727921171
 31
0.0
  0
LINE
  5
E8C
  8
0
 10
147.6730871718527
 20
85.805632727921164
 30
0.0
 11
349.17316039210402
 21
85.805632727921164
 31
0.0
  0
LINE
  5
E8D
  8
0
 10
378.42312378197818
 20
51.805632727921171
 30
0.0
 11
378.42312378197818
 21
31.805632727921171
 31
0.0
  0
LINE
  5
E8E
  8
0
 10
147.92312378197829
 20
31.805632727921171
 30
0.0
 11
147.92312378197829
 21
70.305632727921164
 31
0.0
  0
LINE
  5
E8F
  8
0
 10
154.92312378197829
 20
77.305632727921164
 30
0.0
 11
341.92312378197818
 21
77.305632727921164
 31
0.0
  0
LINE
  5
E90
  8
0
 10
348.92312378197818
 20
70.305632727921164
 30
0.0
 11
348.9231237819784
 21
31.805632727921171
 31
0.0
  0
LINE
  5
E91
  8
1
 10
248.42312378197829
 20
90.805632727921164
 30
0.0
 11
248.4231237819784
 21
72.305632727921164
 31
0.0
  0
LINE
  5
E92
  8
1
 10
365.92312378197829
 20
26.805632727921171
 30
0.0
 11
365.92312378197818
 21
75.395132082590294
 31
0.0
  0
LINE
  5
E93
  8
0
 10
118.4231237819783
 20
31.805632727921171
 30
0.0
 11
130.92312378197829
 21
31.805632727921171
 31
0.0
  0
LINE
  5
E94
  8
1
 10
130.92312378197829
 20
26.805632727921161
 30
0.0
 11
130.92312378197829
 21
75.395132082590294
 31
0.0
  0
LINE
  5
E95
  8
0
 10
378.42312378197818
 20
51.805632727920703
 30
0.0
 11
358.97165013473301
 21
80.733085272947818
 31
0.0
  0
LINE
  5
E96
  8
0
 10
118.42312378197821
 20
51.805632727920703
 30
0.0
 11
137.87459742922371
 21
80.733085272947818
 31
0.0
  0
LINE
  5
E97
  8
0
 10
348.9231237819784
 20
31.805632727921171
 30
0.0
 11
378.42312378197818
 21
31.805632727921171
 31
0.0
  0
LINE
  5
E98
  8
2
 10
355.92312378197852
 20
51.805632727921171
 30
0.0
 11
378.42312378197818
 21
51.805632727920703
 31
0.0
  0
ARC
  5
E99
  8
0
 10
349.17316039210402
 20
73.805632727921164
 30
0.0
 40
12.0
 50
35.260000000000417
 51
90.0
  0
ARC
  5
E9A
  8
0
 10
147.6730871718527
 20
73.805632727921164
 30
0.0
 40
12.0
 50
90.0
 51
144.73999999999961
  0
ARC
  5
E9B
  8
0
 10
154.92312378197829
 20
70.305632727921164
 30
0.0
 40
7.0
 50
90.0
 51
180.0
  0
ARC
  5
E9C
  8
0
 10
341.92312378197818
 20
70.305632727921164
 30
0.0
 40
7.0
 50
0.0
 51
90.0
  0
LINE
  5
E9D
  8
2
 10
355.92312378197852
 20
51.805632727921171
 30
0.0
 11
355.92312378197852
 21
79.299949637576646
 31
0.0
  0
ARC
  5
E9E
  8
2
 10
349.42312378197852
 20
79.299949637576646
 30
0.0
 40
6.5
 50
0.0
 51
87.395130512337076
  0
LINE
  5
E9F
  8
2
 10
371.17312378197818
 20
31.805632727921171
 30
0.0
 11
371.17312378197818
 21
41.305632727920859
 31
0.0
  0
LINE
  5
EA0
  8
2
 10
374.17312378197818
 20
41.305632727920802
 30
0.0
 11
374.17312378197818
 21
51.805632727920823
 31
0.0
  0
LINE
  5
EA1
  8
2
 10
360.67312378197818
 20
31.805632727921171
 30
0.0
 11
360.67312378197829
 21
41.305632727921072
 31
0.0
  0
LINE
  5
EA2
  8
2
 10
374.17312378197818
 20
41.305632727920802
 30
0.0
 11
357.67312378197818
 21
41.305632727920802
 31
0.0
  0
LINE
  5
EA3
  8
2
 10
357.67312378197818
 20
41.305632727921122
 30
0.0
 11
357.67312378197818
 21
51.8056327279211
 31
0.0
  0
LINE
  5
EA4
  8
2
 10
139.17312378197821
 20
41.305632727921122
 30
0.0
 11
139.17312378197821
 21
51.805632727921171
 31
0.0
  0
LINE
  5
EA5
  8
2
 10
122.67312378197821
 20
41.305632727920802
 30
0.0
 11
139.17312378197821
 21
41.305632727920802
 31
0.0
  0
LINE
  5
EA6
  8
2
 10
136.17312378197821
 20
31.805632727921171
 30
0.0
 11
136.17312378197821
 21
41.305632727921058
 31
0.0
  0
LINE
  5
EA7
  8
2
 10
140.92312378197821
 20
51.805632727921171
 30
0.0
 11
140.92312378197821
 21
79.299949637576646
 31
0.0
  0
LINE
  5
EA8
  8
2
 10
140.92312378197821
 20
51.805632727921171
 30
0.0
 11
118.42312378197821
 21
51.805632727920703
 31
0.0
  0
ARC
  5
EA9
  8
2
 10
147.42312378197821
 20
79.299949637576646
 30
0.0
 40
6.5
 50
92.604869487662882
 51
180.0
  0
LINE
  5
EAA
  8
2
 10
122.67312378197821
 20
41.305632727920788
 30
0.0
 11
122.6731237819783
 21
51.805632727921171
 31
0.0
  0
LINE
  5
EAB
  8
2
 10
125.67312378197821
 20
31.805632727921171
 30
0.0
 11
125.67312378197821
 21
41.305632727920852
 31
0.0
  0
LINE
  5
EAC
  8
1
 10
248.4231237819784
 20
171.5968147622587
 30
0.0
 11
248.4231237819784
 21
131.99681476225859
 31
0.0
  0
LINE
  5
EAD
  8
1
 10
113.42312378197821
 20
151.79681476225869
 30
0.0
 11
383.42312378197818
 21
151.79681476225869
 31
0.0
  0
CIRCLE
  5
EAE
  8
0
 10
130.92312378197821
 20
151.79681476225869
 30
0.0
 40
5.25
  0
LINE
  5
EAF
  8
1
 10
130.92312378197821
 20
162.04681476225869
 30
0.0
 11
130.92312378197821
 21
141.5468147622594
 31
0.0
  0
LINE
  5
EB0
  8
0
 10
118.42312378197821
 20
151.79681476225869
 30
0.0
 11
119.5746029598175
 21
139.53534753401581
 31
0.0
  0
LINE
  5
EB1
  8
0
 10
118.42312378197821
 20
151.79681476225869
 30
0.0
 11
119.5746029598175
 21
164.05828199050171
 31
0.0
  0
LINE
  5
EB2
  8
0
 10
147.6730871718527
 20
151.79681476225869
 30
0.0
 11
349.17316039210431
 21
151.79681476225849
 31
0.0
  0
LINE
  5
EB3
  8
0
 10
146.5231237819784
 20
31.805632727921171
 30
0.0
 11
146.52312378197831
 21
69.805632727921164
 31
0.0
  0
ARC
  5
EB4
  8
0
 10
154.92312378197829
 20
69.805632727921164
 30
0.0
 40
8.4000000000000004
 50
90.0
 51
180.0
  0
LINE
  5
EB5
  8
0
 10
154.92312378197829
 20
78.205632727921142
 30
0.0
 11
341.92312378197818
 21
78.205632727921142
 31
0.0
  0
ARC
  5
EB6
  8
0
 10
341.92312378197818
 20
69.805632727921164
 30
0.0
 40
8.4000000000000004
 50
0.0
 51
90.0
  0
LINE
  5
EB7
  8
0
 10
350.32312378197821
 20
69.805632727921164
 30
0.0
 11
350.32312378197832
 21
31.805632727921171
 31
0.0
  0
LINE
  5
EB8
  8
0
 10
122.5631838911128
 20
166.79681476225869
 30
0.0
 11
147.92312378197829
 21
166.79681476225869
 31
0.0
  0
LINE
  5
EB9
  8
0
 10
122.56318705409269
 20
136.79681476225869
 30
0.0
 11
147.92312378197829
 21
136.79681476225869
 31
0.0
  0
LINE
  5
EBA
  8
0
 10
147.92312378197829
 20
136.79681476225869
 30
0.0
 11
147.92312378197829
 21
136.99681476225879
 31
0.0
  0
LINE
  5
EBB
  8
0
 10
147.42312378197829
 20
166.59681476225879
 30
0.0
 11
349.42312378197829
 21
166.59681476225859
 31
0.0
  0
LINE
  5
EBC
  8
0
 10
147.42312378197829
 20
136.99681476225879
 30
0.0
 11
349.42312378197829
 21
136.99681476225851
 31
0.0
  0
LINE
  5
EBD
  8
0
 10
147.92312378197829
 20
166.59681476225879
 30
0.0
 11
147.92312378197829
 21
166.79681476225869
 31
0.0
  0
ARC
  5
EBE
  8
0
 10
122.56318705409269
 20
163.79681476225869
 30
0.0
 40
3.0
 50
90.0
 51
175.0
  0
ARC
  5
EBF
  8
0
 10
122.56318705409269
 20
139.79681476225869
 30
0.0
 40
3.0
 50
185.0
 51
270.0
  0
LINE
  5
EC0
  8
0
 10
142.22150010017279
 20
166.79681476225869
 30
0.0
 11
147.42312378197829
 21
166.59681476225879
 31
0.0
  0
LINE
  5
EC1
  8
0
 10
142.22150010017151
 20
136.79681476225869
 30
0.0
 11
147.42312378197829
 21
136.99681476225871
 31
0.0
  0
LINE
  5
EC2
  8
0
 10
140.92312378197821
 20
149.29681476225869
 30
0.0
 11
140.92312378197821
 21
154.29681476225869
 31
0.0
  0
LINE
  5
EC3
  8
0
 10
121.3931387558501
 20
160.79681476225869
 30
0.0
 11
134.42312378197821
 21
160.79681476225869
 31
0.0
  0
LINE
  5
EC4
  8
0
 10
121.3931387558501
 20
142.79681476225869
 30
0.0
 11
134.42312378197821
 21
142.79681476225869
 31
0.0
  0
ARC
  5
EC5
  8
0
 10
134.42312378197821
 20
154.29681476225869
 30
0.0
 40
6.5
 50
0.0
 51
90.0
  0
ARC
  5
EC6
  8
0
 10
134.42312378197821
 20
149.29681476225869
 30
0.0
 40
6.5
 50
270.0
 51
0.0
  0
CIRCLE
  5
EC7
  8
0
 10
130.92312378197821
 20
151.79681476225869
 30
0.0
 40
8.2500000000000284
  0
ARC
  5
EC8
  8
0
 10
121.3931387558501
 20
162.79681476225869
 30
0.0
 40
2.0
 50
190.00001004654271
 51
270.0
  0
ARC
  5
EC9
  8
0
 10
121.3931387558501
 20
140.79681476225869
 30
0.0
 40
2.0
 50
90.0
 51
169.99998995346041
  0
ARC
  5
ECA
  8
0
 10
375.45310880810632
 20
140.79681476225869
 30
0.0
 40
2.0
 50
10.00001004654276
 51
90.0
  0
ARC
  5
ECB
  8
0
 10
375.45310880810632
 20
162.79681476225869
 30
0.0
 40
2.0
 50
270.0
 51
349.99998995346368
  0
CIRCLE
  5
ECC
  8
0
 10
365.92312378197818
 20
151.79681476225869
 30
0.0
 40
8.2500000000000284
  0
ARC
  5
ECD
  8
0
 10
362.42312378197852
 20
149.29681476225869
 30
0.0
 40
6.5
 50
180.0
 51
270.0
  0
ARC
  5
ECE
  8
0
 10
362.42312378197852
 20
154.29681476225869
 30
0.0
 40
6.5
 50
90.0
 51
180.0
  0
LINE
  5
ECF
  8
0
 10
375.45310880810632
 20
142.79681476225869
 30
0.0
 11
362.42312378197852
 21
142.79681476225869
 31
0.0
  0
LINE
  5
ED0
  8
0
 10
375.45310880810632
 20
160.79681476225869
 30
0.0
 11
362.42312378197852
 21
160.79681476225869
 31
0.0
  0
LINE
  5
ED1
  8
0
 10
355.92312378197852
 20
149.29681476225869
 30
0.0
 11
355.92312378197852
 21
154.29681476225869
 31
0.0
  0
LINE
  5
ED2
  8
0
 10
354.62474746378382
 20
136.79681476225869
 30
0.0
 11
349.42312378197829
 21
136.99681476225871
 31
0.0
  0
LINE
  5
ED3
  8
0
 10
354.6247474637841
 20
166.79681476225869
 30
0.0
 11
349.42312378197829
 21
166.59681476225879
 31
0.0
  0
ARC
  5
ED4
  8
0
 10
374.28306050986367
 20
139.79681476225869
 30
0.0
 40
3.0
 50
270.0
 51
354.99999999999989
  0
ARC
  5
ED5
  8
0
 10
374.28306050986401
 20
163.79681476225869
 30
0.0
 40
3.0
 50
5.0000000000000258
 51
90.0
  0
LINE
  5
ED6
  8
0
 10
348.92312378197818
 20
166.59681476225859
 30
0.0
 11
348.92312378197818
 21
166.79681476225869
 31
0.0
  0
LINE
  5
ED7
  8
0
 10
348.92312378197818
 20
136.79681476225869
 30
0.0
 11
348.92312378197818
 21
136.99681476225859
 31
0.0
  0
LINE
  5
ED8
  8
0
 10
374.28306050986367
 20
136.79681476225869
 30
0.0
 11
348.92312378197818
 21
136.79681476225869
 31
0.0
  0
LINE
  5
ED9
  8
0
 10
374.2830636728437
 20
166.79681476225869
 30
0.0
 11
348.92312378197818
 21
166.79681476225869
 31
0.0
  0
LINE
  5
EDA
  8
0
 10
378.42312378197818
 20
151.79681476225869
 30
0.0
 11
377.27164460413923
 21
164.05828199050171
 31
0.0
  0
LINE
  5
EDB
  8
0
 10
378.42312378197818
 20
151.79681476225869
 30
0.0
 11
377.271644604139
 21
139.53534753401581
 31
0.0
  0
LINE
  5
EDC
  8
1
 10
365.92312378197818
 20
162.04681476225869
 30
0.0
 11
365.92312378197818
 21
141.5468147622594
 31
0.0
  0
CIRCLE
  5
EDD
  8
0
 10
365.92312378197818
 20
151.79681476225869
 30
0.0
 40
5.25
  0
POLYLINE
  5
EDE
  8
0
 66
     1
 10
0.0
 20
0.0
 30
0.0
  0
VERTEX
  5
EDF
  8
0
 10
45.254281245275713
 20
79.291131671914229
 30
0.0
 42
0.0541364712747341
  0
VERTEX
  5
EE0
  8
0
 10
42.632737908480408
 20
79.006455142939842
 30
0.0
 42
0.0679738003603239
  0
VERTEX
  5
EE1
  8
0
 10
40.658087167563167
 20
78.281007809530763
 30
0.0
 42
0.105421926827186
 70
     2
 50
207.94958648640309
  0
VERTEX
  5
EE2
  8
0
 10
39.161566033202689
 20
77.025918621192261
 30
0.0
 42
0.167245732003949
  0
VERTEX
  5
EE3
  8
0
 10
38.754281245275713
 20
75.842353081287797
 30
0.0
 42
0.167245732003949
  0
SEQEND
  5
EE4
  8
0
  0
POLYLINE
  5
EE5
  8
0
 66
     1
 10
0.0
 20
0.0
 30
0.0
  0
VERTEX
  5
EE6
  8
0
 10
50.254281245275713
 20
79.291131671914229
 30
0.0
 42
-0.0541364712747341
  0
VERTEX
  5
EE7
  8
0
 10
52.875824582071012
 20
79.006455142939842
 30
0.0
 42
-0.0679738003603239
  0
VERTEX
  5
EE8
  8
0
 10
54.850475322988252
 20
78.281007809530763
 30
0.0
 42
-0.105421926827186
 70
     2
 50
332.05041351359699
  0
VERTEX
  5
EE9
  8
0
 10
56.34699645734873
 20
77.025918621192261
 30
0.0
 42
-0.167245732003949
  0
VERTEX
  5
EEA
  8
0
 10
56.754281245275699
 20
75.842353081287797
 30
0.0
 42
-0.167245732003949
  0
SEQEND
  5
EEB
  8
0
  0
LINE
  5
EEC
  8
0
 10
47.754281245275642
 20
51.805632727920717
 30
0.0
 11
47.754281245275713
 21
31.805632727921349
 31
0.0
  0
LINE
  5
EED
  8
0
 10
38.754281245275592
 20
51.805632727920717
 30
0.0
 11
38.754281245275713
 21
75.842359688537215
 31
0.0
  0
LINE
  5
EEE
  8
0
 10
56.754281245275699
 20
51.805632727920731
 30
0.0
 11
56.754281245275699
 21
75.842358476084371
 31
0.0
  0
LINE
  5
EEF
  8
0
 10
56.754281245275699
 20
51.805632727920717
 30
0.0
 11
38.754281245275592
 21
51.805632727920717
 31
0.0
  0
LINE
  5
EF0
  8
2
 10
33.857578413213112
 20
81.828183532119425
 30
0.0
 11
33.857578413213112
 21
81.283081923722904
 31
0.0
  0
LINE
  5
EF1
  8
2
 10
47.754281245275592
 20
77.305632727921164
 30
0.0
 11
36.595381750670747
 21
78.360649728297602
 31
0.0
  0
ARC
  5
EF2
  8
2
 10
36.856848978913717
 20
81.349233822572813
 30
0.0
 40
3.0
 50
181.26351061061609
 51
265.00000000000023
  0
ARC
  5
EF3
  8
0
 10
36.856848978913717
 20
81.762031633269515
 30
0.0
 40
3.0
 50
94.999999999999744
 51
178.73648938938391
  0
LINE
  5
EF4
  8
0
 10
33.857578413213112
 20
81.828183532123035
 30
0.0
 11
32.754281245275713
 21
31.805632727921171
 31
0.0
  0
LINE
  5
EF5
  8
0
 10
47.754281245275479
 20
85.805632727921164
 30
0.0
 11
36.595381750670747
 21
84.750615727544726
 31
0.0
  0
LINE
  5
EF6
  8
1
 10
47.754281245275713
 20
26.805632727921161
 30
0.0
 11
47.754281245275713
 21
90.805632727921164
 31
0.0
  0
LINE
  5
EF7
  8
0
 10
62.754281245275713
 20
31.805632727921541
 30
0.0
 11
32.754281245275713
 21
31.805632727921171
 31
0.0
  0
LINE
  5
EF8
  8
0
 10
61.650984077338308
 20
81.828183532123035
 30
0.0
 11
62.754281244014798
 21
31.805632727921541
 31
0.0
  0
ARC
  5
EF9
  8
0
 10
58.651713511637702
 20
81.762031633269515
 30
0.0
 40
3.0
 50
1.26351061061614
 51
85.000000000000256
  0
ARC
  5
EFA
  8
2
 10
58.651713511637702
 20
81.349233822572813
 30
0.0
 40
3.0
 50
274.99999999999972
 51
358.73648938938379
  0
LINE
  5
EFB
  8
2
 10
61.650984077338308
 20
81.828183532119425
 30
0.0
 11
61.650984077338421
 21
81.283081923722904
 31
0.0
  0
LINE
  5
EFC
  8
0
 10
47.754281245275934
 20
85.805632727921164
 30
0.0
 11
58.913180739880659
 21
84.750615727544726
 31
0.0
  0
LINE
  5
EFD
  8
2
 10
47.754281245275813
 20
77.305632727921164
 30
0.0
 11
58.913180739880659
 21
78.360649728297602
 31
0.0
  0
TEXT
  5
1278
  8
0
 62
     3
 10
0.0
 20
0.0
 30
0.0
 40
10.0
  1
AGS260-GR
  7
STANDARD1
  0
ENDSEC
  0
EOF
