  0
SECTION
  2
HEADER
  9
$ACADVER
  1
AC1009
  9
$INSBASE
 10
0.0
 20
0.0
 30
0.0
  9
$EXTMIN
 10
-0.0204638472032742
 20
-2.960436562073669
 30
0.0
  9
$EXTMAX
 10
233.17811799739599
 20
160.5101993798944
 30
0.0
  9
$LIMMIN
 10
0.0
 20
0.0
  9
$LIMMAX
 10
1125.0
 20
810.0
  9
$ORTHOMODE
 70
     1
  9
$REGENMODE
 70
     1
  9
$FILLMODE
 70
     1
  9
$QTEXTMODE
 70
     0
  9
$MIRRTEXT
 70
     0
  9
$DRAGMODE
 70
     2
  9
$LTSCALE
 40
10.0
  9
$OSMODE
 70
  3071
  9
$ATTMODE
 70
     1
  9
$TEXTSIZE
 40
0.2
  9
$TRACEWID
 40
0.05
  9
$TEXTSTYLE
  7
STANDARD
  9
$CLAYER
  8
0
  9
$CELTYPE
  6
BYLAYER
  9
$CECOLOR
 62
   256
  9
$DIMSCALE
 40
1.0
  9
$DIMASZ
 40
3.0
  9
$DIMEXO
 40
2.0
  9
$DIMDLI
 40
0.38
  9
$DIMRND
 40
0.0
  9
$DIMDLE
 40
0.0
  9
$DIMEXE
 40
2.0
  9
$DIMTP
 40
0.0
  9
$DIMTM
 40
0.0
  9
$DIMTXT
 40
3.2000000000000002
  9
$DIMCEN
 40
0.0
  9
$DIMTSZ
 40
0.0
  9
$DIMTOL
 70
     0
  9
$DIMLIM
 70
     0
  9
$DIMTIH
 70
     0
  9
$DIMTOH
 70
     0
  9
$DIMSE1
 70
     0
  9
$DIMSE2
 70
     0
  9
$DIMTAD
 70
     1
  9
$DIMZIN
 70
     0
  9
$DIMBLK
  1

  9
$DIMASO
 70
     0
  9
$DIMSHO
 70
     0
  9
$DIMPOST
  1

  9
$DIMAPOST
  1

  9
$DIMALT
 70
     0
  9
$DIMALTD
 70
     2
  9
$DIMALTF
 40
25.399999999999999
  9
$DIMLFAC
 40
1.0
  9
$DIMTOFL
 70
     1
  9
$DIMTVP
 40
1.6000000000000001
  9
$DIMTIX
 70
     1
  9
$DIMSOXD
 70
     0
  9
$DIMSAH
 70
     0
  9
$DIMBLK1
  1

  9
$DIMBLK2
  1

  9
$DIMSTYLE
  2
STANDARD
  9
$DIMCLRD
 70
     0
  9
$DIMCLRE
 70
     0
  9
$DIMCLRT
 70
     0
  9
$DIMTFAC
 40
1.0
  9
$DIMGAP
 40
0.09
  9
$LUNITS
 70
     2
  9
$LUPREC
 70
     4
  9
$SKETCHINC
 40
0.1
  9
$FILLETRAD
 40
0.0
  9
$AUNITS
 70
     0
  9
$AUPREC
 70
     4
  9
$MENU
  1
E:\r13\win\SUPPORT\ACAD
  9
$ELEVATION
 40
0.0
  9
$PELEVATION
 40
0.0
  9
$THICKNESS
 40
0.0
  9
$LIMCHECK
 70
     0
  9
$BLIPMODE
 70
     0
  9
$CHAMFERA
 40
0.0
  9
$CHAMFERB
 40
0.0
  9
$SKPOLY
 70
     0
  9
$TDCREATE
 40
2449839.627581019
  9
$TDUPDATE
 40
2456597.5015595839
  9
$TDINDWG
 40
0.0566570602
  9
$TDUSRTIMER
 40
0.0566570602
  9
$USRTIMER
 70
     1
  9
$ANGBASE
 50
0.0
  9
$ANGDIR
 70
     0
  9
$PDMODE
 70
     0
  9
$PDSIZE
 40
0.0
  9
$PLINEWID
 40
0.0
  9
$COORDS
 70
     1
  9
$SPLFRAME
 70
     0
  9
$SPLINETYPE
 70
     6
  9
$SPLINESEGS
 70
     8
  9
$ATTDIA
 70
     0
  9
$ATTREQ
 70
     1
  9
$HANDLING
 70
     1
  9
$HANDSEED
  5
1552
  9
$SURFTAB1
 70
     6
  9
$SURFTAB2
 70
     6
  9
$SURFTYPE
 70
     6
  9
$SURFU
 70
     6
  9
$SURFV
 70
     6
  9
$UCSNAME
  2

  9
$UCSORG
 10
0.0
 20
0.0
 30
0.0
  9
$UCSXDIR
 10
1.0
 20
0.0
 30
0.0
  9
$UCSYDIR
 10
0.0
 20
1.0
 30
0.0
  9
$PUCSNAME
  2

  9
$PUCSORG
 10
0.0
 20
0.0
 30
0.0
  9
$PUCSXDIR
 10
1.0
 20
0.0
 30
0.0
  9
$PUCSYDIR
 10
0.0
 20
1.0
 30
0.0
  9
$USERI1
 70
     0
  9
$USERI2
 70
     1
  9
$USERI3
 70
     0
  9
$USERI4
 70
     0
  9
$USERI5
 70
     0
  9
$USERR1
 40
0.0
  9
$USERR2
 40
0.0
  9
$USERR3
 40
0.0
  9
$USERR4
 40
0.0
  9
$USERR5
 40
0.0
  9
$WORLDVIEW
 70
     1
  9
$SHADEDGE
 70
     3
  9
$SHADEDIF
 70
    70
  9
$TILEMODE
 70
     1
  9
$MAXACTVP
 70
    16
  9
$PLIMCHECK
 70
     0
  9
$PEXTMIN
 10
1.0000000000000000E+020
 20
1.0000000000000000E+020
 30
1.0000000000000000E+020
  9
$PEXTMAX
 10
-1.0000000000000000E+020
 20
-1.0000000000000000E+020
 30
-1.0000000000000000E+020
  9
$PLIMMIN
 10
0.0
 20
0.0
  9
$PLIMMAX
 10
12.0
 20
9.0
  9
$UNITMODE
 70
     0
  9
$VISRETAIN
 70
     0
  9
$PLINEGEN
 70
     0
  9
$PSLTSCALE
 70
     0
  0
ENDSEC
  0
SECTION
  2
TABLES
  0
TABLE
  2
VPORT
 70
     1
  0
VPORT
  2
*ACTIVE
 70
     0
 10
0.0
 20
0.0
 11
1.0
 21
1.0
 12
585.00993858023253
 22
403.50448702520742
 13
0.0
 23
0.0
 14
30.0
 24
30.0
 15
30.0
 25
30.0
 16
0.0
 26
0.0
 36
1.0
 17
0.0
 27
0.0
 37
0.0
 40
820.28242528545559
 41
1.8318713450292401
 42
50.0
 43
0.0
 44
0.0
 50
0.0
 51
0.0
 71
     0
 72
   500
 73
     1
 74
     0
 75
     0
 76
     0
 77
     0
 78
     2
  0
ENDTAB
  0
TABLE
  2
LTYPE
 70
     4
  0
LTYPE
  2
CONTINUOUS
 70
     0
  3
Solid Line
 72
    65
 73
     0
 40
0.0
  0
LTYPE
  2
CENTER
 70
     0
  3
____ _ ____ _ ____ _ ____ _ ____ _ ____ _ ____
 72
    65
 73
     4
 40
2.0
 49
1.25
 49
-0.25
 49
0.25
 49
-0.25
  0
LTYPE
  2
HIDDEN
 70
     0
  3
_ _ _ _ _ _ _ _ _ _ _ _ _ _ _ _ _ _ _ _ _ _ _
 72
    65
 73
     2
 40
0.375
 49
0.25
 49
-0.125
  0
LTYPE
  2
PHANTOM2
 70
     0
  3
___ _ _ ___ _ _ ___ _ _ ___ _ _
 72
    65
 73
     6
 40
1.25
 49
0.625
 49
-0.125
 49
0.125
 49
-0.125
 49
0.125
 49
-0.125
  0
ENDTAB
  0
TABLE
  2
LAYER
 70
     3
  0
LAYER
  2
0
 70
     0
 62
     7
  6
CONTINUOUS
  0
LAYER
  2
1
 70
     0
 62
     1
  6
CENTER
  0
LAYER
  2
2
 70
     0
 62
     2
  6
HIDDEN
  0
ENDTAB
  0
TABLE
  2
STYLE
 70
     2
  0
STYLE
  2
STANDARD
 70
     0
 40
0.0
 41
1.0
 50
0.0
 71
     0
 42
0.2
  3
TXT
  4
BIGFONT
  0
STYLE
  2
STANDARD1
 70
     0
 40
0.0
 41
1.0
 50
0.0
 71
     0
 42
3.0
  3
txt
  4

  0
ENDTAB
  0
TABLE
  2
VIEW
 70
     1
  0
VIEW
  2
ALL
 70
     0
 40
810.0
 10
662.97478991596643
 20
405.0
 41
0.0
 11
0.0
 21
0.0
 31
1.0
 12
0.0
 22
0.0
 32
0.0
 42
0.0
 43
0.0
 44
0.0
 50
0.0
 71
     0
  0
ENDTAB
  0
TABLE
  2
UCS
 70
     0
  0
ENDTAB
  0
TABLE
  2
APPID
 70
     7
  0
APPID
  2
ACAD
 70
     0
  0
APPID
  2
DCO15
 70
     0
  0
APPID
  2
ACAD_DSTYLE_DIMJAG
 70
     0
  0
APPID
  2
ACAD_DSTYLE_DIMTALN
 70
     0
  0
APPID
  2
ACAD_EXEMPT_FROM_CAD_STANDARDS
 70
     0
  0
APPID
  2
ACAD_MLEADERVER
 70
     0
  0
APPID
  2
ACAD_NAV_VCDISPLAY
 70
     0
  0
ENDTAB
  0
TABLE
  2
DIMSTYLE
 70
     1
  0
DIMSTYLE
  2
STANDARD
 70
     0
  3

  4

  5

  6

  7

 40
1.0
 41
0.18
 42
0.0625
 43
0.38
 44
0.18
 45
0.0
 46
0.0
 47
0.0
 48
0.0
140
0.18
141
0.09
142
0.0
143
25.399999999999999
144
1.0
145
0.0
146
1.0
147
0.09
 71
     0
 72
     0
 73
     1
 74
     1
 75
     0
 76
     0
 77
     0
 78
     0
170
     0
171
     2
172
     0
173
     0
174
     0
175
     0
176
     0
177
     0
178
     0
  0
ENDTAB
  0
ENDSEC
  0
SECTION
  2
BLOCKS
  0
BLOCK
  8
0
  2
$MODEL_SPACE
 70
     0
 10
0.0
 20
0.0
 30
0.0
  3
$MODEL_SPACE
  1

  0
ENDBLK
  5
16D
  8
0
  0
BLOCK
 67
     1
  8
0
  2
$PAPER_SPACE
 70
     0
 10
0.0
 20
0.0
 30
0.0
  3
$PAPER_SPACE
  1

  0
ENDBLK
  5
16B
 67
     1
  8
0
  0
ENDSEC
  0
SECTION
  2
ENTITIES
  0
LINE
  5
10F4
  8
0
 10
91.178117997396029
 20
33.110199379894418
 30
0.0
 11
113.178117997396
 21
33.110199379894418
 31
0.0
  0
LINE
  5
10F5
  8
0
 10
228.1781179973961
 20
33.110199379894418
 30
0.0
 11
228.1781179973961
 21
48.110199379894418
 31
0.0
  0
LINE
  5
10F6
  8
0
 10
91.178117997396029
 20
48.110199379894418
 30
0.0
 11
91.178117997396029
 21
33.110199379894418
 31
0.0
  0
LINE
  5
10F7
  8
0
 10
113.178117997396
 20
33.110199379894418
 30
0.0
 11
113.178117997396
 21
63.110199379894418
 31
0.0
  0
LINE
  5
10F8
  8
0
 10
206.17811799739599
 20
33.110199379894418
 30
0.0
 11
206.17811799739599
 21
63.110199379894418
 31
0.0
  0
LINE
  5
10F9
  8
0
 10
228.1781179973961
 20
48.110199379894418
 30
0.0
 11
211.42199896264171
 21
70.601090579560363
 31
0.0
  0
LINE
  5
10FA
  8
0
 10
91.178117997396029
 20
48.110199379894418
 30
0.0
 11
107.93423703215041
 21
70.601090579560434
 31
0.0
  0
LINE
  5
10FB
  8
2
 10
210.32530155761211
 20
48.110199379894418
 30
0.0
 11
228.1781179973961
 21
48.110199379894418
 31
0.0
  0
LINE
  5
10FC
  8
0
 10
206.17811799739599
 20
33.110199379894418
 30
0.0
 11
228.1781179973961
 21
33.110199379894418
 31
0.0
  0
ARC
  5
10FD
  8
0
 10
203.85590115964331
 20
64.199319197301634
 30
0.0
 40
9.9110298554310194
 50
40.234984170099423
 51
90.314883773814415
  0
ARC
  5
10FE
  8
0
 10
115.50033483514881
 20
64.199319197301634
 30
0.0
 40
9.9110298554310212
 50
89.685116226185684
 51
139.76501582990051
  0
ARC
  5
10FF
  8
0
 10
117.178117997396
 20
63.110199379894418
 30
0.0
 40
4.0
 50
90.0
 51
180.0
  0
ARC
  5
1100
  8
0
 10
202.17811799739599
 20
63.110199379894418
 30
0.0
 40
4.0
 50
0.0
 51
90.0
  0
LINE
  5
1101
  8
2
 10
210.32530155761199
 20
48.110199379894418
 30
0.0
 11
210.32530155761199
 21
69.642628104281812
 31
0.0
  0
LINE
  5
1102
  8
1
 10
218.17811799739599
 20
28.110199379894421
 30
0.0
 11
218.17811799739599
 21
66.532693665723372
 31
0.0
  0
LINE
  5
1103
  8
2
 10
222.42811799739599
 20
33.110199379894418
 30
0.0
 11
222.42811799739599
 21
39.610199379894432
 31
0.0
  0
LINE
  5
1104
  8
2
 10
224.92811799739599
 20
39.610199379894432
 30
0.0
 11
224.92811799739599
 21
48.110199379894418
 31
0.0
  0
LINE
  5
1105
  8
2
 10
211.42811799739599
 20
48.110199379894418
 30
0.0
 11
211.42811799739599
 21
39.610199379894432
 31
0.0
  0
LINE
  5
1106
  8
2
 10
211.42811799739599
 20
39.610199379894432
 30
0.0
 11
224.92811799739599
 21
39.610199379894432
 31
0.0
  0
LINE
  5
1107
  8
2
 10
213.92811799739599
 20
39.610199379894432
 30
0.0
 11
213.92811799739599
 21
33.110199379894418
 31
0.0
  0
ARC
  5
1108
  8
2
 10
205.79022402808889
 20
69.191586353132152
 30
0.0
 40
4.5574517945959157
 50
5.6797446928245012
 51
67.881681130457835
  0
LINE
  5
1109
  8
0
 10
203.8014301087307
 20
74.110199379894425
 30
0.0
 11
115.5548031886632
 21
74.110199379894425
 31
0.0
  0
LINE
  5
110A
  8
0
 10
202.17811609004741
 20
67.110199379894425
 30
0.0
 11
117.178117997396
 21
67.110199379894425
 31
0.0
  0
LINE
  5
110B
  8
0
 10
202.17811529999781
 20
68.210199379894433
 30
0.0
 11
117.178117997396
 21
68.210199379894433
 31
0.0
  0
ARC
  5
110C
  8
0
 10
117.178117997396
 20
63.110199379894418
 30
0.0
 40
5.0999999999999988
 50
90.0
 51
180.0
  0
LINE
  5
110D
  8
0
 10
112.07811799739601
 20
33.110199379894418
 30
0.0
 11
112.07811799739601
 21
63.110199379894418
 31
0.0
  0
LINE
  5
110E
  8
1
 10
101.178117997396
 20
28.110199379894421
 30
0.0
 11
101.178117997396
 21
66.532693665723372
 31
0.0
  0
LINE
  5
110F
  8
1
 10
159.67811664869691
 20
62.110199379894411
 30
0.0
 11
159.67811664869691
 21
79.110199379894425
 31
0.0
  0
LINE
  5
1112
  8
2
 10
105.428117997396
 20
39.610199379894432
 30
0.0
 11
105.428117997396
 21
33.110199379894418
 31
0.0
  0
LINE
  5
1113
  8
2
 10
107.928117997396
 20
39.610199379894432
 30
0.0
 11
94.428117997396043
 21
39.610199379894432
 31
0.0
  0
LINE
  5
1114
  8
2
 10
107.928117997396
 20
48.110199379894418
 30
0.0
 11
107.928117997396
 21
39.610199379894432
 31
0.0
  0
LINE
  5
1115
  8
2
 10
109.03093173978181
 20
48.110199379894418
 30
0.0
 11
109.03093173978181
 21
69.642628104281812
 31
0.0
  0
LINE
  5
1116
  8
2
 10
109.03093173978181
 20
48.110199379894418
 30
0.0
 11
91.178117997396029
 21
48.110199379894418
 31
0.0
  0
LINE
  5
1117
  8
2
 10
94.428117997396043
 20
39.610199379894432
 30
0.0
 11
94.428117997396043
 21
48.110199379894418
 31
0.0
  0
LINE
  5
1118
  8
2
 10
96.928117997396043
 20
33.110199379894418
 30
0.0
 11
96.928117997396043
 21
39.610199379894432
 31
0.0
  0
ARC
  5
1119
  8
2
 10
115.4581031345631
 20
67.618346653251137
 30
0.0
 40
6.7384158027597856
 50
117.50952086814721
 51
162.5178235160885
  0
LINE
  5
111A
  8
1
 10
86.178117997396086
 20
143.1101993798944
 30
0.0
 11
233.17811799739599
 21
143.1101993798944
 31
0.0
  0
LINE
  5
111B
  8
1
 10
159.67811799739599
 20
125.71019937989441
 30
0.0
 11
159.67811799739599
 21
160.5101993798944
 31
0.0
  0
LINE
  5
111E
  8
0
 10
91.178117997396114
 20
143.1101993798944
 30
0.0
 11
92.155743575084458
 21
154.28451086538971
 31
0.0
  0
LINE
  5
111F
  8
0
 10
91.178117997396029
 20
143.1101993798944
 30
0.0
 11
92.155743575084415
 21
131.93588789439909
 31
0.0
  0
LINE
  5
1120
  8
1
 10
101.178117997396
 20
152.3601993798944
 30
0.0
 11
101.178117997396
 21
133.86019937989451
 31
0.0
  0
CIRCLE
  5
1121
  8
0
 10
101.178117997396
 20
143.1101993798944
 30
0.0
 40
4.25
  0
LINE
  5
1123
  8
0
 10
109.03093173978181
 20
138.1101993798944
 30
0.0
 11
109.03093173978181
 21
148.1101993798944
 31
0.0
  0
LINE
  5
1124
  8
0
 10
94.556824470198563
 20
152.1101993798944
 30
0.0
 11
105.03093173978181
 21
152.1101993798944
 31
0.0
  0
LINE
  5
1125
  8
0
 10
94.556824470198507
 20
134.1101993798944
 30
0.0
 11
105.03093173978181
 21
134.1101993798944
 31
0.0
  0
ARC
  5
1126
  8
0
 10
105.03093173978181
 20
148.1101993798944
 30
0.0
 40
4.0
 50
0.0
 51
90.0
  0
ARC
  5
1127
  8
0
 10
105.03093173978181
 20
138.1101993798944
 30
0.0
 40
4.0
 50
270.0
 51
0.0
  0
ARC
  5
1128
  8
0
 10
94.384475929276192
 20
155.12378073442079
 30
0.0
 40
3.018505689891533
 50
219.65810535715431
 51
273.27321476323488
  0
ARC
  5
1129
  8
0
 10
94.384475929276121
 20
131.096618025368
 30
0.0
 40
3.018505689891533
 50
86.726785236764499
 51
140.34189464284199
  0
LINE
  5
112B
  8
0
 10
113.178117997396
 20
155.5101993798944
 30
0.0
 11
206.1781179973961
 21
155.5101993798946
 31
0.0
  0
LINE
  5
112C
  8
0
 10
113.178117997396
 20
130.71019937989439
 30
0.0
 11
206.1781179973961
 21
130.7101993798945
 31
0.0
  0
LINE
  5
112D
  8
0
 10
113.178117997396
 20
130.1101993798944
 30
0.0
 11
113.178117997396
 21
130.71019937989439
 31
0.0
  0
LINE
  5
112E
  8
0
 10
95.648132971267813
 20
156.1101993798944
 30
0.0
 11
113.178117997396
 21
156.1101993798944
 31
0.0
  0
LINE
  5
112F
  8
0
 10
95.648132971267785
 20
130.1101993798944
 30
0.0
 11
113.178117997396
 21
130.1101993798944
 31
0.0
  0
ARC
  5
1130
  8
0
 10
95.491791143181544
 20
152.15609958502651
 30
0.0
 40
3.957189400949122
 50
87.735751817117631
 51
147.46196658182041
  0
ARC
  5
1131
  8
0
 10
95.491791143181544
 20
134.06429917476231
 30
0.0
 40
3.9571894009491522
 50
212.53803341817951
 51
272.26424818288149
  0
LINE
  5
1132
  8
0
 10
96.221865258889196
 20
130.1888283897519
 30
0.0
 11
113.178117997396
 21
130.71019937989439
 31
0.0
  0
LINE
  5
1133
  8
0
 10
96.221865258889196
 20
156.031570370037
 30
0.0
 11
113.178117997396
 21
155.51019937989449
 31
0.0
  0
LINE
  5
1134
  8
0
 10
113.178117997396
 20
155.51019937989449
 30
0.0
 11
113.178117997396
 21
156.11019937989451
 31
0.0
  0
LINE
  5
1135
  8
0
 10
206.17811799739599
 20
155.51019937989449
 30
0.0
 11
206.17811799739599
 21
156.11019937989451
 31
0.0
  0
LINE
  5
1136
  8
0
 10
223.13437073590291
 20
156.031570370037
 30
0.0
 11
206.17811799739599
 21
155.51019937989449
 31
0.0
  0
LINE
  5
1137
  8
0
 10
223.13437073590291
 20
130.1888283897519
 30
0.0
 11
206.17811799739599
 21
130.71019937989439
 31
0.0
  0
ARC
  5
1138
  8
0
 10
223.8644448516105
 20
134.0642991747624
 30
0.0
 40
3.9571894009492059
 50
267.73575181711811
 51
327.46196658182038
  0
ARC
  5
1139
  8
0
 10
223.8644448516105
 20
152.15609958502651
 30
0.0
 40
3.9571894009491699
 50
32.53803341817958
 51
92.264248182882284
  0
LINE
  5
113A
  8
0
 10
223.7081030235243
 20
130.1101993798944
 30
0.0
 11
206.17811799739599
 21
130.1101993798944
 31
0.0
  0
LINE
  5
113B
  8
0
 10
223.7081030235243
 20
156.1101993798944
 30
0.0
 11
206.17811799739599
 21
156.1101993798944
 31
0.0
  0
LINE
  5
113C
  8
0
 10
206.17811799739599
 20
130.1101993798944
 30
0.0
 11
206.17811799739599
 21
130.71019937989439
 31
0.0
  0
ARC
  5
113E
  8
0
 10
224.97176006551589
 20
131.09661802536789
 30
0.0
 40
3.018505689891628
 50
39.658105357158071
 51
93.273214763235373
  0
ARC
  5
113F
  8
0
 10
224.97176006551589
 20
155.1237807344209
 30
0.0
 40
3.018505689891644
 50
266.72678523676518
 51
320.34189464284202
  0
ARC
  5
1141
  8
0
 10
214.3253038599855
 20
148.11019707752021
 30
0.0
 40
4.0000023023742042
 50
89.999994341690837
 51
179.99996702093779
  0
LINE
  5
1142
  8
0
 10
224.79941152459361
 20
134.1101993798944
 30
0.0
 11
214.32530425501031
 21
134.1101993798944
 31
0.0
  0
LINE
  5
1143
  8
0
 10
224.79941152459349
 20
152.1101993798944
 30
0.0
 11
214.32530425501031
 21
152.1101993798944
 31
0.0
  0
LINE
  5
1144
  8
0
 10
210.32530155761199
 20
138.1101993798944
 30
0.0
 11
210.32530155761199
 21
148.1101993798944
 31
0.0
  0
CIRCLE
  5
1145
  8
0
 10
218.1781179973961
 20
143.1101993798944
 30
0.0
 40
4.25
  0
LINE
  5
1146
  8
1
 10
218.1781179973961
 20
152.3601993798944
 30
0.0
 11
218.1781179973961
 21
133.86019937989451
 31
0.0
  0
LINE
  5
1147
  8
0
 10
228.1781179973961
 20
143.1101993798944
 30
0.0
 11
227.2004924197077
 21
131.93588789439909
 31
0.0
  0
LINE
  5
1148
  8
0
 10
228.17811799739599
 20
143.1101993798944
 30
0.0
 11
227.2004924197077
 21
154.28451086538971
 31
0.0
  0
LINE
  5
1160
  8
0
 10
30.85452486858884
 20
48.110199379894368
 30
0.0
 11
30.8545248685889
 21
65.800856162148477
 31
0.0
  0
LINE
  5
1161
  8
0
 10
48.854524868588889
 20
48.110199379894368
 30
0.0
 11
48.85452486858884
 21
65.800851490117566
 31
0.0
  0
LINE
  5
1162
  8
0
 10
39.85452486858884
 20
48.110199379894368
 30
0.0
 11
39.85452486858884
 21
33.110199379894418
 31
0.0
  0
LINE
  5
1163
  8
0
 10
48.85452486858884
 20
48.110199379894418
 30
0.0
 11
30.85452486858884
 21
48.110199379894368
 31
0.0
  0
LINE
  5
1164
  8
0
 10
27.455852310869769
 20
71.224322089471229
 30
0.0
 11
27.45585231086978
 21
69.996076670327625
 31
0.0
  0
LINE
  5
1166
  8
2
 10
39.854524868588889
 20
67.110199379894425
 30
0.0
 11
50.427757779841549
 21
68.035237396448224
 31
0.0
  0
LINE
  5
1167
  8
2
 10
39.85452486858884
 20
67.110199379894425
 30
0.0
 11
29.2812919573363
 21
68.035237396448224
 31
0.0
  0
ARC
  5
1168
  8
2
 10
50.25344629434624
 20
70.027626792631736
 30
0.0
 40
2.0
 50
274.99999999999977
 51
359.09611808260883
  0
ARC
  5
1169
  8
2
 10
29.455603442831599
 20
70.027626792631736
 30
0.0
 40
2.0
 50
180.90388191739109
 51
265.00000000000023
  0
ARC
  5
116A
  8
0
 10
29.455603442831599
 20
71.192771967157114
 30
0.0
 40
2.0
 50
94.999999999999758
 51
179.09611808260891
  0
ARC
  5
116B
  8
0
 10
50.25344629434624
 20
71.192771967157114
 30
0.0
 40
2.0
 50
0.9038819173911353
 51
85.000000000000227
  0
LINE
  5
116E
  8
0
 10
52.85452486858884
 20
33.110199379894418
 30
0.0
 11
26.85452486858884
 21
33.110199379894418
 31
0.0
  0
LINE
  5
116F
  8
1
 10
39.85452486858884
 20
28.110199379894421
 30
0.0
 11
39.854524868588889
 21
79.110199379894425
 31
0.0
  0
LINE
  5
1170
  8
0
 10
39.85452486858884
 20
74.110199379894425
 30
0.0
 11
29.2812919573363
 21
73.185161363340626
 31
0.0
  0
LINE
  5
1171
  8
0
 10
39.854524868588889
 20
74.110199379894425
 30
0.0
 11
50.427757779841549
 21
73.185161363340626
 31
0.0
  0
ARC
  5
1177
  8
0
 10
44.854524868588847
 20
65.481307860061293
 30
0.0
 40
4.1613202442205326
 50
68.305903021372018
 51
90.000000000000185
  0
ARC
  5
1178
  8
0
 10
44.916444578865423
 20
65.636951895976324
 30
0.0
 40
3.99381168791172
 50
46.155899071129497
 51
68.305903021370966
  0
ARC
  5
1179
  8
0
 10
45.012189208566433
 20
65.736639763665494
 30
0.0
 40
3.8555919169634389
 50
23.32922873948419
 51
46.15589907112949
  0
ARC
  5
117A
  8
0
 10
45.161078049640899
 20
65.800851490117566
 30
0.0
 40
3.6934468189479319
 50
0.0
 51
23.329228739477031
  0
ARC
  5
117B
  8
0
 10
34.854524868588939
 20
65.481307860061293
 30
0.0
 40
4.1613202442205326
 50
89.999999999999815
 51
111.6940969786279
  0
ARC
  5
117C
  8
0
 10
34.792605158312369
 20
65.636951895976324
 30
0.0
 40
3.99381168791172
 50
111.69409697862901
 51
133.84410092887049
  0
ARC
  5
117D
  8
0
 10
34.696860528611353
 20
65.736639763665494
 30
0.0
 40
3.8555919169634341
 50
133.84410092887049
 51
156.67077126051581
  0
ARC
  5
117E
  8
0
 10
34.547971687536887
 20
65.800851490117566
 30
0.0
 40
3.6934468189479319
 50
156.670771260523
 51
180.0
  0
LINE
  5
119F
  8
0
 10
27.45585231086994
 20
69.99607667031762
 30
0.0
 11
26.85452486858884
 21
33.110199379894418
 31
0.0
  0
LINE
  5
11A0
  8
0
 10
52.25319742630802
 20
71.224322089471229
 30
0.0
 11
52.25319742630802
 21
69.996076670327625
 31
0.0
  0
LINE
  5
11A1
  8
0
 10
52.25319742630785
 20
69.99607667031762
 30
0.0
 11
52.854524868588953
 21
33.110199379894418
 31
0.0
  0
CIRCLE
  5
11AA
  8
0
 10
218.1781179973961
 20
143.11019937989451
 30
0.0
 40
6.75
  0
CIRCLE
  5
11AB
  8
0
 10
101.178117997396
 20
143.1101993798944
 30
0.0
 40
6.75
  0
ARC
  5
1271
  8
0
 10
214.3253038599855
 20
138.11020168226861
 30
0.0
 40
4.0000023023742042
 50
180.00003297906221
 51
270.00000565830919
  0
ARC
  5
1382
  8
0
 10
202.17811529999781
 20
63.110199379894418
 30
0.0
 40
5.0999999999999988
 50
0.000000000000007
 51
90.0
  0
LINE
  5
1383
  8
0
 10
207.27811529999781
 20
33.110199379894418
 30
0.0
 11
207.27811529999781
 21
63.110199379894418
 31
0.0
  0
TEXT
  5
14E7
  8
0
 62
     3
 10
0.0
 20
0.0
 30
0.0
 40
10.0
  1
AGS130PP
  7
STANDARD1
  0
ENDSEC
  0
EOF
