  0
SECTION
  2
HEADER
  9
$ACADVER
  1
AC1009
  9
$INSBASE
 10
0.0
 20
0.0
 30
0.0
  9
$EXTMIN
 10
-0.0204638472032742
 20
-2.960436562073669
 30
0.0
  9
$EXTMAX
 10
203.36806338429221
 20
129.9468300223989
 30
0.0
  9
$LIMMIN
 10
0.0
 20
0.0
  9
$LIMMAX
 10
375.0
 20
270.0
  9
$ORTHOMODE
 70
     1
  9
$REGENMODE
 70
     1
  9
$FILLMODE
 70
     1
  9
$QTEXTMODE
 70
     0
  9
$MIRRTEXT
 70
     0
  9
$DRAGMODE
 70
     2
  9
$LTSCALE
 40
10.0
  9
$OSMODE
 70
  3071
  9
$ATTMODE
 70
     1
  9
$TEXTSIZE
 40
2.0
  9
$TRACEWID
 40
0.05
  9
$TEXTSTYLE
  7
STANDARD
  9
$CLAYER
  8
0
  9
$CELTYPE
  6
BYLAYER
  9
$CECOLOR
 62
   256
  9
$DIMSCALE
 40
1.0
  9
$DIMASZ
 40
2.5
  9
$DIMEXO
 40
2.0
  9
$DIMDLI
 40
0.38
  9
$DIMRND
 40
0.0
  9
$DIMDLE
 40
0.0
  9
$DIMEXE
 40
2.0
  9
$DIMTP
 40
0.0
  9
$DIMTM
 40
0.0
  9
$DIMTXT
 40
3.0
  9
$DIMCEN
 40
0.09
  9
$DIMTSZ
 40
0.0
  9
$DIMTOL
 70
     0
  9
$DIMLIM
 70
     0
  9
$DIMTIH
 70
     0
  9
$DIMTOH
 70
     0
  9
$DIMSE1
 70
     0
  9
$DIMSE2
 70
     0
  9
$DIMTAD
 70
     1
  9
$DIMZIN
 70
     0
  9
$DIMBLK
  1

  9
$DIMASO
 70
     1
  9
$DIMSHO
 70
     0
  9
$DIMPOST
  1

  9
$DIMAPOST
  1

  9
$DIMALT
 70
     0
  9
$DIMALTD
 70
     2
  9
$DIMALTF
 40
25.399999999999999
  9
$DIMLFAC
 40
1.0
  9
$DIMTOFL
 70
     0
  9
$DIMTVP
 40
1.6000000000000001
  9
$DIMTIX
 70
     1
  9
$DIMSOXD
 70
     0
  9
$DIMSAH
 70
     0
  9
$DIMBLK1
  1

  9
$DIMBLK2
  1

  9
$DIMSTYLE
  2
STANDARD
  9
$DIMCLRD
 70
     0
  9
$DIMCLRE
 70
     0
  9
$DIMCLRT
 70
     0
  9
$DIMTFAC
 40
1.0
  9
$DIMGAP
 40
0.09
  9
$LUNITS
 70
     2
  9
$LUPREC
 70
     4
  9
$SKETCHINC
 40
0.1
  9
$FILLETRAD
 40
2.5
  9
$AUNITS
 70
     0
  9
$AUPREC
 70
     0
  9
$MENU
  1
E:\r13\win\SUPPORT\ACAD
  9
$ELEVATION
 40
0.0
  9
$PELEVATION
 40
0.0
  9
$THICKNESS
 40
0.0
  9
$LIMCHECK
 70
     0
  9
$BLIPMODE
 70
     0
  9
$CHAMFERA
 40
0.0
  9
$CHAMFERB
 40
0.0
  9
$SKPOLY
 70
     0
  9
$TDCREATE
 40
2448650.5678784722
  9
$TDUPDATE
 40
2456597.5013261111
  9
$TDINDWG
 40
0.0716087384
  9
$TDUSRTIMER
 40
0.0716087384
  9
$USRTIMER
 70
     1
  9
$ANGBASE
 50
0.0
  9
$ANGDIR
 70
     0
  9
$PDMODE
 70
     0
  9
$PDSIZE
 40
0.0
  9
$PLINEWID
 40
0.0
  9
$COORDS
 70
     1
  9
$SPLFRAME
 70
     0
  9
$SPLINETYPE
 70
     6
  9
$SPLINESEGS
 70
     8
  9
$ATTDIA
 70
     0
  9
$ATTREQ
 70
     1
  9
$HANDLING
 70
     1
  9
$HANDSEED
  5
ACD
  9
$SURFTAB1
 70
     6
  9
$SURFTAB2
 70
     6
  9
$SURFTYPE
 70
     6
  9
$SURFU
 70
     6
  9
$SURFV
 70
     6
  9
$UCSNAME
  2

  9
$UCSORG
 10
0.0
 20
0.0
 30
0.0
  9
$UCSXDIR
 10
1.0
 20
0.0
 30
0.0
  9
$UCSYDIR
 10
0.0
 20
1.0
 30
0.0
  9
$PUCSNAME
  2

  9
$PUCSORG
 10
0.0
 20
0.0
 30
0.0
  9
$PUCSXDIR
 10
1.0
 20
0.0
 30
0.0
  9
$PUCSYDIR
 10
0.0
 20
1.0
 30
0.0
  9
$USERI1
 70
     0
  9
$USERI2
 70
     1
  9
$USERI3
 70
     1
  9
$USERI4
 70
     0
  9
$USERI5
 70
     0
  9
$USERR1
 40
0.0
  9
$USERR2
 40
0.0
  9
$USERR3
 40
0.0
  9
$USERR4
 40
0.0
  9
$USERR5
 40
0.0
  9
$WORLDVIEW
 70
     1
  9
$SHADEDGE
 70
     3
  9
$SHADEDIF
 70
    70
  9
$TILEMODE
 70
     1
  9
$MAXACTVP
 70
    16
  9
$PLIMCHECK
 70
     0
  9
$PEXTMIN
 10
1.0000000000000000E+020
 20
1.0000000000000000E+020
 30
1.0000000000000000E+020
  9
$PEXTMAX
 10
-1.0000000000000000E+020
 20
-1.0000000000000000E+020
 30
-1.0000000000000000E+020
  9
$PLIMMIN
 10
0.0
 20
0.0
  9
$PLIMMAX
 10
12.0
 20
9.0
  9
$UNITMODE
 70
     0
  9
$VISRETAIN
 70
     0
  9
$PLINEGEN
 70
     1
  9
$PSLTSCALE
 70
     0
  0
ENDSEC
  0
SECTION
  2
TABLES
  0
TABLE
  2
VPORT
 70
     1
  0
VPORT
  2
*ACTIVE
 70
     0
 10
0.0
 20
0.0
 11
1.0
 21
1.0
 12
195.04380321732449
 22
133.5127261426681
 13
0.0
 23
0.0
 14
10.0
 24
10.0
 15
10.0
 25
10.0
 16
0.0
 26
0.0
 36
1.0
 17
0.0
 27
0.0
 37
0.0
 40
275.42274993631997
 41
1.831871345029239
 42
50.0
 43
0.0
 44
0.0
 50
0.0
 51
0.0
 71
     0
 72
   500
 73
     1
 74
     0
 75
     0
 76
     0
 77
     0
 78
     2
  0
ENDTAB
  0
TABLE
  2
LTYPE
 70
     4
  0
LTYPE
  2
CONTINUOUS
 70
     0
  3
Solid Line
 72
    65
 73
     0
 40
0.0
  0
LTYPE
  2
CENTER
 70
     0
  3
____ _ ____ _ ____ _ ____ _ ____ _ ____ _ ____
 72
    65
 73
     4
 40
2.0
 49
1.25
 49
-0.25
 49
0.25
 49
-0.25
  0
LTYPE
  2
HIDDEN
 70
     0
  3
_ _ _ _ _ _ _ _ _ _ _ _ _ _ _ _ _ _ _ _ _ _ _
 72
    65
 73
     2
 40
0.375
 49
0.25
 49
-0.125
  0
LTYPE
  2
PHANTOM2
 70
     0
  3
___ _ _ ___ _ _ ___ _ _ ___ _ _
 72
    65
 73
     6
 40
1.25
 49
0.625
 49
-0.125
 49
0.125
 49
-0.125
 49
0.125
 49
-0.125
  0
ENDTAB
  0
TABLE
  2
LAYER
 70
     4
  0
LAYER
  2
0
 70
     0
 62
     7
  6
CONTINUOUS
  0
LAYER
  2
1
 70
     0
 62
     1
  6
CENTER
  0
LAYER
  2
2
 70
     0
 62
     2
  6
HIDDEN
  0
LAYER
  2
DEFPOINTS
 70
     0
 62
     7
  6
CONTINUOUS
  0
ENDTAB
  0
TABLE
  2
STYLE
 70
     2
  0
STYLE
  2
STANDARD
 70
     0
 40
0.0
 41
1.0
 50
0.0
 71
     0
 42
2.0
  3
TXT
  4
BIGFONT
  0
STYLE
  2
STANDARD1
 70
     0
 40
0.0
 41
1.0
 50
0.0
 71
     0
 42
3.0
  3
txt
  4

  0
ENDTAB
  0
TABLE
  2
VIEW
 70
     1
  0
VIEW
  2
ALL
 70
     0
 40
270.0
 10
220.99159663865549
 20
135.0
 41
0.0
 11
0.0
 21
0.0
 31
1.0
 12
0.0
 22
0.0
 32
0.0
 42
0.0
 43
0.0
 44
0.0
 50
0.0
 71
     0
  0
ENDTAB
  0
TABLE
  2
UCS
 70
     0
  0
ENDTAB
  0
TABLE
  2
APPID
 70
     4
  0
APPID
  2
ACAD
 70
     0
  0
APPID
  2
ACAD_EXEMPT_FROM_CAD_STANDARDS
 70
     0
  0
APPID
  2
ACAD_MLEADERVER
 70
     0
  0
APPID
  2
ACAD_NAV_VCDISPLAY
 70
     0
  0
ENDTAB
  0
TABLE
  2
DIMSTYLE
 70
     1
  0
DIMSTYLE
  2
STANDARD
 70
     0
  3

  4

  5

  6

  7

 40
1.0
 41
0.18
 42
0.0625
 43
0.38
 44
0.18
 45
0.0
 46
0.0
 47
0.0
 48
0.0
140
0.18
141
0.09
142
0.0
143
25.399999999999999
144
1.0
145
0.0
146
1.0
147
0.09
 71
     0
 72
     0
 73
     1
 74
     1
 75
     0
 76
     0
 77
     0
 78
     0
170
     0
171
     2
172
     0
173
     0
174
     0
175
     0
176
     0
177
     0
178
     0
  0
ENDTAB
  0
ENDSEC
  0
SECTION
  2
BLOCKS
  0
BLOCK
  8
0
  2
$MODEL_SPACE
 70
     0
 10
0.0
 20
0.0
 30
0.0
  3
$MODEL_SPACE
  1

  0
ENDBLK
  5
217
  8
0
  0
BLOCK
 67
     1
  8
0
  2
$PAPER_SPACE
 70
     0
 10
0.0
 20
0.0
 30
0.0
  3
$PAPER_SPACE
  1

  0
ENDBLK
  5
215
 67
     1
  8
0
  0
ENDSEC
  0
SECTION
  2
ENTITIES
  0
LINE
  5
5F1
  8
0
 10
89.368063384292213
 20
24.946830022398839
 30
0.0
 11
106.8680633842922
 21
24.946830022398839
 31
0.0
  0
LINE
  5
5F2
  8
0
 10
198.36806338429221
 20
24.946830022398839
 30
0.0
 11
198.36806338429221
 21
37.946830022398842
 31
0.0
  0
LINE
  5
5F3
  8
0
 10
89.368063384292213
 20
37.946830022398842
 30
0.0
 11
89.368063384292213
 21
24.946830022398839
 31
0.0
  0
LINE
  5
5F4
  8
0
 10
109.8680633842922
 20
56.946830022398842
 30
0.0
 11
177.86806338429221
 21
56.946830022398842
 31
0.0
  0
LINE
  5
5F5
  8
0
 10
106.8680633842922
 20
24.946830022398839
 30
0.0
 11
106.8680633842922
 21
53.946830022398842
 31
0.0
  0
LINE
  5
5F6
  8
0
 10
180.86806338429221
 20
24.946830022398839
 30
0.0
 11
180.86806338429221
 21
53.946830022398842
 31
0.0
  0
LINE
  5
5F7
  8
0
 10
198.36806338429221
 20
37.946830022398842
 30
0.0
 11
184.75850255859959
 21
60.1263456077981
 31
0.0
  0
LINE
  5
5F8
  8
0
 10
102.9776242099848
 20
60.1263456077981
 30
0.0
 11
89.368063384292213
 21
37.946830022398842
 31
0.0
  0
LINE
  5
5F9
  8
0
 10
180.86806338429221
 20
24.946830022398839
 30
0.0
 11
198.36806338429221
 21
24.946830022398839
 31
0.0
  0
LINE
  5
5FA
  8
1
 10
143.86806338429221
 20
67.946830022398842
 30
0.0
 11
143.86806338429221
 21
51.946830022398899
 31
0.0
  0
ARC
  5
5FB
  8
0
 10
179.67021398166099
 20
56.946830022398842
 30
0.0
 40
6.0
 50
31.99999999999962
 51
90.0
  0
ARC
  5
5FC
  8
0
 10
108.06591278692341
 20
56.946830022398842
 30
0.0
 40
6.0
 50
90.0
 51
148.00000000000031
  0
ARC
  5
5FD
  8
0
 10
109.8680633842922
 20
53.946830022398842
 30
0.0
 40
3.0
 50
90.0
 51
180.0
  0
ARC
  5
5FE
  8
0
 10
177.86806338429221
 20
53.946830022398842
 30
0.0
 40
3.0
 50
0.0
 51
90.0
  0
LINE
  5
5FF
  8
2
 10
183.86806338429221
 20
37.946830022398842
 30
0.0
 11
183.86806338429221
 21
59.697313036091941
 31
0.0
  0
ARC
  5
601
  8
2
 10
180.86806338429221
 20
59.697313036091941
 30
0.0
 40
3.0
 50
0.0
 51
66.466628616138593
  0
LINE
  5
602
  8
1
 10
190.61806338429221
 20
19.946830022398839
 30
0.0
 11
190.61806338429221
 21
55.577013169994771
 31
0.0
  0
LINE
  5
603
  8
2
 10
193.86806338429221
 20
24.946830022398839
 30
0.0
 11
193.86806338429221
 21
30.946830022398849
 31
0.0
  0
LINE
  5
604
  8
2
 10
195.8680633842921
 20
30.946830022398849
 30
0.0
 11
195.8680633842921
 21
37.946830022398842
 31
0.0
  0
LINE
  5
605
  8
2
 10
187.36806338429221
 20
30.946830022398849
 30
0.0
 11
187.36806338429221
 21
24.946830022398839
 31
0.0
  0
LINE
  5
606
  8
2
 10
185.36806338429221
 20
30.946830022398849
 30
0.0
 11
195.8680633842921
 21
30.946830022398849
 31
0.0
  0
LINE
  5
607
  8
0
 10
109.8680633842922
 20
57.946830022398842
 30
0.0
 11
177.86806338429221
 21
57.946830022398842
 31
0.0
  0
ARC
  5
608
  8
0
 10
109.8680633842922
 20
53.946830022398842
 30
0.0
 40
4.0
 50
90.0
 51
180.0
  0
LINE
  5
609
  8
0
 10
105.8680633842922
 20
24.946830022398839
 30
0.0
 11
105.8680633842922
 21
53.946830022398842
 31
0.0
  0
LINE
  5
60A
  8
0
 10
179.67021398166099
 20
62.946830022398842
 30
0.0
 11
108.06591278692341
 21
62.946830022398842
 31
0.0
  0
LINE
  5
60B
  8
2
 10
183.86806338429221
 20
37.946830022398842
 30
0.0
 11
198.36806338429221
 21
37.946830022398842
 31
0.0
  0
LINE
  5
60C
  8
1
 10
97.118063384292213
 20
19.946830022398839
 30
0.0
 11
97.118063384292213
 21
55.577013169994771
 31
0.0
  0
ARC
  5
60D
  8
2
 10
106.8680633842922
 20
59.697313036091941
 30
0.0
 40
3.0
 50
113.53337138386139
 51
180.0
  0
LINE
  5
60E
  8
2
 10
103.8680633842922
 20
37.946830022398842
 30
0.0
 11
103.8680633842922
 21
59.697313036091941
 31
0.0
  0
LINE
  5
60F
  8
2
 10
103.8680633842922
 20
37.946830022398842
 30
0.0
 11
89.368063384292213
 21
37.946830022398842
 31
0.0
  0
LINE
  5
610
  8
2
 10
102.3680633842922
 20
30.946830022398849
 30
0.0
 11
91.868063384292213
 21
30.946830022398849
 31
0.0
  0
LINE
  5
611
  8
2
 10
100.3680633842922
 20
30.946830022398849
 30
0.0
 11
100.3680633842922
 21
24.946830022398839
 31
0.0
  0
LINE
  5
612
  8
2
 10
93.868063384292213
 20
24.946830022398839
 30
0.0
 11
93.868063384292213
 21
30.946830022398849
 31
0.0
  0
LINE
  5
613
  8
0
 10
181.86806338429221
 20
24.946830022398839
 30
0.0
 11
181.86806338429221
 21
53.946830022398842
 31
0.0
  0
ARC
  5
614
  8
0
 10
177.86806338429221
 20
53.946830022398842
 30
0.0
 40
4.0
 50
0.0
 51
90.0
  0
LINE
  5
615
  8
1
 10
84.368063384292384
 20
114.9468300223988
 30
0.0
 11
203.36806338429221
 21
114.9468300223988
 31
0.0
  0
LINE
  5
616
  8
0
 10
198.3680633842921
 20
114.9468300223988
 30
0.0
 11
197.6490912274557
 21
123.16471937926789
 31
0.0
  0
LINE
  5
617
  8
0
 10
198.3680633842921
 20
114.9468300223988
 30
0.0
 11
197.64909122745581
 21
106.72894066552971
 31
0.0
  0
LINE
  5
618
  8
1
 10
190.61806338429221
 20
123.1968300223986
 30
0.0
 11
190.61806338429221
 21
106.6968300223988
 31
0.0
  0
CIRCLE
  5
619
  8
0
 10
190.61806338429221
 20
114.9468300223988
 30
0.0
 40
3.25
  0
LINE
  5
61A
  8
1
 10
143.86806338429221
 20
129.9468300223989
 30
0.0
 11
143.86806338429221
 21
99.946830022398885
 31
0.0
  0
LINE
  5
61B
  8
0
 10
183.8680633842921
 20
110.9468300223988
 30
0.0
 11
183.86806338429221
 21
118.9468300223988
 31
0.0
  0
LINE
  5
61C
  8
0
 10
186.36806338429221
 20
121.4468300223988
 30
0.0
 11
197.25373282083899
 21
121.4468300223988
 31
0.0
  0
LINE
  5
61D
  8
0
 10
186.3680633842921
 20
108.4468300223988
 30
0.0
 11
197.2537328208391
 21
108.4468300223988
 31
0.0
  0
ARC
  5
61E
  8
0
 10
186.36806338429221
 20
118.9468300223988
 30
0.0
 40
2.5
 50
90.0
 51
180.0
  0
ARC
  5
61F
  8
0
 10
186.3680633842921
 20
110.9468300223988
 30
0.0
 40
2.5
 50
180.0
 51
270.0
  0
ARC
  5
620
  8
0
 10
197.25373282083899
 20
121.9468300223988
 30
0.0
 40
0.5
 50
270.0
 51
4.9999999999997931
  0
ARC
  5
621
  8
0
 10
197.2537328208391
 20
107.9468300223988
 30
0.0
 40
0.5
 50
354.99999999999858
 51
90.0
  0
LINE
  5
640
  8
0
 10
180.86806338429221
 20
125.4468300223988
 30
0.0
 11
194.15860448222631
 21
125.4468300223988
 31
0.0
  0
LINE
  5
641
  8
0
 10
106.8680633842922
 20
124.9468300223989
 30
0.0
 11
180.8680633842921
 21
124.9468300223989
 31
0.0
  0
LINE
  5
642
  8
0
 10
106.8680633842922
 20
104.9468300223988
 30
0.0
 11
180.86806338429221
 21
104.9468300223989
 31
0.0
  0
LINE
  5
643
  8
0
 10
180.8680633842921
 20
124.9468300223989
 30
0.0
 11
180.8680633842921
 21
125.4468300223988
 31
0.0
  0
LINE
  5
644
  8
0
 10
180.8680633842921
 20
124.9468300223989
 30
0.0
 11
192.14499115657509
 21
125.4468300223988
 31
0.0
  0
LINE
  5
645
  8
2
 10
36.868063384292547
 20
56.946830022398842
 30
0.0
 11
44.588911009373192
 21
57.622316662404501
 31
0.0
  0
LINE
  5
646
  8
2
 10
36.868063384292668
 20
56.946830022398842
 30
0.0
 11
29.147215759211289
 21
57.622316662404558
 31
0.0
  0
ARC
  5
647
  8
2
 10
44.371021652504048
 20
60.112803407633862
 30
0.0
 40
2.5
 50
274.99999999999972
 51
356.193370389763
  0
ARC
  5
648
  8
2
 10
29.365105116080429
 20
60.112803407633912
 30
0.0
 40
2.5
 50
183.8066296102387
 51
265.00000000000023
  0
LINE
  5
64A
  8
0
 10
36.86806338429227
 20
37.946830022398842
 30
0.0
 11
36.86806338429227
 21
24.946830022398839
 31
0.0
  0
LINE
  5
64B
  8
0
 10
43.368063384292661
 20
37.946830022398842
 30
0.0
 11
30.368063384292672
 21
37.946830022398842
 31
0.0
  0
LINE
  5
64C
  8
0
 10
43.368063384292832
 20
57.550509841850442
 30
0.0
 11
43.368063384292661
 21
37.946830022398842
 31
0.0
  0
LINE
  5
64D
  8
0
 10
30.368063384292778
 20
57.550509841850442
 30
0.0
 11
30.368063384292672
 21
37.946830022398842
 31
0.0
  0
POLYLINE
  5
64E
  8
0
 66
     1
 10
0.0
 20
0.0
 30
0.0
  0
VERTEX
  5
64F
  8
0
 10
40.868063384292782
 20
59.697313036091998
 30
0.0
 42
-0.0856430709373415
  0
VERTEX
  5
650
  8
0
 10
41.841382495724467
 20
59.529365107027779
 30
0.0
 42
-0.0922092839784777
  0
VERTEX
  5
651
  8
0
 10
42.635830337259222
 20
59.068528938371571
 30
0.0
 42
-0.103321285014218
  0
VERTEX
  5
652
  8
0
 10
43.184118102778932
 20
58.355243271929389
 30
0.0
 42
-0.1128344823430784
  0
VERTEX
  5
653
  8
0
 10
43.368063384292832
 20
57.550509841850392
 30
0.0
 42
-0.1128344823430791
  0
SEQEND
  5
654
  8
0
  0
POLYLINE
  5
655
  8
0
 66
     1
 10
0.0
 20
0.0
 30
0.0
  0
VERTEX
  5
656
  8
0
 10
32.868063384292562
 20
59.697313036091998
 30
0.0
 42
0.0856430709373415
  0
VERTEX
  5
657
  8
0
 10
31.894744272860859
 20
59.529365107027779
 30
0.0
 42
0.0922092839784777
  0
VERTEX
  5
658
  8
0
 10
31.100296431326111
 20
59.068528938371571
 30
0.0
 42
0.103321285014218
  0
VERTEX
  5
659
  8
0
 10
30.552008665806401
 20
58.355243271929389
 30
0.0
 42
0.1128344823430784
  0
VERTEX
  5
65A
  8
0
 10
30.368063384292501
 20
57.550509841850392
 30
0.0
 42
0.1128344823430791
  0
SEQEND
  5
65B
  8
0
  0
ARC
  5
65C
  8
0
 10
29.365105116080429
 20
59.780856637163822
 30
0.0
 40
2.5
 50
94.999999999999659
 51
178.78481721698139
  0
ARC
  5
65D
  8
0
 10
44.371021652504048
 20
59.780856637163879
 30
0.0
 40
2.5
 50
1.2151827830186011
 51
85.000000000000313
  0
LINE
  5
65E
  8
0
 10
36.868063384292668
 20
62.946830022398842
 30
0.0
 11
29.147215759211289
 21
62.271343382393177
 31
0.0
  0
LINE
  5
65F
  8
0
 10
36.868063384292547
 20
62.946830022398842
 30
0.0
 11
44.588911009373192
 21
62.271343382393241
 31
0.0
  0
LINE
  5
660
  8
0
 10
26.865667368954458
 20
59.833875013618012
 30
0.0
 11
26.36806338429221
 21
24.946830022398839
 31
0.0
  0
LINE
  5
661
  8
0
 10
46.870459399630022
 20
59.833875013618069
 30
0.0
 11
47.368063384292213
 21
24.946830022398839
 31
0.0
  0
LINE
  5
662
  8
1
 10
36.86806338429227
 20
67.946830022398842
 30
0.0
 11
36.86806338429227
 21
19.946830022398839
 31
0.0
  0
LINE
  5
663
  8
0
 10
47.368063384292213
 20
24.946830022398839
 30
0.0
 11
26.36806338429227
 21
24.946830022398839
 31
0.0
  0
ARC
  5
664
  8
0
 10
194.27231074939399
 20
121.8103397585995
 30
0.0
 40
3.638267520936346
 50
21.85503368795014
 51
91.790948632017134
  0
LINE
  5
665
  8
0
 10
180.8680633842921
 20
104.9468300223988
 30
0.0
 11
192.14499115657509
 21
104.4468300223989
 31
0.0
  0
LINE
  5
666
  8
0
 10
180.8680633842921
 20
104.9468300223988
 30
0.0
 11
180.8680633842921
 21
104.4468300223989
 31
0.0
  0
LINE
  5
667
  8
0
 10
180.86806338429221
 20
104.4468300223989
 30
0.0
 11
194.15860448222631
 21
104.4468300223989
 31
0.0
  0
ARC
  5
668
  8
0
 10
194.27231074939399
 20
108.0833202861982
 30
0.0
 40
3.6382675209363349
 50
268.20905136798279
 51
338.14496631204992
  0
ARC
  5
669
  8
0
 10
93.463816019190389
 20
108.0833202861982
 30
0.0
 40
3.638267520936346
 50
201.85503368795011
 51
271.79094863201709
  0
LINE
  5
66A
  8
0
 10
106.8680633842922
 20
104.4468300223989
 30
0.0
 11
93.577522286358075
 21
104.4468300223989
 31
0.0
  0
LINE
  5
66B
  8
0
 10
106.8680633842922
 20
104.9468300223988
 30
0.0
 11
106.8680633842922
 21
104.4468300223989
 31
0.0
  0
LINE
  5
66C
  8
0
 10
106.8680633842922
 20
104.9468300223988
 30
0.0
 11
95.591135612009339
 21
104.4468300223989
 31
0.0
  0
ARC
  5
66D
  8
0
 10
93.463816019190389
 20
121.8103397585995
 30
0.0
 40
3.6382675209363349
 50
88.20905136798288
 51
158.1449663120498
  0
LINE
  5
66E
  8
0
 10
106.8680633842922
 20
124.9468300223989
 30
0.0
 11
95.591135612009339
 21
125.4468300223988
 31
0.0
  0
LINE
  5
66F
  8
0
 10
106.8680633842922
 20
124.9468300223989
 30
0.0
 11
106.8680633842922
 21
125.4468300223988
 31
0.0
  0
LINE
  5
670
  8
0
 10
106.8680633842922
 20
125.4468300223988
 30
0.0
 11
93.577522286358075
 21
125.4468300223988
 31
0.0
  0
ARC
  5
671
  8
0
 10
90.482393947745379
 20
107.9468300223988
 30
0.0
 40
0.5
 50
90.0
 51
185.00000000000139
  0
ARC
  5
672
  8
0
 10
90.482393947745436
 20
121.9468300223988
 30
0.0
 40
0.5
 50
174.99999999999849
 51
270.0
  0
ARC
  5
673
  8
0
 10
101.3680633842922
 20
110.9468300223988
 30
0.0
 40
2.5
 50
270.0
 51
0.0
  0
ARC
  5
674
  8
0
 10
101.3680633842922
 20
118.9468300223988
 30
0.0
 40
2.5
 50
0.0
 51
90.0
  0
LINE
  5
675
  8
0
 10
101.3680633842922
 20
108.4468300223988
 30
0.0
 11
90.482393947745379
 21
108.4468300223988
 31
0.0
  0
LINE
  5
676
  8
0
 10
101.3680633842922
 20
121.4468300223988
 30
0.0
 11
90.482393947745436
 21
121.4468300223988
 31
0.0
  0
LINE
  5
677
  8
0
 10
103.8680633842922
 20
110.9468300223988
 30
0.0
 11
103.8680633842922
 21
118.9468300223988
 31
0.0
  0
CIRCLE
  5
678
  8
0
 10
97.118063384292213
 20
114.9468300223988
 30
0.0
 40
3.25
  0
LINE
  5
679
  8
1
 10
97.118063384292213
 20
123.1968300223986
 30
0.0
 11
97.118063384292213
 21
106.6968300223988
 31
0.0
  0
LINE
  5
67A
  8
0
 10
89.368063384292327
 20
114.9468300223988
 30
0.0
 11
90.087035541128543
 21
106.72894066552971
 31
0.0
  0
LINE
  5
67B
  8
0
 10
89.368063384292384
 20
114.9468300223988
 30
0.0
 11
90.087035541128728
 21
123.16471937926789
 31
0.0
  0
LINE
  5
67C
  8
2
 10
185.36806338429221
 20
30.946830022398849
 30
0.0
 11
185.36806338429221
 21
37.946830022398842
 31
0.0
  0
LINE
  5
67D
  8
2
 10
91.868063384292213
 20
30.946830022398871
 30
0.0
 11
91.868063384292213
 21
37.946830022398871
 31
0.0
  0
LINE
  5
67E
  8
2
 10
102.3680633842922
 20
30.946830022398849
 30
0.0
 11
102.3680633842922
 21
37.946830022398842
 31
0.0
  0
CIRCLE
  5
67F
  8
0
 10
190.61806338429221
 20
114.9468300223988
 30
0.0
 40
5.25
  0
CIRCLE
  5
680
  8
0
 10
97.118063384292213
 20
114.9468300223988
 30
0.0
 40
5.25
  0
TEXT
  5
A69
  8
0
 62
     3
 10
0.0
 20
0.0
 30
0.0
 40
10.0
  1
AGS110-OG
  7
STANDARD1
  0
ENDSEC
  0
EOF
