  0
SECTION
  2
HEADER
  9
$ACADVER
  1
AC1009
  9
$INSBASE
 10
0.0
 20
0.0
 30
0.0
  9
$EXTMIN
 10
0.0
 20
-1.4802182810368341
 30
0.0
  9
$EXTMAX
 10
100.7295963325449
 20
110.293872185924
 30
0.0
  9
$LIMMIN
 10
0.0
 20
0.0
  9
$LIMMAX
 10
297.0
 20
210.0
  9
$ORTHOMODE
 70
     1
  9
$REGENMODE
 70
     1
  9
$FILLMODE
 70
     1
  9
$QTEXTMODE
 70
     0
  9
$MIRRTEXT
 70
     0
  9
$DRAGMODE
 70
     2
  9
$LTSCALE
 40
5.0
  9
$OSMODE
 70
    55
  9
$ATTMODE
 70
     1
  9
$TEXTSIZE
 40
2.5
  9
$TRACEWID
 40
1.0
  9
$TEXTSTYLE
  7
STANDARD
  9
$CLAYER
  8
0
  9
$CELTYPE
  6
BYLAYER
  9
$CECOLOR
 62
   256
  9
$DIMSCALE
 40
1.0
  9
$DIMASZ
 40
1.5
  9
$DIMEXO
 40
1.0
  9
$DIMDLI
 40
6.0
  9
$DIMRND
 40
0.0
  9
$DIMDLE
 40
0.0
  9
$DIMEXE
 40
1.0
  9
$DIMTP
 40
495.0
  9
$DIMTM
 40
0.0
  9
$DIMTXT
 40
3.0
  9
$DIMCEN
 40
0.0
  9
$DIMTSZ
 40
0.0
  9
$DIMTOL
 70
     0
  9
$DIMLIM
 70
     0
  9
$DIMTIH
 70
     0
  9
$DIMTOH
 70
     0
  9
$DIMSE1
 70
     0
  9
$DIMSE2
 70
     0
  9
$DIMTAD
 70
     3
  9
$DIMZIN
 70
     0
  9
$DIMBLK
  1

  9
$DIMASO
 70
     0
  9
$DIMSHO
 70
     1
  9
$DIMPOST
  1

  9
$DIMAPOST
  1

  9
$DIMALT
 70
     0
  9
$DIMALTD
 70
     2
  9
$DIMALTF
 40
25.399999999999999
  9
$DIMLFAC
 40
1.0
  9
$DIMTOFL
 70
     1
  9
$DIMTVP
 40
0.0
  9
$DIMTIX
 70
     1
  9
$DIMSOXD
 70
     0
  9
$DIMSAH
 70
     1
  9
$DIMBLK1
  1

  9
$DIMBLK2
  1

  9
$DIMSTYLE
  2
ITM
  9
$DIMCLRD
 70
     0
  9
$DIMCLRE
 70
     0
  9
$DIMCLRT
 70
     0
  9
$DIMTFAC
 40
1.0
  9
$DIMGAP
 40
0.5
  9
$LUNITS
 70
     2
  9
$LUPREC
 70
     2
  9
$SKETCHINC
 40
1.0
  9
$FILLETRAD
 40
0.0
  9
$AUNITS
 70
     0
  9
$AUPREC
 70
     0
  9
$MENU
  1
.
  9
$ELEVATION
 40
0.0
  9
$PELEVATION
 40
0.0
  9
$THICKNESS
 40
0.0
  9
$LIMCHECK
 70
     0
  9
$BLIPMODE
 70
     0
  9
$CHAMFERA
 40
10.0
  9
$CHAMFERB
 40
10.0
  9
$SKPOLY
 70
     0
  9
$TDCREATE
 40
2450750.3805300351
  9
$TDUPDATE
 40
2456598.3927259021
  9
$TDINDWG
 40
0.0257888079
  9
$TDUSRTIMER
 40
0.020082338
  9
$USRTIMER
 70
     1
  9
$ANGBASE
 50
0.0
  9
$ANGDIR
 70
     0
  9
$PDMODE
 70
     0
  9
$PDSIZE
 40
0.0
  9
$PLINEWID
 40
0.0
  9
$COORDS
 70
     1
  9
$SPLFRAME
 70
     0
  9
$SPLINETYPE
 70
     6
  9
$SPLINESEGS
 70
     8
  9
$ATTDIA
 70
     0
  9
$ATTREQ
 70
     1
  9
$HANDLING
 70
     1
  9
$HANDSEED
  5
301
  9
$SURFTAB1
 70
     6
  9
$SURFTAB2
 70
     6
  9
$SURFTYPE
 70
     6
  9
$SURFU
 70
     6
  9
$SURFV
 70
     6
  9
$UCSNAME
  2

  9
$UCSORG
 10
0.0
 20
0.0
 30
0.0
  9
$UCSXDIR
 10
1.0
 20
0.0
 30
0.0
  9
$UCSYDIR
 10
0.0
 20
1.0
 30
0.0
  9
$PUCSNAME
  2

  9
$PUCSORG
 10
0.0
 20
0.0
 30
0.0
  9
$PUCSXDIR
 10
1.0
 20
0.0
 30
0.0
  9
$PUCSYDIR
 10
0.0
 20
1.0
 30
0.0
  9
$USERI1
 70
     4
  9
$USERI2
 70
     1
  9
$USERI3
 70
     1
  9
$USERI4
 70
     0
  9
$USERI5
 70
     0
  9
$USERR1
 40
1.0
  9
$USERR2
 40
3.0
  9
$USERR3
 40
3.0
  9
$USERR4
 40
1.5
  9
$USERR5
 40
10.0
  9
$WORLDVIEW
 70
     1
  9
$SHADEDGE
 70
     3
  9
$SHADEDIF
 70
    70
  9
$TILEMODE
 70
     1
  9
$MAXACTVP
 70
    16
  9
$PLIMCHECK
 70
     0
  9
$PEXTMIN
 10
1.0000000000000000E+020
 20
1.0000000000000000E+020
 30
1.0000000000000000E+020
  9
$PEXTMAX
 10
-1.0000000000000000E+020
 20
-1.0000000000000000E+020
 30
-1.0000000000000000E+020
  9
$PLIMMIN
 10
0.0
 20
0.0
  9
$PLIMMAX
 10
420.0
 20
297.0
  9
$UNITMODE
 70
     0
  9
$VISRETAIN
 70
     0
  9
$PLINEGEN
 70
     0
  9
$PSLTSCALE
 70
     1
  0
ENDSEC
  0
SECTION
  2
TABLES
  0
TABLE
  2
VPORT
 70
     1
  0
VPORT
  2
*ACTIVE
 70
     0
 10
0.0
 20
0.0
 11
1.0
 21
1.0
 12
148.4954684853966
 22
153.48445918231931
 13
0.0
 23
0.0
 14
10.0
 24
10.0
 15
10.0
 25
10.0
 16
0.0
 26
0.0
 36
1.0
 17
0.0
 27
0.0
 37
0.0
 40
312.65851226798259
 41
1.7807262569832401
 42
50.0
 43
0.0
 44
0.0
 50
0.0
 51
0.0
 71
     0
 72
   100
 73
     1
 74
     0
 75
     0
 76
     0
 77
     0
 78
     0
  0
ENDTAB
  0
TABLE
  2
LTYPE
 70
     3
  0
LTYPE
  2
CONTINUOUS
 70
     0
  3
Solid Line
 72
    65
 73
     0
 40
0.0
  0
LTYPE
  2
CENTER
 70
     0
  3
____ _ ____ _ ____ _ ____ _ ____ _ ____ _ ____
 72
    65
 73
     4
 40
2.0
 49
1.25
 49
-0.25
 49
0.25
 49
-0.25
  0
LTYPE
  2
PHANTOM2
 70
     0
  3
___ _ _ ___ _ _ ___ _ _ ___ _ _
 72
    65
 73
     6
 40
1.25
 49
0.625
 49
-0.125
 49
0.125
 49
-0.125
 49
0.125
 49
-0.125
  0
ENDTAB
  0
TABLE
  2
LAYER
 70
     2
  0
LAYER
  2
0
 70
     0
 62
     7
  6
CONTINUOUS
  0
LAYER
  2
1
 70
     0
 62
     1
  6
CENTER
  0
ENDTAB
  0
TABLE
  2
STYLE
 70
     2
  0
STYLE
  2
STANDARD
 70
     0
 40
0.0
 41
1.0
 50
15.0
 71
     0
 42
2.5
  3
ROMANS
  4
BIGFONT
  0
STYLE
  2
STANDARD1
 70
     0
 40
0.0
 41
1.0
 50
0.0
 71
     0
 42
3.0
  3
txt
  4

  0
ENDTAB
  0
TABLE
  2
VIEW
 70
     0
  0
ENDTAB
  0
TABLE
  2
UCS
 70
     0
  0
ENDTAB
  0
TABLE
  2
APPID
 70
     3
  0
APPID
  2
ACAD
 70
     0
  0
APPID
  2
ACAD_MLEADERVER
 70
     0
  0
APPID
  2
ACAD_NAV_VCDISPLAY
 70
     0
  0
ENDTAB
  0
TABLE
  2
DIMSTYLE
 70
     2
  0
DIMSTYLE
  2
ITM
 70
     0
  3

  4

  5

  6

  7

 40
1.0
 41
1.5
 42
1.0
 43
6.0
 44
1.0
 45
0.0
 46
0.0
 47
495.0
 48
0.0
140
3.0
141
0.0
142
0.0
143
25.399999999999999
144
1.0
145
0.0
146
1.0
147
0.5
 71
     0
 72
     0
 73
     0
 74
     0
 75
     0
 76
     0
 77
     3
 78
     8
170
     0
171
     2
172
     1
173
     1
174
     1
175
     0
176
     0
177
     0
178
     0
  0
DIMSTYLE
  2
STANDARD
 70
     0
  3

  4

  5

  6

  7

 40
1.0
 41
0.18
 42
0.0625
 43
0.38
 44
0.18
 45
0.0
 46
0.0
 47
0.0
 48
0.0
140
0.18
141
0.09
142
0.0
143
25.399999999999999
144
1.0
145
0.0
146
1.0
147
0.09
 71
     0
 72
     0
 73
     1
 74
     1
 75
     0
 76
     0
 77
     0
 78
     0
170
     0
171
     2
172
     0
173
     0
174
     0
175
     0
176
     0
177
     0
178
     0
  0
ENDTAB
  0
ENDSEC
  0
SECTION
  2
BLOCKS
  0
BLOCK
  8
0
  2
$MODEL_SPACE
 70
     0
 10
0.0
 20
0.0
 30
0.0
  3
$MODEL_SPACE
  1

  0
ENDBLK
  5
20
  8
0
  0
BLOCK
 67
     1
  8
0
  2
$PAPER_SPACE
 70
     0
 10
0.0
 20
0.0
 30
0.0
  3
$PAPER_SPACE
  1

  0
ENDBLK
  5
1C
 67
     1
  8
0
  0
ENDSEC
  0
SECTION
  2
ENTITIES
  0
LINE
  5
197
  8
0
 10
95.979343332544914
 20
63.793872185924002
 30
0.0
 11
95.979343332544914
 21
35.793872185923988
 31
0.0
  0
LINE
  5
198
  8
0
 10
94.918587332544917
 20
63.793872185924002
 30
0.0
 11
94.918587332544917
 21
35.793872185923988
 31
0.0
  0
LINE
  5
199
  8
0
 10
93.708380332544905
 20
63.793872185924002
 30
0.0
 11
93.708380332544905
 21
35.793872185923988
 31
0.0
  0
LINE
  5
19A
  8
0
 10
92.395228332544917
 20
63.793872185924002
 30
0.0
 11
92.395228332544917
 21
35.793872185923988
 31
0.0
  0
LINE
  5
19B
  8
0
 10
84.164099332544936
 20
63.793872185924002
 30
0.0
 11
84.164099332544936
 21
35.793872185923988
 31
0.0
  0
LINE
  5
19C
  8
0
 10
84.562439332544926
 20
63.793872185924002
 30
0.0
 11
84.562439332544926
 21
35.793872185923988
 31
0.0
  0
LINE
  5
19D
  8
0
 10
85.209308332544921
 20
63.793872185924002
 30
0.0
 11
85.209308332544921
 21
35.793872185923988
 31
0.0
  0
LINE
  5
19E
  8
0
 10
86.079848332544927
 20
63.793872185924002
 30
0.0
 11
86.079848332544927
 21
35.793872185923988
 31
0.0
  0
LINE
  5
19F
  8
0
 10
87.14060433254491
 20
63.793872185924002
 30
0.0
 11
87.14060433254491
 21
35.793872185923988
 31
0.0
  0
LINE
  5
1A0
  8
0
 10
88.350812332544905
 20
63.793872185924002
 30
0.0
 11
88.350812332544905
 21
35.793872185923988
 31
0.0
  0
LINE
  5
1A1
  8
0
 10
89.663963332544924
 20
63.793872185924002
 30
0.0
 11
89.663963332544924
 21
35.793872185923988
 31
0.0
  0
LINE
  5
1A2
  8
0
 10
96.429596332544932
 20
75.793872185924002
 30
0.0
 11
96.429596332544932
 21
45.793872185924002
 31
0.0
  0
LINE
  5
1A3
  8
1
 10
91.029596332544941
 20
78.293872185924002
 30
0.0
 11
91.029596332544926
 21
33.293872185923988
 31
0.0
  0
LINE
  5
1A4
  8
0
 10
84.029596332544926
 20
74.793872185924002
 30
0.0
 11
84.029596332544926
 21
35.793872185923988
 31
0.0
  0
LINE
  5
1A5
  8
0
 10
84.029596332544926
 20
35.793872185923988
 30
0.0
 11
98.029596332544926
 21
35.793872185923988
 31
0.0
  0
LINE
  5
1A6
  8
0
 10
97.895093332544931
 20
45.793872185924002
 30
0.0
 11
97.895093332544931
 21
35.793872185923988
 31
0.0
  0
LINE
  5
1A7
  8
0
 10
97.496752332544915
 20
45.793872185924002
 30
0.0
 11
97.496752332544915
 21
35.793872185923988
 31
0.0
  0
LINE
  5
1A8
  8
0
 10
96.849883332544934
 20
45.793872185924002
 30
0.0
 11
96.849883332544934
 21
35.793872185923988
 31
0.0
  0
LINE
  5
1A9
  8
0
 10
98.029596332544926
 20
45.793872185924002
 30
0.0
 11
98.029596332544926
 21
35.793872185923988
 31
0.0
  0
LINE
  5
1AA
  8
0
 10
96.429596332544932
 20
45.793872185924002
 30
0.0
 11
98.029596332544926
 21
45.793872185924002
 31
0.0
  0
LINE
  5
1AC
  8
0
 10
84.029596332544926
 20
74.793872185924002
 30
0.0
 11
96.429596332544932
 21
74.793872185924002
 31
0.0
  0
LINE
  5
1AD
  8
0
 10
84.029596332544926
 20
63.793872185924002
 30
0.0
 11
96.429596332544932
 21
63.793872185924002
 31
0.0
  0
LINE
  5
1AE
  8
0
 10
85.029596332544926
 20
75.793872185924002
 30
0.0
 11
96.429596332544932
 21
75.793872185924002
 31
0.0
  0
LINE
  5
1AF
  8
0
 10
85.029596332544926
 20
75.793872185924002
 30
0.0
 11
84.029596332544926
 21
74.793872185924002
 31
0.0
  0
ARC
  5
1B0
  8
0
 10
94.979596332544929
 20
69.993872185924005
 30
0.0
 40
3.25
 50
296.49718500000012
 51
63.502814999999892
  0
ARC
  5
1B2
  8
0
 10
91.029596332544926
 20
100.793872185924
 30
0.0
 40
7.0
 50
12.254297000000021
 51
347.74570299999988
  0
ARC
  5
1B3
  8
0
 10
91.029596332544926
 20
100.793872185924
 30
0.0
 40
6.0
 50
25.8419330000001
 51
334.15806700000007
  0
ARC
  5
1B5
  8
0
 10
94.979596332544929
 20
100.793872185924
 30
0.0
 40
3.25
 50
296.49718500000012
 51
63.502814999999892
  0
LINE
  5
1B6
  8
0
 10
96.429596332544932
 20
105.248084185924
 30
0.0
 11
96.429596332544932
 21
96.339661185923987
 31
0.0
  0
LINE
  5
1BA
  8
1
 10
91.029596332544926
 20
110.293872185924
 30
0.0
 11
91.029596332544926
 21
91.293872185923973
 31
0.0
  0
LINE
  5
1BB
  8
1
 10
100.5295963325449
 20
100.793872185924
 30
0.0
 11
81.529596332544926
 21
100.793872185924
 31
0.0
  0
LINE
  5
1BD
  8
1
 10
100.7295963325449
 20
69.993872185924005
 30
0.0
 11
89.229596332544915
 21
69.993872185924005
 31
0.0
  0
TEXT
  5
26E
  8
0
 62
     3
 10
0.0
 20
0.0
 30
0.0
 40
5.0
  1
WP1-14
  7
STANDARD1
  0
ENDSEC
  0
EOF
