  0
SECTION
  2
HEADER
  9
$ACADVER
  1
AC1009
  9
$INSBASE
 10
0.0
 20
0.0
 30
0.0
  9
$EXTMIN
 10
-0.0057187280259541
 20
-2.964721192267461
 30
-0.0000000000112498
  9
$EXTMAX
 10
71.295324152050512
 20
49.812897847311781
 30
0.0000000000002956
  9
$LIMMIN
 10
0.0
 20
0.0
  9
$LIMMAX
 10
375.0
 20
278.0
  9
$ORTHOMODE
 70
     1
  9
$REGENMODE
 70
     1
  9
$FILLMODE
 70
     1
  9
$QTEXTMODE
 70
     0
  9
$MIRRTEXT
 70
     0
  9
$DRAGMODE
 70
     2
  9
$LTSCALE
 40
10.0
  9
$OSMODE
 70
    37
  9
$ATTMODE
 70
     1
  9
$TEXTSIZE
 40
0.2
  9
$TRACEWID
 40
0.05
  9
$TEXTSTYLE
  7
STANDARD
  9
$CLAYER
  8
0
  9
$CELTYPE
  6
BYLAYER
  9
$CECOLOR
 62
   256
  9
$DIMSCALE
 40
1.0
  9
$DIMASZ
 40
3.0
  9
$DIMEXO
 40
1.0
  9
$DIMDLI
 40
6.0
  9
$DIMRND
 40
0.0
  9
$DIMDLE
 40
0.0
  9
$DIMEXE
 40
1.0
  9
$DIMTP
 40
495.0
  9
$DIMTM
 40
0.0
  9
$DIMTXT
 40
3.0
  9
$DIMCEN
 40
0.0
  9
$DIMTSZ
 40
0.0
  9
$DIMTOL
 70
     0
  9
$DIMLIM
 70
     0
  9
$DIMTIH
 70
     0
  9
$DIMTOH
 70
     0
  9
$DIMSE1
 70
     0
  9
$DIMSE2
 70
     0
  9
$DIMTAD
 70
     1
  9
$DIMZIN
 70
     0
  9
$DIMBLK
  1

  9
$DIMASO
 70
     0
  9
$DIMSHO
 70
     0
  9
$DIMPOST
  1

  9
$DIMAPOST
  1

  9
$DIMALT
 70
     0
  9
$DIMALTD
 70
     2
  9
$DIMALTF
 40
25.399999999999999
  9
$DIMLFAC
 40
1.0
  9
$DIMTOFL
 70
     1
  9
$DIMTVP
 40
0.0
  9
$DIMTIX
 70
     1
  9
$DIMSOXD
 70
     0
  9
$DIMSAH
 70
     0
  9
$DIMBLK1
  1

  9
$DIMBLK2
  1

  9
$DIMSTYLE
  2
STANDARD
  9
$DIMCLRD
 70
     0
  9
$DIMCLRE
 70
     0
  9
$DIMCLRT
 70
     4
  9
$DIMTFAC
 40
1.0
  9
$DIMGAP
 40
1.0
  9
$LUNITS
 70
     2
  9
$LUPREC
 70
     4
  9
$SKETCHINC
 40
0.1
  9
$FILLETRAD
 40
0.0
  9
$AUNITS
 70
     0
  9
$AUPREC
 70
     0
  9
$MENU
  1
C:\R13\WIN\SUPPORT\ACAD-I
  9
$ELEVATION
 40
0.0
  9
$PELEVATION
 40
0.0
  9
$THICKNESS
 40
0.0
  9
$LIMCHECK
 70
     0
  9
$BLIPMODE
 70
     0
  9
$CHAMFERA
 40
0.0
  9
$CHAMFERB
 40
0.0
  9
$SKPOLY
 70
     0
  9
$TDCREATE
 40
2450834.4199027782
  9
$TDUPDATE
 40
2457028.5971215982
  9
$TDINDWG
 40
0.3301639699
  9
$TDUSRTIMER
 40
2456598.3551822919
  9
$USRTIMER
 70
     1
  9
$ANGBASE
 50
0.0
  9
$ANGDIR
 70
     0
  9
$PDMODE
 70
     0
  9
$PDSIZE
 40
0.0
  9
$PLINEWID
 40
0.0
  9
$COORDS
 70
     1
  9
$SPLFRAME
 70
     0
  9
$SPLINETYPE
 70
     6
  9
$SPLINESEGS
 70
     8
  9
$ATTDIA
 70
     0
  9
$ATTREQ
 70
     1
  9
$HANDLING
 70
     1
  9
$HANDSEED
  5
2BDD
  9
$SURFTAB1
 70
     6
  9
$SURFTAB2
 70
     6
  9
$SURFTYPE
 70
     6
  9
$SURFU
 70
     6
  9
$SURFV
 70
     6
  9
$UCSNAME
  2

  9
$UCSORG
 10
0.0
 20
0.0
 30
0.0
  9
$UCSXDIR
 10
1.0
 20
0.0
 30
0.0
  9
$UCSYDIR
 10
0.0
 20
1.0
 30
0.0
  9
$PUCSNAME
  2

  9
$PUCSORG
 10
0.0
 20
0.0
 30
0.0
  9
$PUCSXDIR
 10
1.0
 20
0.0
 30
0.0
  9
$PUCSYDIR
 10
0.0
 20
1.0
 30
0.0
  9
$USERI1
 70
     4
  9
$USERI2
 70
     1
  9
$USERI3
 70
     1
  9
$USERI4
 70
     0
  9
$USERI5
 70
     0
  9
$USERR1
 40
1.0
  9
$USERR2
 40
3.0
  9
$USERR3
 40
3.0
  9
$USERR4
 40
3.0
  9
$USERR5
 40
10.0
  9
$WORLDVIEW
 70
     1
  9
$SHADEDGE
 70
     3
  9
$SHADEDIF
 70
    70
  9
$TILEMODE
 70
     1
  9
$MAXACTVP
 70
    16
  9
$PLIMCHECK
 70
     0
  9
$PEXTMIN
 10
1.0000000000000000E+020
 20
1.0000000000000000E+020
 30
1.0000000000000000E+020
  9
$PEXTMAX
 10
-1.0000000000000000E+020
 20
-1.0000000000000000E+020
 30
-1.0000000000000000E+020
  9
$PLIMMIN
 10
0.0
 20
0.0
  9
$PLIMMAX
 10
12.0
 20
9.0
  9
$UNITMODE
 70
     0
  9
$VISRETAIN
 70
     0
  9
$PLINEGEN
 70
     0
  9
$PSLTSCALE
 70
     0
  0
ENDSEC
  0
SECTION
  2
TABLES
  0
TABLE
  2
VPORT
 70
     1
  0
VPORT
  2
*ACTIVE
 70
     0
 10
0.0
 20
0.0
 11
1.0
 21
1.0
 12
35.644802712012279
 22
23.42408832752216
 13
0.0
 23
0.0
 14
10.0
 24
10.0
 15
10.0
 25
10.0
 16
0.0
 26
0.0
 36
1.0
 17
0.0
 27
0.0
 37
0.0
 40
53.219272755391607
 41
1.368715083798882
 42
50.0
 43
0.0
 44
0.0
 50
0.0
 51
0.0
 71
    16
 72
   100
 73
     1
 74
     0
 75
     0
 76
     0
 77
     0
 78
     0
  0
ENDTAB
  0
TABLE
  2
LTYPE
 70
     4
  0
LTYPE
  2
CONTINUOUS
 70
     0
  3
Solid Line
 72
    65
 73
     0
 40
0.0
  0
LTYPE
  2
CENTER
 70
     0
  3
____ _ ____ _ ____ _ ____ _ ____ _ ____ _ ____
 72
    65
 73
     4
 40
2.0
 49
1.25
 49
-0.25
 49
0.25
 49
-0.25
  0
LTYPE
  2
HIDDEN
 70
     0
  3
Hidden __ __ __ __ __ __ __ __ __ __ __ __ __ __
 72
    65
 73
     2
 40
1.905
 49
1.27
 49
-0.635
  0
LTYPE
  2
PHANTOM2
 70
     0
  3
___ _ _ ___ _ _ ___ _ _ ___ _ _
 72
    65
 73
     6
 40
1.25
 49
0.625
 49
-0.125
 49
0.125
 49
-0.125
 49
0.125
 49
-0.125
  0
ENDTAB
  0
TABLE
  2
LAYER
 70
     4
  0
LAYER
  2
0
 70
     0
 62
     7
  6
CONTINUOUS
  0
LAYER
  2
1
 70
     0
 62
     1
  6
CENTER
  0
LAYER
  2
3
 70
     0
 62
     3
  6
CONTINUOUS
  0
LAYER
  2
2
 70
     0
 62
     2
  6
HIDDEN
  0
ENDTAB
  0
TABLE
  2
STYLE
 70
     2
  0
STYLE
  2
STANDARD
 70
     0
 40
0.0
 41
1.0
 50
0.0
 71
     0
 42
0.2
  3
SIMPLEX
  4
BIGFONT
  0
STYLE
  2
STANDARD1
 70
     0
 40
0.0
 41
1.0
 50
0.0
 71
     0
 42
3.0
  3
txt
  4

  0
ENDTAB
  0
TABLE
  2
VIEW
 70
     1
  0
VIEW
  2
OLE1
 70
     0
 40
291.7645213893083
 10
838.41442108057515
 20
178.2389706818546
 41
436.4510258487602
 11
0.0
 21
0.0
 31
1.0
 12
0.0
 22
0.0
 32
0.0
 42
50.0
 43
0.0
 44
0.0
 50
0.0
 71
     0
  0
ENDTAB
  0
TABLE
  2
UCS
 70
     0
  0
ENDTAB
  0
TABLE
  2
APPID
 70
    35
  0
APPID
  2
ACAD
 70
     0
  0
APPID
  2
GENIUS_GENOBJ_13
 70
     0
  0
APPID
  2
GENIUS_GENODEF_13
 70
     0
  0
APPID
  2
GENIUS_GENOENT_13
 70
     0
  0
APPID
  2
GENIUS_GENOLIS_13
 70
     0
  0
APPID
  2
GENIUS_GENOREF_13
 70
     0
  0
APPID
  2
GENIUS_GENOBJ-N-TIT_13
 70
     0
  0
APPID
  2
GENIUS_GENTITLE_13
 70
     0
  0
APPID
  2
GENIUS_GENZVEED_13
 70
     0
  0
APPID
  2
GENIUS_GENOBJ-N-FIL_13
 70
     0
  0
APPID
  2
GENIUS_GENOBJ-N-CRS_13
 70
     0
  0
APPID
  2
GENIUS_GEFINERT_13
 70
     0
  0
APPID
  2
GENIUS_GENOBJ-F-INER_13
 70
     0
  0
APPID
  2
GENIUS_GENOBJ-N-ZOO_13
 70
     0
  0
APPID
  2
GENIUS_GENZOO_13
 70
     0
  0
APPID
  2
GENIUS_GENOBJ-F-TOL_13
 70
     0
  0
APPID
  2
GENIUS_GENOBJ-N-RSSYM_13
 70
     0
  0
APPID
  2
GENIUS_GENSYMENT_13
 70
     0
  0
APPID
  2
GENIUS_GENBH_13
 70
     0
  0
APPID
  2
GENIUS_GENOBJ-NBEHI-BHF_13
 70
     0
  0
APPID
  2
GENIUS_GENOBJ-NBEHI-BHB_13
 70
     0
  0
APPID
  2
GENIUS_GENOBJ-F-PART_13
 70
     0
  0
APPID
  2
GENIUS_GEFSTDP_13
 70
     0
  0
APPID
  2
GENIUS_GENOBJ-N-LEADER_13
 70
     0
  0
APPID
  2
GENIUS_GENOBJ-N-REV_13
 70
     0
  0
APPID
  2
GENIUS_GENDTOL_13
 70
     0
  0
APPID
  2
GENIUS_GENOBJ-N-REC_13
 70
     0
  0
APPID
  2
GENIUS_GENFIL_13
 70
     0
  0
APPID
  2
GENIUS_GENOBJ-N-CHA_13
 70
     0
  0
APPID
  2
GENIUS_GENOBJ-N-SEC_13
 70
     0
  0
APPID
  2
GENIUS_GENOBJ-N-CEN_13
 70
     0
  0
APPID
  2
GENIUS_GENOBJ-F-EDG_13
 70
     0
  0
APPID
  2
ACAD_MLEADERVER
 70
     0
  0
APPID
  2
ACAD_NAV_VCDISPLAY
 70
     0
  0
APPID
  2
ACAD_EXEMPT_FROM_CAD_STANDARDS
 70
     0
  0
ENDTAB
  0
TABLE
  2
DIMSTYLE
 70
     1
  0
DIMSTYLE
  2
STANDARD
 70
     0
  3

  4

  5

  6

  7

 40
1.0
 41
0.18
 42
0.0625
 43
0.38
 44
0.18
 45
0.0
 46
0.0
 47
0.0
 48
0.0
140
0.18
141
0.09
142
0.0
143
25.399999999999999
144
1.0
145
0.0
146
1.0
147
0.09
 71
     0
 72
     0
 73
     1
 74
     1
 75
     0
 76
     0
 77
     0
 78
     0
170
     0
171
     2
172
     0
173
     0
174
     0
175
     0
176
     0
177
     0
178
     0
  0
ENDTAB
  0
ENDSEC
  0
SECTION
  2
BLOCKS
  0
BLOCK
  8
0
  2
$MODEL_SPACE
 70
     0
 10
0.0
 20
0.0
 30
0.0
  3
$MODEL_SPACE
  1

  0
ENDBLK
  5
15E7
  8
0
  0
BLOCK
 67
     1
  8
0
  2
$PAPER_SPACE
 70
     0
 10
0.0
 20
0.0
 30
0.0
  3
$PAPER_SPACE
  1

  0
ENDBLK
  5
15E5
 67
     1
  8
0
  0
ENDSEC
  0
SECTION
  2
ENTITIES
  0
LINE
  5
25E8
  8
3
 10
54.278988916980687
 20
38.991278064501621
 30
0.0
 11
53.878988939731848
 21
38.558279881719898
 31
0.0
  0
LINE
  5
25E9
  8
3
 10
67.711988823323836
 20
38.991279881719777
 30
0.0
 11
60.1298513699724
 21
38.991278933643123
 31
0.0
  0
LINE
  5
25EA
  8
1
 10
71.274578634347222
 20
41.058279881719898
 30
0.0
 11
41.339160883627677
 21
41.058279881719898
 31
0.0
  0
LINE
  5
25EB
  8
3
 10
54.27898891698063
 20
43.125281698938011
 30
0.0
 11
53.878988939731848
 21
43.558279881719898
 31
0.0
  0
LINE
  5
25ED
  8
3
 10
67.711988823323452
 20
43.125279881720132
 30
0.0
 11
60.129851369972371
 21
43.125280829796672
 31
0.0
  0
LINE
  5
25EE
  8
3
 10
54.278988939732031
 20
43.558279881719329
 30
0.0
 11
54.278988706915428
 21
38.558279881719898
 31
0.0
  0
POINT
  5
25EF
  8
0
 10
60.129851369972371
 20
45.677082035236708
 30
0.0
  0
POINT
  5
25F0
  8
0
 10
56.929851369972589
 20
45.677082035236708
 30
0.0
  0
POINT
  5
25F1
  8
0
 10
44.778988823323743
 20
34.808279881719898
 30
0.0
  0
POINT
  5
25F2
  8
0
 10
44.778988823323743
 20
47.308279881719898
 30
0.0
  0
POINT
  5
25F3
  8
0
 10
67.778988823323743
 20
43.05827988171977
 30
0.0
  0
POINT
  5
25F4
  8
0
 10
52.778988823323687
 20
47.308279881719898
 30
0.0
  0
POINT
  5
25F5
  8
0
 10
52.778988823323687
 20
47.308279881719898
 30
0.0
  0
POINT
  5
25F6
  8
0
 10
43.778988823323743
 20
46.308279881719848
 30
0.0
  0
POINT
  5
25F7
  8
0
 10
67.778988823323743
 20
43.05827988171977
 30
0.0
  0
POINT
  5
25F8
  8
0
 10
53.178988829144203
 20
43.558279881719898
 30
0.0
  0
LINE
  5
25FA
  8
2
 10
47.778988823323679
 20
43.808279881719891
 30
0.0
 11
43.778988823323743
 21
43.808279881719891
 31
0.0
  0
LINE
  5
25FD
  8
2
 10
47.778988823323679
 20
36.808279881719791
 30
0.0
 11
47.778988823323679
 21
41.058279881719898
 31
0.0
  0
LINE
  5
25FE
  8
2
 10
47.778988823323679
 20
41.058279881719898
 30
0.0
 11
47.778988823323679
 21
45.308279881719841
 31
0.0
  0
LINE
  5
25FF
  8
2
 10
50.278988823323687
 20
43.367680958478402
 30
0.0
 11
47.778988823323679
 21
43.367680958478402
 31
0.0
  0
LINE
  5
2600
  8
2
 10
50.278988823323687
 20
38.74887880496118
 30
0.0
 11
47.778988823323679
 21
38.74887880496118
 31
0.0
  0
LINE
  5
2601
  8
2
 10
50.278988823323687
 20
39.903579343340368
 30
0.0
 11
50.278988823323687
 21
42.212980420098859
 31
0.0
  0
LINE
  5
2602
  8
2
 10
50.278988823323687
 20
38.74887880496118
 30
0.0
 11
50.278988823323687
 21
39.903579343340368
 31
0.0
  0
LINE
  5
2603
  8
2
 10
50.278988823323687
 20
43.367680958478402
 30
0.0
 11
50.278988823323687
 21
42.212980420098859
 31
0.0
  0
LINE
  5
2604
  8
2
 10
50.278988823323687
 20
42.212980420098859
 30
0.0
 11
47.778988823323679
 21
42.212980420098859
 31
0.0
  0
LINE
  5
2605
  8
2
 10
50.278988823323687
 20
39.903579343340368
 30
0.0
 11
47.778988823323679
 21
39.903579343340368
 31
0.0
  0
LINE
  5
2606
  8
2
 10
47.778988823323679
 20
36.808279881719791
 30
0.0
 11
47.778988823323679
 21
41.058279881719898
 31
0.0
  0
LINE
  5
2607
  8
2
 10
47.778988823323679
 20
41.058279881719898
 30
0.0
 11
47.778988823323679
 21
45.308279881719841
 31
0.0
  0
LINE
  5
2608
  8
0
 10
52.778988823323687
 20
34.808279881719898
 30
0.0
 11
52.778988823323687
 21
41.058279881719898
 31
0.0
  0
LINE
  5
2609
  8
0
 10
52.778988823323687
 20
41.058279881719898
 30
0.0
 11
52.778988823323687
 21
47.308279881719898
 31
0.0
  0
LINE
  5
260A
  8
0
 10
44.778988823323743
 20
47.308279881719898
 30
0.0
 11
44.778988823323743
 21
34.808279881719898
 31
0.0
  0
LINE
  5
260B
  8
0
 10
43.778988823323743
 20
35.808279881719898
 30
0.0
 11
43.778988823323743
 21
46.308279881719848
 31
0.0
  0
LINE
  5
260C
  8
0
 10
67.778988823323743
 20
43.05827988171977
 30
0.0
 11
67.778988823323743
 21
39.058279881719777
 31
0.0
  0
LINE
  5
260D
  8
0
 10
67.278988823323857
 20
38.558279881719898
 30
0.0
 11
67.278988823323857
 21
43.558279881719898
 31
0.0
  0
LINE
  5
260E
  8
0
 10
56.929851369972027
 20
38.74887880496118
 30
0.0
 11
56.929851369972027
 21
43.367680958478402
 31
0.0
  0
LINE
  5
260F
  8
0
 10
60.129851369972371
 20
43.367680958478402
 30
0.0
 11
60.129851369972371
 21
38.74887880496118
 31
0.0
  0
LINE
  5
2610
  8
0
 10
56.929851369972027
 20
38.74887880496118
 30
0.0
 11
60.129851369972371
 21
38.74887880496118
 31
0.0
  0
LINE
  5
2611
  8
0
 10
56.929851369972027
 20
36.439477728203151
 30
0.0
 11
56.929851369972027
 21
38.74887880496118
 31
0.0
  0
LINE
  5
2612
  8
0
 10
56.929851369972027
 20
36.439477728203151
 30
0.0
 11
60.129851369972371
 21
36.439477728203151
 31
0.0
  0
LINE
  5
2613
  8
0
 10
60.129851369972371
 20
38.74887880496118
 30
0.0
 11
60.129851369972371
 21
36.439477728203151
 31
0.0
  0
LINE
  5
2614
  8
0
 10
56.929851369972027
 20
43.367680958478402
 30
0.0
 11
56.929851369972027
 21
45.677082035236708
 31
0.0
  0
LINE
  5
2615
  8
0
 10
56.929851369972027
 20
43.367680958478402
 30
0.0
 11
60.129851369972371
 21
43.367680958478402
 31
0.0
  0
LINE
  5
2616
  8
0
 10
60.129851369972371
 20
43.367680958478402
 30
0.0
 11
60.129851369972371
 21
45.677082035236708
 31
0.0
  0
LINE
  5
2617
  8
0
 10
56.929851369972027
 20
45.677082035236708
 30
0.0
 11
60.129851369972371
 21
45.677082035236708
 31
0.0
  0
POINT
  5
2618
  8
0
 10
53.178988829144203
 20
43.558279881719898
 30
0.0
  0
CIRCLE
  5
2619
  8
0
 10
15.50476811207295
 20
41.058279881719898
 30
0.0
 40
6.25
  0
CIRCLE
  5
261A
  8
0
 10
15.50476811207295
 20
41.058279881719898
 30
0.0
 40
5.25
  0
LINE
  5
261B
  8
0
 10
15.50476811207295
 20
43.367680958478402
 30
0.0
 11
13.50476811207306
 21
42.212980420098859
 31
0.0
  0
LINE
  5
261C
  8
0
 10
17.504768112073059
 20
42.212980420098859
 30
0.0
 11
15.50476811207295
 21
43.367680958478402
 31
0.0
  0
LINE
  5
261D
  8
0
 10
17.504768112073059
 20
39.903579343340368
 30
0.0
 11
17.504768112073059
 21
42.212980420098859
 31
0.0
  0
LINE
  5
261E
  8
0
 10
15.50476811207295
 20
38.74887880496118
 30
0.0
 11
17.504768112073059
 21
39.903579343340368
 31
0.0
  0
LINE
  5
261F
  8
0
 10
13.50476811207306
 20
39.903579343340368
 30
0.0
 11
15.50476811207295
 21
38.74887880496118
 31
0.0
  0
LINE
  5
2620
  8
0
 10
13.50476811207306
 20
42.212980420098859
 30
0.0
 11
13.50476811207306
 21
39.903579343340368
 31
0.0
  0
LINE
  5
2621
  8
1
 10
15.50476811207295
 20
32.308279881719898
 30
0.0
 11
15.50476811207295
 21
49.808279881719898
 31
0.0
  0
LINE
  5
2622
  8
1
 10
6.7547681120729521
 20
41.058279881719898
 30
0.0
 11
24.254768112072949
 21
41.058279881719898
 31
0.0
  0
LINE
  5
2623
  8
0
 10
43.778988823323743
 20
46.308279881719848
 30
0.0
 11
44.778988823323743
 21
47.308279881719898
 31
0.0
  0
LINE
  5
2624
  8
0
 10
44.778988823323743
 20
47.308279881719898
 30
0.0
 11
52.778988823323687
 21
47.308279881719898
 31
0.0
  0
LINE
  5
2625
  8
0
 10
43.778988823323743
 20
35.808279881719898
 30
0.0
 11
44.778988823323743
 21
34.808279881719898
 31
0.0
  0
LINE
  5
2626
  8
0
 10
44.778988823323743
 20
34.808279881719898
 30
0.0
 11
52.778988823323687
 21
34.808279881719898
 31
0.0
  0
LINE
  5
2627
  8
2
 10
47.778988823323679
 20
45.308279881719841
 30
0.0
 11
52.778988823323687
 21
45.308279881719841
 31
0.0
  0
LINE
  5
2628
  8
2
 10
47.778988823323679
 20
36.808279881719791
 30
0.0
 11
52.778988823323687
 21
36.808279881719791
 31
0.0
  0
LINE
  5
2629
  8
0
 10
67.278988823323857
 20
43.558279881720068
 30
0.0
 11
60.1298513699723
 21
43.558279881720068
 31
0.0
  0
LINE
  5
262A
  8
0
 10
56.929851369972027
 20
43.558279881719947
 30
0.0
 11
52.778988823323687
 21
43.558279881719898
 31
0.0
  0
LINE
  5
262B
  8
0
 10
56.929851369972077
 20
38.558279881720132
 30
0.0
 11
52.778988823323687
 21
38.558279881720132
 31
0.0
  0
LINE
  5
262C
  8
0
 10
60.129851369972371
 20
38.558279881720068
 30
0.0
 11
67.278988823323857
 21
38.558279881720132
 31
0.0
  0
LINE
  5
262F
  8
0
 10
67.278988823323857
 20
43.558279881719898
 30
0.0
 11
67.778988823323743
 21
43.05827988171977
 31
0.0
  0
LINE
  5
2630
  8
0
 10
67.778988823323743
 20
39.058279881719777
 30
0.0
 11
67.278988823323857
 21
38.558279881719898
 31
0.0
  0
POINT
  5
2631
  8
0
 10
53.178988829144203
 20
43.558279881719898
 30
0.0
  0
POINT
  5
2632
  8
0
 10
53.178988829144203
 20
43.558279881719898
 30
0.0
  0
POINT
  5
2633
  8
0
 10
56.929851369972589
 20
45.677082035236708
 30
0.0
  0
POINT
  5
2634
  8
0
 10
60.129851369972371
 20
45.677082035236708
 30
0.0
  0
LINE
  5
266D
  8
3
 10
56.929851369972077
 20
38.991278533512506
 30
0.0
 11
54.278988727077291
 21
38.991278202046473
 31
0.0
  0
LINE
  5
266E
  8
3
 10
56.929851369971971
 20
43.125281229927147
 30
0.0
 11
54.27898891957021
 21
43.125281561393102
 31
0.0
  0
TEXT
  5
29FF
  8
0
 62
     3
 10
0.0
 20
0.0
 30
0.0
 40
10.0
  1
UB5X15
  7
STANDARD1
  0
CIRCLE
  5
2AF9
  8
0
 10
15.50476811207295
 20
41.058279881719898
 30
0.0
 40
2.75
  0
LINE
  5
2AFB
  8
2
 10
47.778988823323679
 20
38.308279881719898
 30
0.0
 11
43.778988823323743
 21
38.308279881719898
 31
0.0
  0
ENDSEC
  0
EOF
