  0
SECTION
  2
HEADER
  9
$ACADVER
  1
AC1009
  9
$INSBASE
 10
0.0
 20
0.0
 30
0.0
  9
$EXTMIN
 10
0.0
 20
-1.4802182810368341
 30
0.0
  9
$EXTMAX
 10
169.0
 20
99.0
 30
0.0
  9
$LIMMIN
 10
0.0
 20
0.0
  9
$LIMMAX
 10
187.5
 20
135.0
  9
$ORTHOMODE
 70
     1
  9
$REGENMODE
 70
     1
  9
$FILLMODE
 70
     1
  9
$QTEXTMODE
 70
     0
  9
$MIRRTEXT
 70
     0
  9
$DRAGMODE
 70
     2
  9
$LTSCALE
 40
5.0
  9
$OSMODE
 70
    37
  9
$ATTMODE
 70
     1
  9
$TEXTSIZE
 40
4.0
  9
$TRACEWID
 40
0.05
  9
$TEXTSTYLE
  7
STANDARD
  9
$CLAYER
  8
0
  9
$CELTYPE
  6
BYLAYER
  9
$CECOLOR
 62
   256
  9
$DIMSCALE
 40
0.5
  9
$DIMASZ
 40
3.0
  9
$DIMEXO
 40
2.0
  9
$DIMDLI
 40
0.38
  9
$DIMRND
 40
0.0
  9
$DIMDLE
 40
0.0
  9
$DIMEXE
 40
2.0
  9
$DIMTP
 40
0.0
  9
$DIMTM
 40
0.0
  9
$DIMTXT
 40
3.0
  9
$DIMCEN
 40
0.0
  9
$DIMTSZ
 40
0.0
  9
$DIMTOL
 70
     0
  9
$DIMLIM
 70
     0
  9
$DIMTIH
 70
     0
  9
$DIMTOH
 70
     0
  9
$DIMSE1
 70
     0
  9
$DIMSE2
 70
     0
  9
$DIMTAD
 70
     1
  9
$DIMZIN
 70
     0
  9
$DIMBLK
  1

  9
$DIMASO
 70
     0
  9
$DIMSHO
 70
     0
  9
$DIMPOST
  1

  9
$DIMAPOST
  1

  9
$DIMALT
 70
     0
  9
$DIMALTD
 70
     2
  9
$DIMALTF
 40
25.399999999999999
  9
$DIMLFAC
 40
1.0
  9
$DIMTOFL
 70
     0
  9
$DIMTVP
 40
1.6000000000000001
  9
$DIMTIX
 70
     1
  9
$DIMSOXD
 70
     0
  9
$DIMSAH
 70
     0
  9
$DIMBLK1
  1

  9
$DIMBLK2
  1

  9
$DIMSTYLE
  2
STANDARD
  9
$DIMCLRD
 70
     0
  9
$DIMCLRE
 70
     0
  9
$DIMCLRT
 70
     0
  9
$DIMTFAC
 40
1.0
  9
$DIMGAP
 40
0.09
  9
$LUNITS
 70
     2
  9
$LUPREC
 70
     4
  9
$SKETCHINC
 40
0.1
  9
$FILLETRAD
 40
1.0
  9
$AUNITS
 70
     0
  9
$AUPREC
 70
     0
  9
$MENU
  1
E:\r13\win\SUPPORT\ACAD
  9
$ELEVATION
 40
0.0
  9
$PELEVATION
 40
0.0
  9
$THICKNESS
 40
0.0
  9
$LIMCHECK
 70
     0
  9
$BLIPMODE
 70
     0
  9
$CHAMFERA
 40
0.0
  9
$CHAMFERB
 40
0.0
  9
$SKPOLY
 70
     0
  9
$TDCREATE
 40
2449840.6143865739
  9
$TDUPDATE
 40
2457161.6413449878
  9
$TDINDWG
 40
0.267412581
  9
$TDUSRTIMER
 40
0.267412581
  9
$USRTIMER
 70
     1
  9
$ANGBASE
 50
0.0
  9
$ANGDIR
 70
     0
  9
$PDMODE
 70
     0
  9
$PDSIZE
 40
0.0
  9
$PLINEWID
 40
0.0
  9
$COORDS
 70
     1
  9
$SPLFRAME
 70
     0
  9
$SPLINETYPE
 70
     6
  9
$SPLINESEGS
 70
     8
  9
$ATTDIA
 70
     0
  9
$ATTREQ
 70
     1
  9
$HANDLING
 70
     1
  9
$HANDSEED
  5
1D9E
  9
$SURFTAB1
 70
     6
  9
$SURFTAB2
 70
     6
  9
$SURFTYPE
 70
     6
  9
$SURFU
 70
     6
  9
$SURFV
 70
     6
  9
$UCSNAME
  2

  9
$UCSORG
 10
0.0
 20
0.0
 30
0.0
  9
$UCSXDIR
 10
1.0
 20
0.0
 30
0.0
  9
$UCSYDIR
 10
0.0
 20
1.0
 30
0.0
  9
$PUCSNAME
  2

  9
$PUCSORG
 10
0.0
 20
0.0
 30
0.0
  9
$PUCSXDIR
 10
1.0
 20
0.0
 30
0.0
  9
$PUCSYDIR
 10
0.0
 20
1.0
 30
0.0
  9
$USERI1
 70
     0
  9
$USERI2
 70
     1
  9
$USERI3
 70
     1
  9
$USERI4
 70
     0
  9
$USERI5
 70
     0
  9
$USERR1
 40
0.0
  9
$USERR2
 40
0.0
  9
$USERR3
 40
0.0
  9
$USERR4
 40
0.0
  9
$USERR5
 40
0.0
  9
$WORLDVIEW
 70
     1
  9
$SHADEDGE
 70
     3
  9
$SHADEDIF
 70
    70
  9
$TILEMODE
 70
     1
  9
$MAXACTVP
 70
    16
  9
$PLIMCHECK
 70
     0
  9
$PEXTMIN
 10
1.0000000000000000E+020
 20
1.0000000000000000E+020
 30
1.0000000000000000E+020
  9
$PEXTMAX
 10
-1.0000000000000000E+020
 20
-1.0000000000000000E+020
 30
-1.0000000000000000E+020
  9
$PLIMMIN
 10
0.0
 20
0.0
  9
$PLIMMAX
 10
12.0
 20
9.0
  9
$UNITMODE
 70
     0
  9
$VISRETAIN
 70
     0
  9
$PLINEGEN
 70
     0
  9
$PSLTSCALE
 70
     0
  0
ENDSEC
  0
SECTION
  2
TABLES
  0
TABLE
  2
VPORT
 70
     1
  0
VPORT
  2
*ACTIVE
 70
     0
 10
0.0
 20
0.0
 11
1.0
 21
1.0
 12
85.277349793155565
 22
48.758263045260293
 13
0.0
 23
0.0
 14
5.0
 24
5.0
 15
5.0
 25
5.0
 16
0.0
 26
0.0
 36
1.0
 17
0.0
 27
0.0
 37
0.0
 40
125.38502951010339
 41
1.368715083798882
 42
50.0
 43
0.0
 44
0.0
 50
0.0
 51
0.0
 71
     0
 72
   100
 73
     1
 74
     0
 75
     0
 76
     0
 77
     0
 78
     0
  0
ENDTAB
  0
TABLE
  2
LTYPE
 70
     4
  0
LTYPE
  2
CONTINUOUS
 70
     0
  3
Solid Line
 72
    65
 73
     0
 40
0.0
  0
LTYPE
  2
CENTER
 70
     0
  3
____ _ ____ _ ____ _ ____ _ ____ _ ____ _ ____
 72
    65
 73
     4
 40
2.0
 49
1.25
 49
-0.25
 49
0.25
 49
-0.25
  0
LTYPE
  2
HIDDEN
 70
     0
  3
_ _ _ _ _ _ _ _ _ _ _ _ _ _ _ _ _ _ _ _ _ _ _
 72
    65
 73
     2
 40
0.375
 49
0.25
 49
-0.125
  0
LTYPE
  2
PHANTOM2
 70
     0
  3
___ _ _ ___ _ _ ___ _ _ ___ _ _
 72
    65
 73
     6
 40
1.25
 49
0.625
 49
-0.125
 49
0.125
 49
-0.125
 49
0.125
 49
-0.125
  0
ENDTAB
  0
TABLE
  2
LAYER
 70
     4
  0
LAYER
  2
0
 70
     0
 62
     7
  6
CONTINUOUS
  0
LAYER
  2
1
 70
     0
 62
     1
  6
CENTER
  0
LAYER
  2
3
 70
     0
 62
     3
  6
CONTINUOUS
  0
LAYER
  2
2
 70
     0
 62
     2
  6
HIDDEN
  0
ENDTAB
  0
TABLE
  2
STYLE
 70
     2
  0
STYLE
  2
STANDARD
 70
     0
 40
0.0
 41
1.0
 50
0.0
 71
     0
 42
4.0
  3
TXT
  4
BIGFONT
  0
STYLE
  2
STANDARD1
 70
     0
 40
0.0
 41
1.0
 50
0.0
 71
     0
 42
3.0
  3
txt
  4

  0
ENDTAB
  0
TABLE
  2
VIEW
 70
     1
  0
VIEW
  2
ALL
 70
     0
 40
179.66152299999999
 10
141.903918
 20
89.830760999999995
 41
0.0
 11
0.0
 21
0.0
 31
1.0
 12
0.0
 22
0.0
 32
0.0
 42
0.0
 43
0.0
 44
0.0
 50
0.0
 71
     0
  0
ENDTAB
  0
TABLE
  2
UCS
 70
     0
  0
ENDTAB
  0
TABLE
  2
APPID
 70
     5
  0
APPID
  2
ACAD
 70
     0
  0
APPID
  2
DCO15
 70
     0
  0
APPID
  2
ACAD_MLEADERVER
 70
     0
  0
APPID
  2
ACAD_EXEMPT_FROM_CAD_STANDARDS
 70
     0
  0
APPID
  2
ACAD_NAV_VCDISPLAY
 70
     0
  0
ENDTAB
  0
TABLE
  2
DIMSTYLE
 70
     2
  0
DIMSTYLE
  2
STANDARD
 70
     0
  3

  4

  5

  6

  7

 40
1.0
 41
0.18
 42
0.0625
 43
0.38
 44
0.18
 45
0.0
 46
0.0
 47
0.0
 48
0.0
140
0.18
141
0.09
142
0.0
143
25.399999999999999
144
1.0
145
0.0
146
1.0
147
0.09
 71
     0
 72
     0
 73
     1
 74
     1
 75
     0
 76
     0
 77
     0
 78
     0
170
     0
171
     2
172
     0
173
     0
174
     0
175
     0
176
     0
177
     0
178
     0
  0
DIMSTYLE
  2
ISO-25
 70
     0
  3

  4

  5

  6

  7

 40
1.0
 41
2.5
 42
0.625
 43
3.75
 44
1.25
 45
0.0
 46
0.0
 47
0.0
 48
0.0
140
2.5
141
2.5
142
0.0
143
0.0393700787
144
1.0
145
0.0
146
1.0
147
0.625
 71
     0
 72
     0
 73
     0
 74
     0
 75
     0
 76
     0
 77
     1
 78
     8
170
     0
171
     3
172
     1
173
     0
174
     0
175
     0
176
     0
177
     0
178
     0
  0
ENDTAB
  0
ENDSEC
  0
SECTION
  2
BLOCKS
  0
BLOCK
  8
0
  2
$MODEL_SPACE
 70
     0
 10
0.0
 20
0.0
 30
0.0
  3
$MODEL_SPACE
  1

  0
ENDBLK
  5
1BD
  8
0
  0
BLOCK
 67
     1
  8
0
  2
$PAPER_SPACE
 70
     0
 10
0.0
 20
0.0
 30
0.0
  3
$PAPER_SPACE
  1

  0
ENDBLK
  5
1BB
 67
     1
  8
0
  0
BLOCK
  8
0
  2
SW_CENTERMARKSYMBOL_0
 70
     0
 10
0.0
 20
0.0
 30
0.0
  3
SW_CENTERMARKSYMBOL_0
  1

  0
LINE
  5
1A31
  8
0
  6
CONTINUOUS
 62
     0
 10
0.0
 20
0.0
 30
0.0
 11
0.0
 21
2.0
 31
0.0
  0
LINE
  5
1A32
  8
0
  6
CONTINUOUS
 62
     0
 10
0.0
 20
0.0
 30
0.0
 11
-2.0
 21
0.0
 31
0.0
  0
LINE
  5
1A33
  8
0
  6
CONTINUOUS
 62
     0
 10
0.0
 20
0.0
 30
0.0
 11
0.0
 21
-2.0
 31
0.0
  0
LINE
  5
1A34
  8
0
  6
CONTINUOUS
 62
     0
 10
0.0
 20
0.0
 30
0.0
 11
2.0
 21
0.0
 31
0.0
  0
LINE
  5
1A35
  8
0
  6
CONTINUOUS
 62
     0
 10
0.0
 20
4.0
 30
0.0
 11
0.0
 21
16.0
 31
0.0
  0
LINE
  5
1A36
  8
0
  6
CONTINUOUS
 62
     0
 10
-4.0
 20
0.0
 30
0.0
 11
-16.0
 21
0.0
 31
0.0
  0
LINE
  5
1A37
  8
0
  6
CONTINUOUS
 62
     0
 10
0.0
 20
-4.0
 30
0.0
 11
0.0
 21
-16.0
 31
0.0
  0
LINE
  5
1A38
  8
0
  6
CONTINUOUS
 62
     0
 10
4.0
 20
0.0
 30
0.0
 11
16.0
 21
0.0
 31
0.0
  0
ENDBLK
  5
1A39
  8
0
  0
BLOCK
  8
0
  2
SW_CENTERMARKSYMBOL_1
 70
     0
 10
0.0
 20
0.0
 30
0.0
  3
SW_CENTERMARKSYMBOL_1
  1

  0
LINE
  5
1A3C
  8
0
  6
CONTINUOUS
 62
     0
 10
0.0
 20
0.0
 30
0.0
 11
0.0
 21
2.0
 31
0.0
  0
LINE
  5
1A3D
  8
0
  6
CONTINUOUS
 62
     0
 10
0.0
 20
0.0
 30
0.0
 11
-2.0
 21
0.0
 31
0.0
  0
LINE
  5
1A3E
  8
0
  6
CONTINUOUS
 62
     0
 10
0.0
 20
0.0
 30
0.0
 11
0.0
 21
-2.0
 31
0.0
  0
LINE
  5
1A3F
  8
0
  6
CONTINUOUS
 62
     0
 10
0.0
 20
0.0
 30
0.0
 11
2.0
 21
0.0
 31
0.0
  0
LINE
  5
1A40
  8
0
  6
CONTINUOUS
 62
     0
 10
0.0
 20
4.0
 30
0.0
 11
0.0
 21
16.0
 31
0.0
  0
LINE
  5
1A41
  8
0
  6
CONTINUOUS
 62
     0
 10
-4.0
 20
0.0
 30
0.0
 11
-16.0
 21
0.0
 31
0.0
  0
LINE
  5
1A42
  8
0
  6
CONTINUOUS
 62
     0
 10
0.0
 20
-4.0
 30
0.0
 11
0.0
 21
-16.0
 31
0.0
  0
LINE
  5
1A43
  8
0
  6
CONTINUOUS
 62
     0
 10
4.0
 20
0.0
 30
0.0
 11
16.0
 21
0.0
 31
0.0
  0
ENDBLK
  5
1A44
  8
0
  0
ENDSEC
  0
SECTION
  2
ENTITIES
  0
TEXT
  5
1641
  8
0
 62
     3
 10
0.0
 20
0.0
 30
0.0
 40
5.0
  1
TWDXN10-6A-SUS
  7
STANDARD1
  0
ARC
  5
17D2
  8
0
 10
112.00966206235
 20
17.985506906502231
 30
0.0
 40
2.0000000000000071
 50
276.90185434710088
 51
330.47828070479977
  0
ARC
  5
17D3
  8
0
 10
112.00966206238991
 20
42.014493093511369
 30
0.0
 40
2.0000000000000071
 50
29.521719295200221
 51
83.098145652898964
  0
LINE
  5
17D4
  8
0
 10
111.88428083135
 20
44.000000000002252
 30
0.0
 11
105.05000000005001
 21
38.850000000002233
 31
0.0
  0
LINE
  5
17D5
  8
0
 10
105.05000000005001
 20
21.15000000000224
 30
0.0
 11
111.88428083135
 21
16.000000000002231
 31
0.0
  0
LINE
  5
17D6
  8
0
 10
112.25000000009
 20
44.000000000011383
 30
0.0
 11
111.8842808313899
 21
44.000000000011383
 31
0.0
  0
LINE
  5
17D7
  8
0
 10
111.88428083135
 20
16.000000000002231
 30
0.0
 11
112.25000000004999
 21
16.000000000002231
 31
0.0
  0
LINE
  5
17D8
  8
0
 10
92.250000000049937
 20
38.850000000002247
 30
0.0
 11
91.750000000049951
 21
38.350000000002261
 31
0.0
  0
LINE
  5
17D9
  8
0
 10
91.750000000049951
 20
21.650000000002262
 30
0.0
 11
92.250000000049937
 21
21.150000000002269
 31
0.0
  0
LINE
  5
17DA
  8
0
 10
105.05000000005001
 20
38.850000000002233
 30
0.0
 11
92.250000000049937
 21
38.850000000002247
 31
0.0
  0
LINE
  5
17DB
  8
0
 10
92.250000000049937
 20
21.150000000002269
 30
0.0
 11
105.05000000005001
 21
21.15000000000224
 31
0.0
  0
LINE
  5
17DC
  8
0
 10
78.750000000049951
 20
35.00000000000226
 30
0.0
 11
73.750000000049951
 21
35.00000000000226
 31
0.0
  0
LINE
  5
17DD
  8
0
 10
73.750000000049951
 20
25.00000000000226
 30
0.0
 11
78.750000000049951
 21
25.00000000000226
 31
0.0
  0
LINE
  5
17E3
  8
0
 10
113.75000000004999
 20
17.000000000002231
 30
0.0
 11
113.75000000004999
 21
43.000000000002231
 31
0.0
  0
LINE
  5
17E4
  8
0
 10
112.25000000004999
 20
16.000000000002231
 30
0.0
 11
112.25000000004999
 21
44.000000000002252
 31
0.0
  0
LINE
  5
17E5
  8
0
 10
105.05000000005001
 20
21.15000000000224
 30
0.0
 11
105.05000000005001
 21
38.850000000002233
 31
0.0
  0
LINE
  5
17E6
  8
0
 10
111.88428083135
 20
16.000000000002231
 30
0.0
 11
111.88428083135
 21
44.000000000002252
 31
0.0
  0
ARC
  5
17E8
  8
0
 10
92.126708606149975
 20
25.94671078530228
 30
0.0
 40
13.378154890242159
 50
180.84250063210001
 51
199.41365736830059
  0
ARC
  5
17E9
  8
0
 10
92.108132208049994
 20
25.556607568602271
 30
0.0
 40
13.359532054697
 50
160.5732840111998
 51
179.17055798839991
  0
LINE
  5
17EA
  8
0
 10
79.509189378549976
 20
30.00000000000226
 30
0.0
 11
90.990810616649966
 21
30.00000001450228
 31
0.0
  0
ARC
  5
17EB
  8
0
 10
78.373291851449991
 20
25.55328924450227
 30
0.0
 40
13.37815443225767
 50
0.8425005334007423
 51
19.41365811489986
  0
ARC
  5
17EC
  8
0
 10
78.391867871149984
 20
25.943392421602269
 30
0.0
 40
13.35953197537517
 50
340.5732842772
 51
359.17055802570007
  0
ARC
  5
17ED
  8
0
 10
78.391867871149984
 20
34.443392421602269
 30
0.0
 40
13.35953197537396
 50
340.5732842772
 51
359.17055802570007
  0
ARC
  5
17EF
  8
0
 10
92.126708606149975
 20
34.446710785302272
 30
0.0
 40
13.378154890243311
 50
180.84250063210001
 51
199.41365736830059
  0
ARC
  5
17F0
  8
0
 10
92.108132208049994
 20
34.056607568602267
 30
0.0
 40
13.359532054697331
 50
160.5732840111998
 51
179.17055798839991
  0
ARC
  5
17F2
  8
0
 10
78.373292275249966
 20
34.053289280902263
 30
0.0
 40
13.37815400796574
 50
0.8425004040003635
 51
19.41365841939847
  0
LINE
  5
17F4
  8
0
 10
92.250000000049937
 20
38.850000000002247
 30
0.0
 11
92.250000000049937
 21
21.150000000002269
 31
0.0
  0
LINE
  5
17F5
  8
0
 10
73.750000000049951
 20
23.00000000000226
 30
0.0
 11
72.250000000049951
 21
23.00000000000226
 31
0.0
  0
LINE
  5
17F6
  8
0
 10
73.750000000049951
 20
30.00000000000226
 30
0.0
 11
72.250000000049951
 21
30.00000000000226
 31
0.0
  0
LINE
  5
17F7
  8
0
 10
73.750000000049951
 20
37.00000000000226
 30
0.0
 11
73.750000000049951
 21
23.00000000000226
 31
0.0
  0
LINE
  5
17F8
  8
0
 10
72.250000000049951
 20
37.00000000000226
 30
0.0
 11
72.250000000049951
 21
23.00000000000226
 31
0.0
  0
LINE
  5
17F9
  8
0
 10
73.750000000049951
 20
37.00000000000226
 30
0.0
 11
72.250000000049951
 21
37.00000000000226
 31
0.0
  0
LINE
  5
17FC
  8
0
 10
91.750000000049951
 20
38.50000000000226
 30
0.0
 11
78.750000000049951
 21
38.50000000000226
 31
0.0
  0
LINE
  5
17FF
  8
0
 10
91.750000000049951
 20
21.50000000000226
 30
0.0
 11
91.750000000049951
 21
38.50000000000226
 31
0.0
  0
LINE
  5
1801
  8
0
 10
78.750000000049951
 20
38.50000000000226
 30
0.0
 11
78.750000000049951
 21
21.50000000000226
 31
0.0
  0
CIRCLE
  5
1807
  8
0
 10
150.0003578875
 20
80.001598412999982
 30
0.0
 40
11.090178734119849
  0
CIRCLE
  5
1808
  8
0
 10
150.0
 20
79.999999999999972
 30
0.0
 40
13.00000000000003
  0
CIRCLE
  5
1809
  8
0
 10
150.0
 20
79.999999999999972
 30
0.0
 40
14.0
  0
LINE
  5
180C
  8
0
 10
37.0
 20
75.958548115600024
 30
0.0
 11
30.0
 21
71.917096231299979
 31
0.0
  0
LINE
  5
180D
  8
0
 10
30.0
 20
71.917096231299979
 30
0.0
 11
22.999999999999989
 21
75.958548115600024
 31
0.0
  0
LINE
  5
180E
  8
0
 10
22.999999999999989
 20
75.958548115600024
 30
0.0
 11
22.999999999999989
 21
84.041451884300045
 31
0.0
  0
LINE
  5
180F
  8
0
 10
22.999999999999989
 20
84.041451884300045
 30
0.0
 11
30.0
 21
88.082903768600033
 31
0.0
  0
LINE
  5
1810
  8
0
 10
30.0
 20
88.082903768600033
 30
0.0
 11
37.0
 21
84.041451884300045
 31
0.0
  0
LINE
  5
1811
  8
0
 10
37.0
 20
84.041451884300045
 30
0.0
 11
37.0
 21
75.958548115600024
 31
0.0
  0
ARC
  5
1824
  8
0
 10
30.0
 20
80.0
 30
0.0
 40
8.8500000000000085
 50
43.832539823558392
 51
76.167460176561306
  0
ARC
  5
1825
  8
0
 10
30.0
 20
80.0
 30
0.0
 40
8.8500000000000245
 50
343.83253982385492
 51
16.167460176145049
  0
ARC
  5
1826
  8
0
 10
30.0
 20
80.0
 30
0.0
 40
8.8500000000000085
 50
283.83253982495052
 51
316.16746017594141
  0
CIRCLE
  5
182A
  8
0
 10
30.0
 20
80.0
 30
0.0
 40
14.0
  0
ARC
  5
182B
  8
0
 10
112.00966206235
 20
67.985506906502266
 30
0.0
 40
2.0000000000000222
 50
276.90185434710088
 51
330.47828070480023
  0
ARC
  5
182C
  8
0
 10
112.00966206235
 20
92.014493093502253
 30
0.0
 40
2.0000000000000071
 50
29.521719295199759
 51
83.098145652899007
  0
LINE
  5
182D
  8
0
 10
111.88428083135
 20
94.000000000002245
 30
0.0
 11
105.05000000005001
 21
88.850000000002225
 31
0.0
  0
LINE
  5
182E
  8
0
 10
105.05000000005001
 20
71.150000000002237
 30
0.0
 11
111.88428083135
 21
66.000000000002203
 31
0.0
  0
LINE
  5
182F
  8
0
 10
112.25000000004999
 20
94.000000000002245
 30
0.0
 11
111.88428083135
 21
94.000000000002245
 31
0.0
  0
LINE
  5
1830
  8
0
 10
111.88428083135
 20
66.000000000002203
 30
0.0
 11
112.25000000004999
 21
66.000000000002203
 31
0.0
  0
LINE
  5
1831
  8
0
 10
92.250000000049994
 20
88.850000000002225
 30
0.0
 11
91.750000000049994
 21
88.350000000002225
 31
0.0
  0
LINE
  5
1832
  8
0
 10
91.750000000049994
 20
71.650000000002237
 30
0.0
 11
92.250000000049994
 21
71.150000000002237
 31
0.0
  0
LINE
  5
1833
  8
0
 10
105.05000000005001
 20
88.850000000002225
 30
0.0
 11
92.250000000049994
 21
88.850000000002225
 31
0.0
  0
LINE
  5
1834
  8
0
 10
92.250000000049994
 20
71.150000000002237
 30
0.0
 11
105.05000000005001
 21
71.150000000002237
 31
0.0
  0
LINE
  5
1835
  8
0
 10
78.750000000049994
 20
85.000000000002203
 30
0.0
 11
73.750000000049994
 21
85.000000000002203
 31
0.0
  0
LINE
  5
1836
  8
0
 10
73.750000000049994
 20
75.000000000002203
 30
0.0
 11
78.750000000049994
 21
75.000000000002203
 31
0.0
  0
LINE
  5
1837
  8
0
 10
90.990810625350008
 20
70.185045430402212
 30
0.0
 11
91.750000000049994
 21
71.500000000002203
 31
0.0
  0
LINE
  5
1838
  8
0
 10
78.750000000049994
 20
71.500000000002203
 30
0.0
 11
79.509189378550019
 21
70.185045423802237
 31
0.0
  0
LINE
  5
1839
  8
0
 10
91.750000000049994
 20
88.500000000002188
 30
0.0
 11
90.990810616650009
 21
89.814954584502217
 31
0.0
  0
LINE
  5
183A
  8
0
 10
79.509189378550019
 20
89.814954576202283
 30
0.0
 11
78.750000000049994
 21
88.500000000002188
 31
0.0
  0
LINE
  5
1840
  8
0
 10
113.75000000004999
 20
67.000000000002203
 30
0.0
 11
113.75000000004999
 21
93.00000000000226
 31
0.0
  0
LINE
  5
1841
  8
0
 10
112.25000000004999
 20
66.000000000002203
 30
0.0
 11
112.25000000004999
 21
94.000000000002245
 31
0.0
  0
LINE
  5
1842
  8
0
 10
105.05000000005001
 20
71.150000000002237
 30
0.0
 11
105.05000000005001
 21
88.850000000002225
 31
0.0
  0
LINE
  5
1843
  8
0
 10
111.88428083135
 20
66.000000000002203
 30
0.0
 11
111.88428083135
 21
94.000000000002245
 31
0.0
  0
LINE
  5
1844
  8
0
 10
92.250000000049994
 20
88.850000000002225
 30
0.0
 11
92.250000000049994
 21
71.150000000002237
 31
0.0
  0
LINE
  5
1845
  8
0
 10
90.990810625350008
 20
70.185045430402212
 30
0.0
 11
79.509189378550019
 21
70.185045423802237
 31
0.0
  0
ARC
  5
1846
  8
0
 10
83.681651611750027
 20
72.820326059102214
 30
0.0
 40
4.9349919062347709
 50
182.10819744809919
 51
212.2760500199995
  0
ARC
  5
1847
  8
0
 10
83.670780155650021
 20
72.460605716802235
 30
0.0
 40
4.9240049619504713
 50
147.68949064269901
 51
177.92626188930029
  0
LINE
  5
1848
  8
0
 10
90.990810616650009
 20
75.092522720202211
 30
0.0
 11
79.509189378550019
 21
75.092522711902276
 31
0.0
  0
ARC
  5
1849
  8
0
 10
86.81834844115005
 20
72.45724208730222
 30
0.0
 40
4.9349918529254211
 50
2.1081973459999599
 51
32.276050893298027
  0
ARC
  5
184A
  8
0
 10
86.829219859050013
 20
72.816962415702207
 30
0.0
 40
4.9240049471637164
 50
327.68949078319969
 51
357.9262619196989
  0
ARC
  5
184C
  8
0
 10
74.192888942350038
 20
80.203632390802269
 30
0.0
 40
17.558291911310999
 50
343.07654951779949
 51
359.33549697289908
  0
ARC
  5
184D
  8
0
 10
96.331960197350014
 20
80.207476561402231
 30
0.0
 40
17.583184322107641
 50
180.67608955089989
 51
196.91186422309869
  0
ARC
  5
184E
  8
0
 10
96.307111154850062
 20
79.796367598802235
 30
0.0
 40
17.558292008569961
 50
163.07654928340139
 51
179.3354969427009
  0
LINE
  5
184F
  8
0
 10
79.509189378550019
 20
84.907477288102257
 30
0.0
 11
90.990810616650009
 21
84.907477304802285
 31
0.0
  0
ARC
  5
1850
  8
0
 10
74.168041266450047
 20
79.792523582202236
 30
0.0
 40
17.583182856723571
 50
0.6760891390996818
 51
16.91186527680081
  0
ARC
  5
1852
  8
0
 10
83.681651611750027
 20
87.542757923402206
 30
0.0
 40
4.9349919062346412
 50
182.10819744809919
 51
212.2760500199995
  0
ARC
  5
1854
  8
0
 10
86.829219886850041
 20
87.539394274102207
 30
0.0
 40
4.9240049191467126
 50
327.68949104940162
 51
357.92626197730038
  0
ARC
  5
1856
  8
0
 10
83.670780155650021
 20
87.183037581102255
 30
0.0
 40
4.9240049619500956
 50
147.68949064269901
 51
177.92626188930029
  0
LINE
  5
1857
  8
0
 10
79.509189378550019
 20
89.814954576202283
 30
0.0
 11
90.990810616650009
 21
89.814954584502217
 31
0.0
  0
ARC
  5
1858
  8
0
 10
86.818349059850078
 20
87.179674073302223
 30
0.0
 40
4.934991230182324
 50
2.1081961989993281
 51
32.2760528972006
  0
LINE
  5
1859
  8
0
 10
73.750000000049994
 20
71.917096231302239
 30
0.0
 11
72.250000000049994
 21
71.917096231302239
 31
0.0
  0
LINE
  5
185A
  8
0
 10
73.750000000049994
 20
75.958548115702271
 30
0.0
 11
72.250000000049994
 21
75.958548115702271
 31
0.0
  0
LINE
  5
185B
  8
0
 10
72.250000000049994
 20
88.082903768602236
 30
0.0
 11
72.250000000049994
 21
71.917096231302239
 31
0.0
  0
LINE
  5
185C
  8
0
 10
73.750000000049994
 20
88.082903768602236
 30
0.0
 11
73.750000000049994
 21
71.917096231302239
 31
0.0
  0
LINE
  5
185D
  8
0
 10
73.750000000049994
 20
84.041451884302248
 30
0.0
 11
72.250000000049994
 21
84.041451884302248
 31
0.0
  0
LINE
  5
1860
  8
0
 10
73.750000000049994
 20
88.082903768602236
 30
0.0
 11
72.250000000049994
 21
88.082903768602236
 31
0.0
  0
LINE
  5
1863
  8
0
 10
91.750000000049994
 20
71.500000000002203
 30
0.0
 11
91.750000000049994
 21
88.500000000002188
 31
0.0
  0
LINE
  5
1864
  8
0
 10
78.750000000049994
 20
88.500000000002188
 30
0.0
 11
78.750000000049994
 21
71.500000000002203
 31
0.0
  0
ARC
  5
1869
  8
2
 10
132.75000000004991
 20
80.000000000002245
 30
0.0
 40
21.999999999999929
 50
149.73489947770179
 51
210.25887471910079
  0
ARC
  5
186A
  8
2
 10
132.75000000004999
 20
30.000000000002231
 30
0.0
 40
21.999999999999929
 50
149.73489947770179
 51
210.25887471910079
  0
LINE
  5
187F
  8
1
 10
11.0
 20
80.0
 30
0.0
 11
49.0
 21
80.0
 31
0.0
  0
LINE
  5
1880
  8
1
 10
30.0
 20
99.0
 30
0.0
 11
30.0
 21
61.0
 31
0.0
  0
LINE
  5
1881
  8
1
 10
61.249999999950013
 20
79.999999999993364
 30
0.0
 11
118.75000000004999
 21
80.000000000002217
 31
0.0
  0
LINE
  5
1882
  8
1
 10
131.0
 20
79.999999999999972
 30
0.0
 11
169.0
 21
79.999999999999972
 31
0.0
  0
LINE
  5
1883
  8
1
 10
150.0
 20
98.999999999999986
 30
0.0
 11
150.0
 21
60.999999999999972
 31
0.0
  0
LINE
  5
1884
  8
1
 10
61.249999999949956
 20
29.999999999993371
 30
0.0
 11
118.75000000004999
 21
30.00000000000222
 31
0.0
  0
LINE
  5
188A
  8
0
 10
30.0
 20
89.814954576200023
 30
0.0
 11
21.499999999999989
 21
84.907477288100054
 31
0.0
  0
LINE
  5
188B
  8
0
 10
21.499999999999989
 20
75.092522711900017
 30
0.0
 11
29.999999999999989
 21
70.185045423699989
 31
0.0
  0
LINE
  5
188D
  8
0
 10
21.499999999999989
 20
75.092522711900017
 30
0.0
 11
21.499999999999989
 21
84.907477288100054
 31
0.0
  0
LINE
  5
188E
  8
0
 10
30.0
 20
89.814954576200023
 30
0.0
 11
38.500000000000007
 21
84.907477288100054
 31
0.0
  0
LINE
  5
188F
  8
0
 10
38.500000000000007
 20
75.092522711900017
 30
0.0
 11
30.000000000000021
 21
70.185045423699989
 31
0.0
  0
LINE
  5
1890
  8
0
 10
38.500000000000007
 20
75.092522711900017
 30
0.0
 11
38.500000000000007
 21
84.907477288100054
 31
0.0
  0
ARC
  5
1891
  8
0
 10
30.0
 20
80.0
 30
0.0
 40
8.8500000000000085
 50
103.83253982343859
 51
136.16746017644161
  0
ARC
  5
1892
  8
0
 10
30.0
 20
80.0
 30
0.0
 40
8.8500000000000245
 50
163.832539823855
 51
196.1674601761452
  0
ARC
  5
1893
  8
0
 10
30.0
 20
80.0
 30
0.0
 40
8.8500000000000085
 50
223.8325398240587
 51
256.16746017504983
  0
CIRCLE
  5
189E
  8
0
 10
30.0
 20
80.0
 30
0.0
 40
8.4999999999846754
  0
LINE
  5
18FE
  8
0
 10
74.750000000050051
 20
85.00000000000216
 30
0.0
 11
74.750000000049937
 21
75.00000000000216
 31
0.0
  0
LINE
  5
18FF
  8
3
 10
74.750000000050036
 20
84.188000000002233
 30
0.0
 11
78.750000000049994
 21
84.188000000002305
 31
0.0
  0
LINE
  5
1900
  8
3
 10
74.750000000049937
 20
75.812000000002044
 30
0.0
 11
78.750000000049994
 21
75.812000000002129
 31
0.0
  0
LINE
  5
1907
  8
3
 10
74.750000000050036
 20
84.188000000002233
 30
0.0
 11
73.750000000049994
 21
85.000000000002203
 31
0.0
  0
LINE
  5
1908
  8
3
 10
74.750000000049951
 20
75.812000000002044
 30
0.0
 11
73.750000000049994
 21
75.000000000002203
 31
0.0
  0
LINE
  5
1909
  8
0
 10
74.750000000049994
 20
35.000000000045212
 30
0.0
 11
74.750000000049894
 21
25.000000000045208
 31
0.0
  0
LINE
  5
190A
  8
3
 10
74.750000000049994
 20
34.188000000045299
 30
0.0
 11
78.750000000049951
 21
34.188000000045371
 31
0.0
  0
LINE
  5
190B
  8
3
 10
74.750000000049894
 20
25.81200000004511
 30
0.0
 11
78.750000000049951
 21
25.812000000045181
 31
0.0
  0
LINE
  5
190C
  8
3
 10
74.750000000049994
 20
34.188000000045299
 30
0.0
 11
73.750000000049951
 21
35.000000000045262
 31
0.0
  0
LINE
  5
190D
  8
3
 10
74.750000000049909
 20
25.81200000004511
 30
0.0
 11
73.750000000049951
 21
25.000000000045262
 31
0.0
  0
LINE
  5
1A28
  8
0
 10
72.250000000049994
 20
82.99999999994364
 30
0.0
 11
68.050000000050005
 21
82.99999999994364
 31
0.0
  0
LINE
  5
1A29
  8
0
 10
68.050000000050005
 20
76.99999999994364
 30
0.0
 11
72.250000000049994
 21
76.99999999994364
 31
0.0
  0
LINE
  5
1A2A
  8
0
 10
68.050000000050005
 20
82.99999999994364
 30
0.0
 11
68.050000000050005
 21
76.99999999994364
 31
0.0
  0
LINE
  5
1A2B
  8
0
 10
66.668925394751739
 20
82.202636204911514
 30
0.0
 11
66.668925394751767
 21
77.797363795075825
 31
0.0
  0
ARC
  5
1A2C
  8
0
 10
72.249999999950006
 20
79.999999999993662
 30
0.0
 40
6.0
 50
158.46275075362141
 51
201.53724924638121
  0
LINE
  5
1A2D
  8
0
 10
68.049999999950003
 20
76.999999999993662
 30
0.0
 11
66.668925394752677
 21
77.797363795075313
 31
0.0
  0
LINE
  5
1A2E
  8
0
 10
68.049999999950003
 20
82.999999999993705
 30
0.0
 11
66.668925394752392
 21
82.202636204911897
 31
0.0
  0
LINE
  5
1BE6
  8
0
 10
72.250000000049951
 20
32.999999999993662
 30
0.0
 11
68.050000000049963
 21
32.999999999993662
 31
0.0
  0
LINE
  5
1BE7
  8
0
 10
68.050000000049963
 20
26.999999999993658
 30
0.0
 11
72.250000000049951
 21
26.999999999993658
 31
0.0
  0
LINE
  5
1BE8
  8
0
 10
68.050000000049963
 20
32.999999999993662
 30
0.0
 11
68.050000000049963
 21
26.999999999993658
 31
0.0
  0
LINE
  5
1BE9
  8
0
 10
66.668925394751696
 20
32.202636204961522
 30
0.0
 11
66.668925394751724
 21
27.79736379512585
 31
0.0
  0
ARC
  5
1BEA
  8
0
 10
72.249999999949964
 20
30.000000000043681
 30
0.0
 40
6.0
 50
158.46275075362141
 51
201.53724924638121
  0
LINE
  5
1BEB
  8
0
 10
68.049999999949975
 20
27.000000000043691
 30
0.0
 11
66.668925394752634
 21
27.797363795125339
 31
0.0
  0
LINE
  5
1BEC
  8
0
 10
68.049999999949975
 20
33.000000000043741
 30
0.0
 11
66.668925394752335
 21
32.202636204961919
 31
0.0
  0
CIRCLE
  5
1BED
  8
0
 10
30.0
 20
79.999999999949225
 30
0.0
 40
3.0
  0
CIRCLE
  5
1BEE
  8
0
 10
30.0
 20
79.999999999949225
 30
0.0
 40
2.202636204917837
  0
LINE
  5
1CC7
  8
0
 10
78.750000000049951
 20
21.50000000000226
 30
0.0
 11
91.750000000049951
 21
21.50000000000226
 31
0.0
  0
ENDSEC
  0
EOF
