  0
SECTION
  2
HEADER
  9
$ACADVER
  1
AC1009
  9
$INSBASE
 10
0.0
 20
0.0
 30
0.0
  9
$EXTMIN
 10
0.0
 20
-1.4802182810368341
 30
0.0
  9
$EXTMAX
 10
42.68417462482946
 20
44.70000000000001
 30
0.0
  9
$LIMMIN
 10
0.0
 20
0.0
  9
$LIMMAX
 10
187.5
 20
135.0
  9
$ORTHOMODE
 70
     1
  9
$REGENMODE
 70
     1
  9
$FILLMODE
 70
     1
  9
$QTEXTMODE
 70
     0
  9
$MIRRTEXT
 70
     0
  9
$DRAGMODE
 70
     2
  9
$LTSCALE
 40
5.0
  9
$OSMODE
 70
    37
  9
$ATTMODE
 70
     1
  9
$TEXTSIZE
 40
1.6000000000000001
  9
$TRACEWID
 40
0.05
  9
$TEXTSTYLE
  7
STANDARD
  9
$CLAYER
  8
0
  9
$CELTYPE
  6
BYLAYER
  9
$CECOLOR
 62
   256
  9
$DIMSCALE
 40
0.5
  9
$DIMASZ
 40
3.0
  9
$DIMEXO
 40
2.0
  9
$DIMDLI
 40
10.0
  9
$DIMRND
 40
0.0
  9
$DIMDLE
 40
0.0
  9
$DIMEXE
 40
2.0
  9
$DIMTP
 40
0.0
  9
$DIMTM
 40
0.0
  9
$DIMTXT
 40
3.2000000000000002
  9
$DIMCEN
 40
0.09
  9
$DIMTSZ
 40
0.0
  9
$DIMTOL
 70
     0
  9
$DIMLIM
 70
     0
  9
$DIMTIH
 70
     0
  9
$DIMTOH
 70
     0
  9
$DIMSE1
 70
     0
  9
$DIMSE2
 70
     0
  9
$DIMTAD
 70
     1
  9
$DIMZIN
 70
     8
  9
$DIMBLK
  1

  9
$DIMASO
 70
     0
  9
$DIMSHO
 70
     0
  9
$DIMPOST
  1

  9
$DIMAPOST
  1

  9
$DIMALT
 70
     0
  9
$DIMALTD
 70
     2
  9
$DIMALTF
 40
25.399999999999999
  9
$DIMLFAC
 40
1.0
  9
$DIMTOFL
 70
     1
  9
$DIMTVP
 40
1.6000000000000001
  9
$DIMTIX
 70
     1
  9
$DIMSOXD
 70
     0
  9
$DIMSAH
 70
     0
  9
$DIMBLK1
  1

  9
$DIMBLK2
  1

  9
$DIMSTYLE
  2
STANDARD
  9
$DIMCLRD
 70
     0
  9
$DIMCLRE
 70
     0
  9
$DIMCLRT
 70
     0
  9
$DIMTFAC
 40
1.0
  9
$DIMGAP
 40
0.09
  9
$LUNITS
 70
     2
  9
$LUPREC
 70
     1
  9
$SKETCHINC
 40
0.1
  9
$FILLETRAD
 40
0.0
  9
$AUNITS
 70
     0
  9
$AUPREC
 70
     1
  9
$MENU
  1
E:\r13\win\SUPPORT\ACAD
  9
$ELEVATION
 40
0.0
  9
$PELEVATION
 40
0.0
  9
$THICKNESS
 40
0.0
  9
$LIMCHECK
 70
     0
  9
$BLIPMODE
 70
     0
  9
$CHAMFERA
 40
0.0
  9
$CHAMFERB
 40
0.0
  9
$SKPOLY
 70
     0
  9
$TDCREATE
 40
2449840.594537037
  9
$TDUPDATE
 40
2456927.6948630209
  9
$TDINDWG
 40
0.0729642824
  9
$TDUSRTIMER
 40
0.0729642824
  9
$USRTIMER
 70
     1
  9
$ANGBASE
 50
0.0
  9
$ANGDIR
 70
     0
  9
$PDMODE
 70
     0
  9
$PDSIZE
 40
0.0
  9
$PLINEWID
 40
0.0
  9
$COORDS
 70
     1
  9
$SPLFRAME
 70
     0
  9
$SPLINETYPE
 70
     6
  9
$SPLINESEGS
 70
     8
  9
$ATTDIA
 70
     0
  9
$ATTREQ
 70
     1
  9
$HANDLING
 70
     1
  9
$HANDSEED
  5
735
  9
$SURFTAB1
 70
     6
  9
$SURFTAB2
 70
     6
  9
$SURFTYPE
 70
     6
  9
$SURFU
 70
     6
  9
$SURFV
 70
     6
  9
$UCSNAME
  2

  9
$UCSORG
 10
0.0
 20
0.0
 30
0.0
  9
$UCSXDIR
 10
1.0
 20
0.0
 30
0.0
  9
$UCSYDIR
 10
0.0
 20
1.0
 30
0.0
  9
$PUCSNAME
  2

  9
$PUCSORG
 10
0.0
 20
0.0
 30
0.0
  9
$PUCSXDIR
 10
1.0
 20
0.0
 30
0.0
  9
$PUCSYDIR
 10
0.0
 20
1.0
 30
0.0
  9
$USERI1
 70
     0
  9
$USERI2
 70
     1
  9
$USERI3
 70
     0
  9
$USERI4
 70
     0
  9
$USERI5
 70
     0
  9
$USERR1
 40
0.0
  9
$USERR2
 40
0.0
  9
$USERR3
 40
0.0
  9
$USERR4
 40
0.0
  9
$USERR5
 40
0.0
  9
$WORLDVIEW
 70
     1
  9
$SHADEDGE
 70
     3
  9
$SHADEDIF
 70
    70
  9
$TILEMODE
 70
     1
  9
$MAXACTVP
 70
    16
  9
$PLIMCHECK
 70
     0
  9
$PEXTMIN
 10
1.0000000000000000E+020
 20
1.0000000000000000E+020
 30
1.0000000000000000E+020
  9
$PEXTMAX
 10
-1.0000000000000000E+020
 20
-1.0000000000000000E+020
 30
-1.0000000000000000E+020
  9
$PLIMMIN
 10
0.0
 20
0.0
  9
$PLIMMAX
 10
12.0
 20
9.0
  9
$UNITMODE
 70
     0
  9
$VISRETAIN
 70
     0
  9
$PLINEGEN
 70
     0
  9
$PSLTSCALE
 70
     0
  0
ENDSEC
  0
SECTION
  2
TABLES
  0
TABLE
  2
VPORT
 70
     1
  0
VPORT
  2
*ACTIVE
 70
     0
 10
0.0
 20
0.0
 11
1.0
 21
1.0
 12
78.546592489568852
 22
45.0
 13
0.0
 23
0.0
 14
5.0
 24
5.0
 15
5.0
 25
5.0
 16
0.0
 26
0.0
 36
1.0
 17
0.0
 27
0.0
 37
0.0
 40
90.0
 41
1.7454798331015291
 42
50.0
 43
0.0
 44
0.0
 50
0.0
 51
0.0
 71
     0
 72
   100
 73
     1
 74
     0
 75
     0
 76
     0
 77
     0
 78
     0
  0
ENDTAB
  0
TABLE
  2
LTYPE
 70
     3
  0
LTYPE
  2
CONTINUOUS
 70
     0
  3
Solid Line
 72
    65
 73
     0
 40
0.0
  0
LTYPE
  2
CENTER
 70
     0
  3
____ _ ____ _ ____ _ ____ _ ____ _ ____ _ ____
 72
    65
 73
     4
 40
2.0
 49
1.25
 49
-0.25
 49
0.25
 49
-0.25
  0
LTYPE
  2
PHANTOM2
 70
     0
  3
___ _ _ ___ _ _ ___ _ _ ___ _ _
 72
    65
 73
     6
 40
1.25
 49
0.625
 49
-0.125
 49
0.125
 49
-0.125
 49
0.125
 49
-0.125
  0
ENDTAB
  0
TABLE
  2
LAYER
 70
     4
  0
LAYER
  2
0
 70
     0
 62
     7
  6
CONTINUOUS
  0
LAYER
  2
1
 70
     0
 62
     1
  6
CENTER
  0
LAYER
  2
3
 70
     0
 62
     3
  6
CONTINUOUS
  0
LAYER
  2
DEFPOINTS
 70
     0
 62
     7
  6
CONTINUOUS
  0
ENDTAB
  0
TABLE
  2
STYLE
 70
     2
  0
STYLE
  2
STANDARD
 70
     0
 40
0.0
 41
1.0
 50
0.0
 71
     0
 42
1.6000000000000001
  3
TXT
  4
BIGFONT
  0
STYLE
  2
STANDARD1
 70
     0
 40
0.0
 41
1.0
 50
0.0
 71
     0
 42
3.0
  3
txt
  4

  0
ENDTAB
  0
TABLE
  2
VIEW
 70
     1
  0
VIEW
  2
ALL
 70
     0
 40
135.0
 10
110.49579799999999
 20
67.5
 41
0.0
 11
0.0
 21
0.0
 31
1.0
 12
0.0
 22
0.0
 32
0.0
 42
0.0
 43
0.0
 44
0.0
 50
0.0
 71
     0
  0
ENDTAB
  0
TABLE
  2
UCS
 70
     0
  0
ENDTAB
  0
TABLE
  2
APPID
 70
     7
  0
APPID
  2
ACAD
 70
     0
  0
APPID
  2
ACAD_MLEADERVER
 70
     0
  0
APPID
  2
ACAD_NAV_VCDISPLAY
 70
     0
  0
APPID
  2
ACAD_EXEMPT_FROM_CAD_STANDARDS
 70
     0
  0
APPID
  2
ACAD_DSTYLE_DIMJAG
 70
     0
  0
APPID
  2
ACAD_DSTYLE_DIMTALN
 70
     0
  0
APPID
  2
ACAD_PSEXT
 70
     0
  0
ENDTAB
  0
TABLE
  2
DIMSTYLE
 70
     1
  0
DIMSTYLE
  2
STANDARD
 70
     0
  3

  4

  5

  6

  7

 40
1.0
 41
0.18
 42
0.0625
 43
0.38
 44
0.18
 45
0.0
 46
0.0
 47
0.0
 48
0.0
140
0.18
141
0.09
142
0.0
143
25.399999999999999
144
1.0
145
0.0
146
1.0
147
0.09
 71
     0
 72
     0
 73
     1
 74
     1
 75
     0
 76
     0
 77
     0
 78
     0
170
     0
171
     2
172
     0
173
     0
174
     0
175
     0
176
     0
177
     0
178
     0
  0
ENDTAB
  0
ENDSEC
  0
SECTION
  2
BLOCKS
  0
BLOCK
  8
0
  2
$MODEL_SPACE
 70
     0
 10
0.0
 20
0.0
 30
0.0
  3
$MODEL_SPACE
  1

  0
ENDBLK
  5
12B
  8
0
  0
BLOCK
 67
     1
  8
0
  2
$PAPER_SPACE
 70
     0
 10
0.0
 20
0.0
 30
0.0
  3
$PAPER_SPACE
  1

  0
ENDBLK
  5
129
 67
     1
  8
0
  0
ENDSEC
  0
SECTION
  2
ENTITIES
  0
TEXT
  5
1E0
  8
0
 62
     3
 10
0.0
 20
0.0
 30
0.0
 40
5.0
  1
TRIG-INS-M3
  7
STANDARD1
  0
LINE
  5
539
  8
0
 10
19.999999999999972
 20
28.199999999999999
 30
0.0
 11
20.49442719099989
 21
27.211145618000181
 31
0.0
  0
LINE
  5
53A
  8
0
 10
23.705572809000071
 20
27.211145618000181
 30
0.0
 11
24.199999999999989
 21
28.199999999999999
 31
0.0
  0
LINE
  5
53B
  8
0
 10
19.999999999999972
 20
28.400000000000009
 30
0.0
 11
19.999999999999972
 21
28.199999999999999
 31
0.0
  0
LINE
  5
53C
  8
0
 10
24.199999999999989
 20
28.199999999999999
 30
0.0
 11
24.199999999999989
 21
28.400000000000009
 31
0.0
  0
ARC
  5
53D
  8
0
 10
22.099999999999991
 20
6.400000000000257
 30
0.0
 40
22.099999999999749
 50
92.593454721868397
 51
95.452621987809437
  0
ARC
  5
53E
  8
0
 10
22.099999999999991
 20
6.400000000000257
 30
0.0
 40
22.099999999999749
 50
84.547378012190549
 51
87.406545278131574
  0
ARC
  5
53F
  8
0
 10
19.599999999999991
 20
26.763932022500221
 30
0.0
 40
0.9999999999999996
 50
0.0
 51
26.565051177077809
  0
ARC
  5
540
  8
0
 10
24.599999999999991
 20
26.763932022500221
 30
0.0
 40
1.0
 50
153.43494882292219
 51
180.0
  0
LINE
  5
541
  8
0
 10
20.599999999999959
 20
20.5
 30
0.0
 11
21.099999999999969
 21
20.0
 31
0.0
  0
LINE
  5
542
  8
0
 10
23.100000000000001
 20
20.0
 30
0.0
 11
23.599999999999991
 21
20.5
 31
0.0
  0
LINE
  5
543
  8
0
 10
20.599999999999959
 20
26.763932022500221
 30
0.0
 11
20.599999999999959
 21
20.5
 31
0.0
  0
LINE
  5
544
  8
0
 10
23.599999999999991
 20
20.5
 30
0.0
 11
23.599999999999991
 21
26.763932022500221
 31
0.0
  0
LINE
  5
545
  8
0
 10
23.099260081289721
 20
28.477363973083381
 30
0.0
 11
23.099260081289721
 21
28.46614630479754
 31
0.0
  0
LINE
  5
546
  8
0
 10
21.10073991871025
 20
28.46614630479754
 30
0.0
 11
21.10073991871025
 21
28.477363973083381
 31
0.0
  0
LINE
  5
549
  8
0
 10
19.999999999999972
 20
28.199999999999999
 30
0.0
 11
24.199999999999989
 21
28.199999999999999
 31
0.0
  0
LINE
  5
54B
  8
0
 10
19.999999999999972
 20
28.400000000000009
 30
0.0
 11
24.199999999999989
 21
28.399999999999999
 31
0.0
  0
ARC
  5
54D
  8
0
 10
21.405783414375041
 20
20.6475703160771
 30
0.0
 40
7.8355925871059613
 50
86.663916950935828
 51
87.465842456370225
  0
LINE
  5
54F
  8
0
 10
22.138322817575158
 20
28.464621002863399
 30
0.0
 11
22.103810178194411
 21
28.464621002863399
 31
0.0
  0
ARC
  5
551
  8
0
 10
22.794117648616609
 20
22.935436496459861
 30
0.0
 40
5.5501120185152608
 50
93.591860216267605
 51
94.186590071520172
  0
LINE
  5
553
  8
0
 10
22.632938710021168
 20
28.477363973083381
 30
0.0
 11
22.56632137126854
 21
28.477363973083381
 31
0.0
  0
ARC
  5
555
  8
0
 10
22.099999999999991
 20
6.400000000000257
 30
0.0
 40
22.085515615443281
 50
87.903947180279218
 51
88.202342449071239
  0
LINE
  5
557
  8
0
 10
23.201184292667499
 20
28.464621002863399
 30
0.0
 11
23.16286147509231
 21
28.464621002863399
 31
0.0
  0
ARC
  5
559
  8
0
 10
22.791522997438278
 20
22.93543649645677
 30
0.0
 40
5.5501120185183552
 50
85.813409928479814
 51
86.408139783732366
  0
LINE
  5
55B
  8
0
 10
23.100000000000001
 20
28.477363973083381
 30
0.0
 11
23.099260081289721
 21
28.477363973083381
 31
0.0
  0
LINE
  5
55D
  8
0
 10
21.10073991871025
 20
28.477363973083381
 30
0.0
 11
21.099999999999969
 21
28.477363973083381
 31
0.0
  0
ARC
  5
55F
  8
0
 10
21.408477002537349
 20
22.93543649683086
 30
0.0
 40
5.5501120181434951
 50
93.591860216259505
 51
94.186590071552814
  0
LINE
  5
561
  8
0
 10
21.03713852490765
 20
28.464621002863399
 30
0.0
 11
20.998815707332479
 21
28.464621002863399
 31
0.0
  0
ARC
  5
563
  8
0
 10
22.099999999999991
 20
6.400000000000257
 30
0.0
 40
22.085515615443271
 50
91.797657550928776
 51
92.096052819720754
  0
LINE
  5
565
  8
0
 10
21.646997084792499
 20
28.477363973083381
 30
0.0
 11
21.567061289978799
 21
28.477363973083381
 31
0.0
  0
LINE
  5
566
  8
0
 10
21.099999999999969
 20
20.0
 30
0.0
 11
23.100000000000001
 21
20.0
 31
0.0
  0
LINE
  5
568
  8
0
 10
20.599999999999959
 20
20.5
 30
0.0
 11
23.599999999999991
 21
20.5
 31
0.0
  0
LINE
  5
573
  8
3
 10
20.880500027351079
 20
26.808418314903971
 30
0.0
 11
20.880500027351079
 21
20.21949999791104
 31
0.0
  0
LINE
  5
574
  8
3
 10
23.319499972648909
 20
20.21949999791104
 30
0.0
 11
23.319499972648909
 21
26.808418314903971
 31
0.0
  0
LINE
  5
576
  8
0
 10
20.59900999483898
 20
26.808418314903971
 30
0.0
 11
23.600990005161009
 21
26.808418314903971
 31
0.0
  0
CIRCLE
  5
577
  8
0
 10
22.099999999999991
 20
40.600000000000009
 30
0.0
 40
2.100000000000005
  0
ARC
  5
57F
  8
0
 10
22.099999999999991
 20
40.600000000000009
 30
0.0
 40
1.000000000000006
 50
297.79577249602471
 51
302.20422750397449
  0
LINE
  5
581
  8
0
 10
22.907774721070151
 20
39.799999999999997
 30
0.0
 11
22.792820323027541
 21
39.799999999999997
 31
0.0
  0
ARC
  5
583
  8
0
 10
22.099999999999991
 20
40.600000000000009
 30
0.0
 40
1.2500000000000031
 50
328.24313614070098
 51
331.75686385930032
  0
LINE
  5
585
  8
0
 10
23.139230484541319
 20
40.400000000000013
 30
0.0
 11
23.196707683562639
 21
40.300446571018348
 31
0.0
  0
ARC
  5
587
  8
0
 10
22.099999999999991
 20
40.600000000000009
 30
0.0
 40
0.9999999999999996
 50
357.79577249602949
 51
2.2042275039725321
  0
LINE
  5
589
  8
0
 10
23.196707683562639
 20
40.899553428981662
 30
0.0
 11
23.139230484541319
 21
40.799999999999997
 31
0.0
  0
ARC
  5
58B
  8
0
 10
22.099999999999991
 20
40.600000000000009
 30
0.0
 40
1.249999999999998
 50
28.2431361407011
 51
31.756863859298981
  0
LINE
  5
58D
  8
0
 10
22.792820323027541
 20
41.400000000000013
 30
0.0
 11
22.907774721070151
 21
41.400000000000013
 31
0.0
  0
ARC
  5
58F
  8
0
 10
22.099999999999991
 20
40.600000000000009
 30
0.0
 40
0.9999999999999992
 50
57.795772496025471
 51
62.204227503975311
  0
LINE
  5
591
  8
0
 10
22.388932962492451
 20
41.699553428981659
 30
0.0
 11
22.446410161513771
 21
41.600000000000001
 31
0.0
  0
ARC
  5
593
  8
0
 10
22.099999999999991
 20
40.600000000000009
 30
0.0
 40
1.249999999999996
 50
88.243136140704266
 51
91.756863859295692
  0
LINE
  5
595
  8
0
 10
21.753589838486221
 20
41.600000000000001
 30
0.0
 11
21.81106703750751
 21
41.699553428981659
 31
0.0
  0
ARC
  5
597
  8
0
 10
22.099999999999991
 20
40.600000000000009
 30
0.0
 40
0.9999999999999992
 50
117.7957724960247
 51
122.20422750397449
  0
LINE
  5
599
  8
0
 10
21.292225278929809
 20
41.400000000000013
 30
0.0
 11
21.407179676972419
 21
41.400000000000013
 31
0.0
  0
ARC
  5
59B
  8
0
 10
22.099999999999991
 20
40.600000000000009
 30
0.0
 40
1.249999999999998
 50
148.24313614070101
 51
151.7568638592989
  0
LINE
  5
59D
  8
0
 10
21.06076951545867
 20
40.799999999999997
 30
0.0
 11
21.003292316437349
 21
40.899553428981662
 31
0.0
  0
ARC
  5
59F
  8
0
 10
22.099999999999991
 20
40.600000000000009
 30
0.0
 40
1.000000000000002
 50
177.79577249602741
 51
182.2042275039725
  0
LINE
  5
5A1
  8
0
 10
21.003292316437349
 20
40.300446571018348
 30
0.0
 11
21.06076951545867
 21
40.400000000000013
 31
0.0
  0
ARC
  5
5A3
  8
0
 10
22.099999999999991
 20
40.600000000000009
 30
0.0
 40
1.2500000000000031
 50
208.2431361407055
 51
211.7568638592989
  0
LINE
  5
5A5
  8
0
 10
21.407179676972419
 20
39.799999999999997
 30
0.0
 11
21.292225278929809
 21
39.799999999999997
 31
0.0
  0
ARC
  5
5A7
  8
0
 10
22.100000000618849
 20
40.600000001034203
 30
0.0
 40
1.0000000012049139
 50
237.79577249760791
 51
242.2091838690724
  0
ARC
  5
5F8
  8
0
 10
22.072790379027591
 20
41.546349757296269
 30
0.0
 40
0.3032663392371824
 50
92.100074338151785
 51
149.6567895211345
  0
ARC
  5
63E
  8
0
 10
22.127209620972401
 20
41.546349757296269
 30
0.0
 40
0.3032663392371824
 50
30.343210478866808
 51
87.899925661848229
  0
LINE
  5
641
  8
1
 10
22.099999999999991
 20
44.70000000000001
 30
0.0
 11
22.099999999999991
 21
36.5
 31
0.0
  0
LINE
  5
642
  8
1
 10
26.199999999999989
 20
40.600000000000009
 30
0.0
 11
18.0
 21
40.600000000000009
 31
0.0
  0
ARC
  5
643
  8
0
 10
22.905958120197631
 20
41.096739101637588
 30
0.0
 40
0.3032663392371824
 50
32.100074338151067
 51
89.656789521134158
  0
ARC
  5
644
  8
0
 10
22.933167741170021
 20
41.049610655658711
 30
0.0
 40
0.3032663392371824
 50
330.34321047886641
 51
27.899925661847771
  0
ARC
  5
645
  8
0
 10
21.266832258829989
 20
41.049610655658697
 30
0.0
 40
0.3032663392371824
 50
152.10007433815221
 51
209.65678952113379
  0
ARC
  5
646
  8
0
 10
21.294041879802389
 20
41.096739101637567
 30
0.0
 40
0.3032663392371824
 50
90.343210478865785
 51
147.89992566184881
  0
ARC
  5
647
  8
0
 10
22.933167741169999
 20
40.150389344341313
 30
0.0
 40
0.3032663392371824
 50
332.10007433815218
 51
29.65678952113382
  0
ARC
  5
648
  8
0
 10
22.905958120197631
 20
40.103260898362429
 30
0.0
 40
0.3032663392371824
 50
270.34321047886579
 51
327.89992566184878
  0
ARC
  5
649
  8
0
 10
21.294041879802389
 20
40.103260898362457
 30
0.0
 40
0.3032663392371824
 50
212.10007433815241
 51
269.6567895211341
  0
ARC
  5
64A
  8
0
 10
21.266832258829989
 20
40.150389344341292
 30
0.0
 40
0.3032663392371824
 50
150.3432104788665
 51
207.89992566184779
  0
LINE
  5
64D
  8
0
 10
22.388932962492451
 20
39.500446571018351
 30
0.0
 11
22.446410161513771
 21
39.600000000000023
 31
0.0
  0
ARC
  5
64E
  8
0
 10
22.099999999999991
 20
40.600000000000009
 30
0.0
 40
1.249999999999996
 50
268.24313614070428
 51
271.75686385929572
  0
LINE
  5
64F
  8
0
 10
21.753589838486221
 20
39.600000000000023
 30
0.0
 11
21.81106703750751
 21
39.500446571018351
 31
0.0
  0
ARC
  5
650
  8
0
 10
22.072790379027591
 20
39.653650242703741
 30
0.0
 40
0.3032663392371824
 50
210.34321047886539
 51
267.89992566184821
  0
ARC
  5
651
  8
0
 10
22.127209620972401
 20
39.653650242703741
 30
0.0
 40
0.3032663392371824
 50
272.10007433815179
 51
329.65678952113302
  0
ARC
  5
652
  8
0
 10
20.801158646347059
 20
40.650048683500259
 30
0.0
 40
0.2998052712693575
 50
357.7850292744177
 51
30.010743221599778
  0
ARC
  5
655
  8
0
 10
20.801158646347059
 20
40.549951316499751
 30
0.0
 40
0.2998052712693575
 50
329.98925677840037
 51
2.214970725582567
  0
ARC
  5
656
  8
0
 10
23.39884135365293
 20
40.650048683500259
 30
0.0
 40
0.2998052712693575
 50
149.9892567784014
 51
182.2149707255823
  0
ARC
  5
657
  8
0
 10
23.39884135365293
 20
40.549951316499751
 30
0.0
 40
0.2998052712693575
 50
177.78502927441741
 51
210.0107432215984
  0
ARC
  5
658
  8
0
 10
21.49392275451072
 20
41.749853949499361
 30
0.0
 40
0.2998052712693575
 50
297.78502927441741
 51
330.0107432215998
  0
ARC
  5
659
  8
0
 10
21.40723589183634
 20
41.699805265999103
 30
0.0
 40
0.2998052712693575
 50
269.98925677840128
 51
302.21497072558248
  0
ARC
  5
65A
  8
0
 10
22.706077245489269
 20
41.749853949499361
 30
0.0
 40
0.2998052712693575
 50
209.98925677840069
 51
242.21497072558091
  0
ARC
  5
65B
  8
0
 10
22.792764108163649
 20
41.699805265999103
 30
0.0
 40
0.2998052712693575
 50
237.7850292744175
 51
270.01074322160031
  0
ARC
  5
65C
  8
0
 10
21.49392275451072
 20
39.450146050500649
 30
0.0
 40
0.2998052712693575
 50
29.989256778400001
 51
62.214970725582582
  0
ARC
  5
65D
  8
0
 10
21.40723589183634
 20
39.500194734000921
 30
0.0
 40
0.2998052712693575
 50
57.785029274417589
 51
90.010743221598602
  0
ARC
  5
65E
  8
0
 10
22.706077245489269
 20
39.450146050500649
 30
0.0
 40
0.2998052712693575
 50
117.785029274419
 51
150.01074322159931
  0
ARC
  5
65F
  8
0
 10
22.792764108163649
 20
39.500194734000921
 30
0.0
 40
0.2998052712693575
 50
89.989256778399707
 51
122.2149707255826
  0
POLYLINE
  5
666
  8
0
 66
     1
 10
0.0
 20
0.0
 30
0.0
  0
VERTEX
  5
711
  8
0
 10
21.567061289978799
 20
28.477363973083381
 30
0.0
  0
VERTEX
  5
712
  8
0
 10
21.407179676972419
 20
28.474646090028269
 30
0.0
  0
SEQEND
  5
713
  8
0
  0
POLYLINE
  5
667
  8
0
 66
     1
 10
0.0
 20
0.0
 30
0.0
  0
VERTEX
  5
714
  8
0
 10
21.292225278929809
 20
28.470738546772751
 30
0.0
  0
VERTEX
  5
715
  8
0
 10
21.03713852490765
 20
28.464621002863399
 30
0.0
  0
SEQEND
  5
716
  8
0
  0
POLYLINE
  5
668
  8
0
 66
     1
 10
0.0
 20
0.0
 30
0.0
  0
VERTEX
  5
717
  8
0
 10
20.998815707332479
 20
28.464621002863399
 30
0.0
  0
VERTEX
  5
718
  8
0
 10
21.003292316437349
 20
28.470738546772751
 30
0.0
  0
SEQEND
  5
719
  8
0
  0
POLYLINE
  5
669
  8
0
 66
     1
 10
0.0
 20
0.0
 30
0.0
  0
VERTEX
  5
71A
  8
0
 10
21.06076951545867
 20
28.474646090028269
 30
0.0
  0
VERTEX
  5
71B
  8
0
 10
21.10073991871025
 20
28.477363973083381
 30
0.0
  0
SEQEND
  5
71C
  8
0
  0
POLYLINE
  5
66A
  8
0
 66
     1
 10
0.0
 20
0.0
 30
0.0
  0
VERTEX
  5
71D
  8
0
 10
23.099260081289721
 20
28.477363973083381
 30
0.0
  0
VERTEX
  5
71E
  8
0
 10
23.139230484541319
 20
28.474646090028269
 30
0.0
  0
SEQEND
  5
71F
  8
0
  0
POLYLINE
  5
66B
  8
0
 66
     1
 10
0.0
 20
0.0
 30
0.0
  0
VERTEX
  5
720
  8
0
 10
23.196707683562639
 20
28.470738546772751
 30
0.0
  0
VERTEX
  5
721
  8
0
 10
23.201184292667499
 20
28.464621002863399
 30
0.0
  0
SEQEND
  5
722
  8
0
  0
POLYLINE
  5
66C
  8
0
 66
     1
 10
0.0
 20
0.0
 30
0.0
  0
VERTEX
  5
723
  8
0
 10
23.16286147509231
 20
28.464621002863399
 30
0.0
  0
VERTEX
  5
724
  8
0
 10
22.907774721070151
 20
28.470738546772751
 30
0.0
  0
SEQEND
  5
725
  8
0
  0
POLYLINE
  5
66D
  8
0
 66
     1
 10
0.0
 20
0.0
 30
0.0
  0
VERTEX
  5
726
  8
0
 10
22.792820323027541
 20
28.474646090028269
 30
0.0
  0
VERTEX
  5
727
  8
0
 10
22.632938710021168
 20
28.477363973083381
 30
0.0
  0
SEQEND
  5
728
  8
0
  0
POLYLINE
  5
66E
  8
0
 66
     1
 10
0.0
 20
0.0
 30
0.0
  0
VERTEX
  5
729
  8
0
 10
22.56632137126854
 20
28.477363973083381
 30
0.0
  0
VERTEX
  5
72A
  8
0
 10
22.446410161513771
 20
28.474646090028259
 30
0.0
  0
SEQEND
  5
72B
  8
0
  0
POLYLINE
  5
66F
  8
0
 66
     1
 10
0.0
 20
0.0
 30
0.0
  0
VERTEX
  5
72C
  8
0
 10
22.388932962492451
 20
28.470738546772751
 30
0.0
  0
VERTEX
  5
72D
  8
0
 10
22.138322817575158
 20
28.464621002863399
 30
0.0
  0
SEQEND
  5
72E
  8
0
  0
POLYLINE
  5
670
  8
0
 66
     1
 10
0.0
 20
0.0
 30
0.0
  0
VERTEX
  5
72F
  8
0
 10
22.103810178194411
 20
28.464621002863399
 30
0.0
  0
VERTEX
  5
730
  8
0
 10
21.861758010605769
 20
28.469884446735762
 30
0.0
  0
SEQEND
  5
731
  8
0
  0
POLYLINE
  5
671
  8
0
 66
     1
 10
0.0
 20
0.0
 30
0.0
  0
VERTEX
  5
732
  8
0
 10
21.752233935052232
 20
28.4755000058375
 30
0.0
  0
VERTEX
  5
733
  8
0
 10
21.646997084792499
 20
28.477363973083381
 30
0.0
  0
SEQEND
  5
734
  8
0
  0
LINE
  5
674
  8
1
 10
22.099999999999969
 20
18.0
 30
0.0
 11
22.099999999999969
 21
30.5
 31
0.0
  0
ENDSEC
  0
EOF
