  0
SECTION
  2
HEADER
  9
$ACADVER
  1
AC1009
  9
$INSBASE
 10
0.0
 20
0.0
 30
0.0
  9
$EXTMIN
 10
11.01031477678076
 20
-2.960436587254252
 30
0.0
  9
$EXTMAX
 10
73.104448473915824
 20
138.15066041978699
 30
0.0
  9
$LIMMIN
 10
0.0
 20
0.0
  9
$LIMMAX
 10
750.0
 20
540.0
  9
$ORTHOMODE
 70
     1
  9
$REGENMODE
 70
     1
  9
$FILLMODE
 70
     1
  9
$QTEXTMODE
 70
     0
  9
$MIRRTEXT
 70
     0
  9
$DRAGMODE
 70
     2
  9
$LTSCALE
 40
10.0
  9
$OSMODE
 70
  3071
  9
$ATTMODE
 70
     1
  9
$TEXTSIZE
 40
0.2
  9
$TRACEWID
 40
0.05
  9
$TEXTSTYLE
  7
STANDARD
  9
$CLAYER
  8
0
  9
$CELTYPE
  6
BYLAYER
  9
$CECOLOR
 62
   256
  9
$DIMSCALE
 40
1.0
  9
$DIMASZ
 40
3.0
  9
$DIMEXO
 40
2.0
  9
$DIMDLI
 40
0.38
  9
$DIMRND
 40
0.0
  9
$DIMDLE
 40
0.0
  9
$DIMEXE
 40
2.0
  9
$DIMTP
 40
0.0
  9
$DIMTM
 40
0.0
  9
$DIMTXT
 40
3.2000000000000002
  9
$DIMCEN
 40
0.0
  9
$DIMTSZ
 40
0.0
  9
$DIMTOL
 70
     0
  9
$DIMLIM
 70
     0
  9
$DIMTIH
 70
     0
  9
$DIMTOH
 70
     0
  9
$DIMSE1
 70
     0
  9
$DIMSE2
 70
     0
  9
$DIMTAD
 70
     1
  9
$DIMZIN
 70
     0
  9
$DIMBLK
  1

  9
$DIMASO
 70
     0
  9
$DIMSHO
 70
     0
  9
$DIMPOST
  1

  9
$DIMAPOST
  1

  9
$DIMALT
 70
     0
  9
$DIMALTD
 70
     2
  9
$DIMALTF
 40
25.399999999999999
  9
$DIMLFAC
 40
1.0
  9
$DIMTOFL
 70
     0
  9
$DIMTVP
 40
1.6000000000000001
  9
$DIMTIX
 70
     1
  9
$DIMSOXD
 70
     0
  9
$DIMSAH
 70
     0
  9
$DIMBLK1
  1

  9
$DIMBLK2
  1

  9
$DIMSTYLE
  2
STANDARD
  9
$DIMCLRD
 70
     0
  9
$DIMCLRE
 70
     0
  9
$DIMCLRT
 70
     0
  9
$DIMTFAC
 40
1.0
  9
$DIMGAP
 40
0.09
  9
$LUNITS
 70
     2
  9
$LUPREC
 70
     4
  9
$SKETCHINC
 40
0.1
  9
$FILLETRAD
 40
0.0
  9
$AUNITS
 70
     0
  9
$AUPREC
 70
     4
  9
$MENU
  1
E:\r13\win\SUPPORT\ACAD
  9
$ELEVATION
 40
0.0
  9
$PELEVATION
 40
0.0
  9
$THICKNESS
 40
0.0
  9
$LIMCHECK
 70
     0
  9
$BLIPMODE
 70
     0
  9
$CHAMFERA
 40
0.0
  9
$CHAMFERB
 40
0.0
  9
$SKPOLY
 70
     0
  9
$TDCREATE
 40
2449840.6227546302
  9
$TDUPDATE
 40
2456602.6106438888
  9
$TDINDWG
 40
0.0111111227
  9
$TDUSRTIMER
 40
2456598.352071146
  9
$USRTIMER
 70
     1
  9
$ANGBASE
 50
0.0
  9
$ANGDIR
 70
     0
  9
$PDMODE
 70
     0
  9
$PDSIZE
 40
0.0
  9
$PLINEWID
 40
0.0
  9
$COORDS
 70
     1
  9
$SPLFRAME
 70
     0
  9
$SPLINETYPE
 70
     6
  9
$SPLINESEGS
 70
     8
  9
$ATTDIA
 70
     0
  9
$ATTREQ
 70
     1
  9
$HANDLING
 70
     1
  9
$HANDSEED
  5
4B5
  9
$SURFTAB1
 70
     6
  9
$SURFTAB2
 70
     6
  9
$SURFTYPE
 70
     6
  9
$SURFU
 70
     6
  9
$SURFV
 70
     6
  9
$UCSNAME
  2

  9
$UCSORG
 10
0.0
 20
0.0
 30
0.0
  9
$UCSXDIR
 10
1.0
 20
0.0
 30
0.0
  9
$UCSYDIR
 10
0.0
 20
1.0
 30
0.0
  9
$PUCSNAME
  2

  9
$PUCSORG
 10
0.0
 20
0.0
 30
0.0
  9
$PUCSXDIR
 10
1.0
 20
0.0
 30
0.0
  9
$PUCSYDIR
 10
0.0
 20
1.0
 30
0.0
  9
$USERI1
 70
     0
  9
$USERI2
 70
     1
  9
$USERI3
 70
     0
  9
$USERI4
 70
     0
  9
$USERI5
 70
     0
  9
$USERR1
 40
0.0
  9
$USERR2
 40
0.0
  9
$USERR3
 40
0.0
  9
$USERR4
 40
0.0
  9
$USERR5
 40
0.0
  9
$WORLDVIEW
 70
     1
  9
$SHADEDGE
 70
     3
  9
$SHADEDIF
 70
    70
  9
$TILEMODE
 70
     1
  9
$MAXACTVP
 70
    16
  9
$PLIMCHECK
 70
     0
  9
$PEXTMIN
 10
1.0000000000000000E+020
 20
1.0000000000000000E+020
 30
1.0000000000000000E+020
  9
$PEXTMAX
 10
-1.0000000000000000E+020
 20
-1.0000000000000000E+020
 30
-1.0000000000000000E+020
  9
$PLIMMIN
 10
0.0
 20
0.0
  9
$PLIMMAX
 10
12.0
 20
9.0
  9
$UNITMODE
 70
     0
  9
$VISRETAIN
 70
     0
  9
$PLINEGEN
 70
     0
  9
$PSLTSCALE
 70
     0
  0
ENDSEC
  0
SECTION
  2
TABLES
  0
TABLE
  2
VPORT
 70
     1
  0
VPORT
  2
*ACTIVE
 70
     0
 10
0.0
 20
0.0
 11
1.0
 21
1.0
 12
137.87200206377869
 22
69.129560862093228
 13
0.0
 23
0.0
 14
20.0
 24
20.0
 15
20.0
 25
20.0
 16
0.0
 26
0.0
 36
1.0
 17
0.0
 27
0.0
 37
0.0
 40
220.4485525841672
 41
1.831871345029239
 42
50.0
 43
0.0
 44
0.0
 50
0.0
 51
0.0
 71
    16
 72
   100
 73
     1
 74
     0
 75
     0
 76
     0
 77
     0
 78
     2
  0
ENDTAB
  0
TABLE
  2
LTYPE
 70
     7
  0
LTYPE
  2
CONTINUOUS
 70
     0
  3
Solid Line
 72
    65
 73
     0
 40
0.0
  0
LTYPE
  2
CENTER
 70
     0
  3
____ _ ____ _ ____ _ ____ _ ____ _ ____ _ ____
 72
    65
 73
     4
 40
2.0
 49
1.25
 49
-0.25
 49
0.25
 49
-0.25
  0
LTYPE
  2
HIDDEN
 70
     0
  3
_ _ _ _ _ _ _ _ _ _ _ _ _ _ _ _ _ _ _ _ _ _ _
 72
    65
 73
     2
 40
0.375
 49
0.25
 49
-0.125
  0
LTYPE
  2
PHANTOM2
 70
     0
  3
___ _ _ ___ _ _ ___ _ _ ___ _ _
 72
    65
 73
     6
 40
1.25
 49
0.625
 49
-0.125
 49
0.125
 49
-0.125
 49
0.125
 49
-0.125
  0
LTYPE
  2
CNS_SOLID
 70
     0
  3

 72
    65
 73
     0
 40
0.0
  0
LTYPE
  2
CNS_DASHED
 70
     0
  3

 72
    65
 73
     2
 40
2.0
 49
1.0
 49
-1.0
  0
LTYPE
  2
CNS_CENTER
 70
     0
  3

 72
    65
 73
     4
 40
2.0
 49
0.45
 49
-0.5
 49
0.05
 49
-0.5
  0
ENDTAB
  0
TABLE
  2
LAYER
 70
     4
  0
LAYER
  2
0
 70
     0
 62
     7
  6
CONTINUOUS
  0
LAYER
  2
1
 70
     0
 62
     1
  6
CENTER
  0
LAYER
  2
2
 70
     0
 62
     2
  6
HIDDEN
  0
LAYER
  2
3
 70
     0
 62
     3
  6
CONTINUOUS
  0
ENDTAB
  0
TABLE
  2
STYLE
 70
     2
  0
STYLE
  2
STANDARD
 70
     0
 40
0.0
 41
1.0
 50
0.0
 71
     0
 42
0.2
  3
TXT
  4
BIGFONT
  0
STYLE
  2
STANDARD1
 70
     0
 40
0.0
 41
1.0
 50
0.0
 71
     0
 42
3.0
  3
txt
  4

  0
ENDTAB
  0
TABLE
  2
VIEW
 70
     1
  0
VIEW
  2
ALL
 70
     0
 40
540.0
 10
441.98319299999991
 20
270.0
 41
0.0
 11
0.0
 21
0.0
 31
1.0
 12
0.0
 22
0.0
 32
0.0
 42
0.0
 43
0.0
 44
0.0
 50
0.0
 71
     0
  0
ENDTAB
  0
TABLE
  2
UCS
 70
     0
  0
ENDTAB
  0
TABLE
  2
APPID
 70
     6
  0
APPID
  2
ACAD
 70
     0
  0
APPID
  2
ACAD_NAV_VCDISPLAY
 70
     0
  0
APPID
  2
ACAD_EXEMPT_FROM_CAD_STANDARDS
 70
     0
  0
APPID
  2
ACAD_DSTYLE_DIMJAG
 70
     0
  0
APPID
  2
ACAD_DSTYLE_DIMTALN
 70
     0
  0
APPID
  2
ACAD_MLEADERVER
 70
     0
  0
ENDTAB
  0
TABLE
  2
DIMSTYLE
 70
     2
  0
DIMSTYLE
  2
STANDARD
 70
     0
  3

  4

  5

  6

  7

 40
1.0
 41
0.18
 42
0.0625
 43
0.38
 44
0.18
 45
0.0
 46
0.0
 47
0.0
 48
0.0
140
0.18
141
0.09
142
0.0
143
25.399999999999999
144
1.0
145
0.0
146
1.0
147
0.09
 71
     0
 72
     0
 73
     1
 74
     1
 75
     0
 76
     0
 77
     0
 78
     0
170
     0
171
     2
172
     0
173
     0
174
     0
175
     0
176
     0
177
     0
178
     0
  0
DIMSTYLE
  2
ISO-25
 70
     0
  3

  4

  5

  6

  7

 40
1.0
 41
2.5
 42
0.625
 43
3.75
 44
1.25
 45
0.0
 46
0.0
 47
0.0
 48
0.0
140
2.5
141
2.5
142
0.0
143
0.03937007874016
144
1.0
145
0.0
146
1.0
147
0.625
 71
     0
 72
     0
 73
     0
 74
     0
 75
     0
 76
     0
 77
     1
 78
     8
170
     0
171
     3
172
     1
173
     0
174
     0
175
     0
176
     0
177
     0
178
     0
  0
ENDTAB
  0
ENDSEC
  0
SECTION
  2
BLOCKS
  0
BLOCK
  8
0
  2
$MODEL_SPACE
 70
     0
 10
0.0
 20
0.0
 30
0.0
  3
$MODEL_SPACE
  1

  0
ENDBLK
  5
11D
  8
0
  0
BLOCK
 67
     1
  8
0
  2
$PAPER_SPACE
 70
     0
 10
0.0
 20
0.0
 30
0.0
  3
$PAPER_SPACE
  1

  0
ENDBLK
  5
11B
 67
     1
  8
0
  0
ENDSEC
  0
SECTION
  2
ENTITIES
  0
LINE
  5
372
  8
0
 10
48.551314777280773
 20
91.094781787253226
 30
0.0
 11
46.552334777380779
 21
91.949351006053234
 31
0.0
  0
LINE
  5
373
  8
0
 10
35.468294776180777
 20
91.949351006053234
 30
0.0
 11
33.469314776280783
 21
91.094781787253226
 31
0.0
  0
LINE
  5
374
  8
0
 10
33.573314837480773
 20
79.722354886153241
 30
0.0
 11
35.223314778580772
 21
79.287213381453242
 31
0.0
  0
LINE
  5
375
  8
0
 10
46.797314774980762
 20
79.287213381453242
 30
0.0
 11
48.447314716080783
 21
79.722354886153241
 31
0.0
  0
LINE
  5
376
  8
0
 10
33.644314776780782
 20
78.701361417653231
 30
0.0
 11
33.644314776780782
 21
76.201309388553241
 31
0.0
  0
LINE
  5
377
  8
0
 10
48.376314776780781
 20
76.201309388553241
 30
0.0
 11
48.376314776780781
 21
78.701361417653231
 31
0.0
  0
LINE
  5
378
  8
0
 10
48.376314776780781
 20
78.701361417653231
 30
0.0
 11
46.797314774980762
 21
79.287213381453242
 31
0.0
  0
LINE
  5
379
  8
0
 10
35.223314778580772
 20
79.287213381453242
 30
0.0
 11
33.644314776780782
 21
78.701361417653231
 31
0.0
  0
LINE
  5
37A
  8
0
 10
46.552335709980767
 20
91.949351006053234
 30
0.0
 11
45.201314776680768
 21
91.949381829153253
 31
0.0
  0
LINE
  5
37B
  8
0
 10
36.81931477688078
 20
91.949381829153253
 30
0.0
 11
35.468293843580781
 21
91.949351006053234
 31
0.0
  0
LINE
  5
37C
  8
0
 10
48.551314777280773
 20
91.094781787253226
 30
0.0
 11
33.469314776280783
 21
91.094781787253226
 31
0.0
  0
LINE
  5
37D
  8
0
 10
33.573314837480773
 20
79.722354886153241
 30
0.0
 11
48.447314716080783
 21
79.722354886153241
 31
0.0
  0
LINE
  5
37E
  8
0
 10
46.552334777380779
 20
91.949351006053234
 30
0.0
 11
35.468294776180777
 21
91.949351006053234
 31
0.0
  0
LINE
  5
37F
  8
0
 10
35.223314778580772
 20
79.287213381453242
 30
0.0
 11
46.797314774980727
 21
79.287213381453213
 31
0.0
  0
LINE
  5
380
  8
0
 10
33.644314776780782
 20
76.201309388553241
 30
0.0
 11
48.376314776780781
 21
76.201309388553241
 31
0.0
  0
LINE
  5
381
  8
0
 10
33.644314776780782
 20
78.701361417653231
 30
0.0
 11
48.376314776780781
 21
78.701361417653231
 31
0.0
  0
CIRCLE
  5
382
  8
0
 10
41.010314776780767
 20
127.1403456088532
 30
0.0
 40
5.5420200005755751
  0
CIRCLE
  5
383
  8
0
 10
41.010314776780767
 20
127.1403456088532
 30
0.0
 40
4.1909999999916181
  0
CIRCLE
  5
384
  8
0
 10
41.010314776780767
 20
127.1403456088532
 30
0.0
 40
2.1590000000000189
  0
LINE
  5
385
  8
2
 10
45.201314776780769
 20
91.949381829153253
 30
0.0
 11
45.201314776780769
 21
91.441351006153241
 31
0.0
  0
LINE
  5
386
  8
2
 10
43.169314776780759
 20
79.722354886153241
 30
0.0
 11
43.169314776880761
 21
76.201428184453235
 31
0.0
  0
LINE
  5
387
  8
2
 10
45.201314776780769
 20
80.43209687305324
 30
0.0
 11
43.169314776780759
 21
79.722354886153241
 31
0.0
  0
LINE
  5
388
  8
2
 10
36.819314776780772
 20
91.441351006153241
 30
0.0
 11
36.819314776780772
 21
91.949381829153253
 31
0.0
  0
LINE
  5
389
  8
2
 10
38.851314776780768
 20
79.722354886153241
 30
0.0
 11
43.169314776780759
 21
79.722354886153241
 31
0.0
  0
LINE
  5
38A
  8
2
 10
38.851314776780768
 20
79.722354886153241
 30
0.0
 11
36.819314776780772
 21
80.43209687305324
 31
0.0
  0
LINE
  5
38B
  8
2
 10
36.819314776780772
 20
80.43209687305324
 30
0.0
 11
45.201314776793353
 21
80.43209687305324
 31
0.0
  0
LINE
  5
38C
  8
2
 10
38.851314776680773
 20
76.201428184453235
 30
0.0
 11
38.851314776780768
 21
79.722354886153241
 31
0.0
  0
CIRCLE
  5
38D
  8
0
 10
41.010314776780767
 20
127.1403456088532
 30
0.0
 40
7.5410000005187419
  0
CIRCLE
  5
38E
  8
0
 10
41.010314776780767
 20
127.1403456088532
 30
0.0
 40
8.5103148109338012
  0
LINE
  5
38F
  8
1
 10
29.999999965846971
 20
127.1403456088532
 30
0.0
 11
52.020629587714581
 21
127.1403456088532
 31
0.0
  0
LINE
  5
390
  8
1
 10
41.010314776780767
 20
138.15066041978699
 30
0.0
 11
41.010314776780767
 21
116.1300307979194
 31
0.0
  0
LINE
  5
391
  8
1
 10
41.010314776780767
 20
94.449351006053234
 30
0.0
 11
41.010314776780767
 21
73.701309388553241
 31
0.0
  0
CIRCLE
  5
392
  8
0
 10
41.01031477678076
 20
41.010314785753224
 30
0.0
 40
2.1590000000000189
  0
CIRCLE
  5
393
  8
0
 10
41.01031477678076
 20
41.010314785753224
 30
0.0
 40
8.5103148109338012
  0
LINE
  5
394
  8
1
 10
29.99999996584696
 20
41.010314785753224
 30
0.0
 11
52.020629587714573
 21
41.010314785753224
 31
0.0
  0
LINE
  5
395
  8
1
 10
41.01031477678076
 20
52.02062959668703
 30
0.0
 11
41.01031477678076
 21
29.999999974819421
 31
0.0
  0
CIRCLE
  5
396
  8
0
 10
41.01031477678076
 20
41.010314785753224
 30
0.0
 40
7.3659999999999988
  0
ARC
  5
397
  8
2
 10
28.880344920602969
 20
85.936723939578201
 30
0.0
 40
17.22425546107074
 50
341.36212370385709
 51
18.637876296142931
  0
ARC
  5
398
  8
0
 10
33.17815044853166
 20
85.548679329610096
 30
0.0
 40
16.34299342071888
 50
339.11441860166008
 51
19.83767868974984
  0
ARC
  5
399
  8
2
 10
53.140284632958583
 20
85.936723939578201
 30
0.0
 40
17.22425546107074
 50
161.36212370385709
 51
198.63787629614291
  0
ARC
  5
39A
  8
0
 10
48.842479105029888
 20
85.548679329610096
 30
0.0
 40
16.34299342071888
 50
160.16232131024981
 51
200.88558139833981
  0
TEXT
  5
44B
  8
0
 62
     3
 10
11.01031477678076
 20
-0.000000025180583
 30
0.0
 40
10.0
  1
TPGBA-C
  7
STANDARD1
  0
ENDSEC
  0
EOF
