  0
SECTION
  2
HEADER
  9
$ACADVER
  1
AC1009
  9
$INSBASE
 10
0.0
 20
0.0
 30
0.0
  9
$EXTMIN
 10
0.0
 20
-2.960436562073669
 30
0.0
  9
$EXTMAX
 10
313.0
 20
93.0
 30
0.0
  9
$LIMMIN
 10
0.0
 20
0.0
  9
$LIMMAX
 10
375.0
 20
270.0
  9
$ORTHOMODE
 70
     1
  9
$REGENMODE
 70
     1
  9
$FILLMODE
 70
     1
  9
$QTEXTMODE
 70
     0
  9
$MIRRTEXT
 70
     0
  9
$DRAGMODE
 70
     2
  9
$LTSCALE
 40
10.0
  9
$OSMODE
 70
    37
  9
$ATTMODE
 70
     2
  9
$TEXTSIZE
 40
0.2
  9
$TRACEWID
 40
0.05
  9
$TEXTSTYLE
  7
STANDARD
  9
$CLAYER
  8
0
  9
$CELTYPE
  6
BYLAYER
  9
$CECOLOR
 62
   256
  9
$DIMSCALE
 40
1.0
  9
$DIMASZ
 40
3.0
  9
$DIMEXO
 40
2.0
  9
$DIMDLI
 40
0.38
  9
$DIMRND
 40
0.0
  9
$DIMDLE
 40
0.0
  9
$DIMEXE
 40
2.0
  9
$DIMTP
 40
0.0
  9
$DIMTM
 40
0.0
  9
$DIMTXT
 40
3.2000000000000002
  9
$DIMCEN
 40
0.09
  9
$DIMTSZ
 40
0.0
  9
$DIMTOL
 70
     0
  9
$DIMLIM
 70
     0
  9
$DIMTIH
 70
     0
  9
$DIMTOH
 70
     0
  9
$DIMSE1
 70
     0
  9
$DIMSE2
 70
     0
  9
$DIMTAD
 70
     1
  9
$DIMZIN
 70
     0
  9
$DIMBLK
  1

  9
$DIMASO
 70
     1
  9
$DIMSHO
 70
     0
  9
$DIMPOST
  1

  9
$DIMAPOST
  1

  9
$DIMALT
 70
     0
  9
$DIMALTD
 70
     2
  9
$DIMALTF
 40
25.399999999999999
  9
$DIMLFAC
 40
1.0
  9
$DIMTOFL
 70
     0
  9
$DIMTVP
 40
0.0
  9
$DIMTIX
 70
     0
  9
$DIMSOXD
 70
     0
  9
$DIMSAH
 70
     0
  9
$DIMBLK1
  1

  9
$DIMBLK2
  1

  9
$DIMSTYLE
  2
STANDARD
  9
$DIMCLRD
 70
     0
  9
$DIMCLRE
 70
     0
  9
$DIMCLRT
 70
     0
  9
$DIMTFAC
 40
1.0
  9
$DIMGAP
 40
0.09
  9
$LUNITS
 70
     2
  9
$LUPREC
 70
     4
  9
$SKETCHINC
 40
0.1
  9
$FILLETRAD
 40
0.0
  9
$AUNITS
 70
     0
  9
$AUPREC
 70
     0
  9
$MENU
  1
E:\r13\win\SUPPORT\ACAD
  9
$ELEVATION
 40
0.0
  9
$PELEVATION
 40
0.0
  9
$THICKNESS
 40
0.0
  9
$LIMCHECK
 70
     0
  9
$BLIPMODE
 70
     0
  9
$CHAMFERA
 40
0.0
  9
$CHAMFERB
 40
0.0
  9
$SKPOLY
 70
     0
  9
$TDCREATE
 40
2449840.605023148
  9
$TDUPDATE
 40
2456681.4295336688
  9
$TDINDWG
 40
0.035436713
  9
$TDUSRTIMER
 40
0.035436713
  9
$USRTIMER
 70
     1
  9
$ANGBASE
 50
0.0
  9
$ANGDIR
 70
     0
  9
$PDMODE
 70
     0
  9
$PDSIZE
 40
0.0
  9
$PLINEWID
 40
0.0
  9
$COORDS
 70
     1
  9
$SPLFRAME
 70
     0
  9
$SPLINETYPE
 70
     6
  9
$SPLINESEGS
 70
     8
  9
$ATTDIA
 70
     0
  9
$ATTREQ
 70
     1
  9
$HANDLING
 70
     1
  9
$HANDSEED
  5
5E1
  9
$SURFTAB1
 70
     6
  9
$SURFTAB2
 70
     6
  9
$SURFTYPE
 70
     6
  9
$SURFU
 70
     6
  9
$SURFV
 70
     6
  9
$UCSNAME
  2

  9
$UCSORG
 10
0.0
 20
0.0
 30
0.0
  9
$UCSXDIR
 10
1.0
 20
0.0
 30
0.0
  9
$UCSYDIR
 10
0.0
 20
1.0
 30
0.0
  9
$PUCSNAME
  2

  9
$PUCSORG
 10
0.0
 20
0.0
 30
0.0
  9
$PUCSXDIR
 10
1.0
 20
0.0
 30
0.0
  9
$PUCSYDIR
 10
0.0
 20
1.0
 30
0.0
  9
$USERI1
 70
     0
  9
$USERI2
 70
     1
  9
$USERI3
 70
     1
  9
$USERI4
 70
     0
  9
$USERI5
 70
     0
  9
$USERR1
 40
0.0
  9
$USERR2
 40
0.0
  9
$USERR3
 40
0.0
  9
$USERR4
 40
0.0
  9
$USERR5
 40
0.0
  9
$WORLDVIEW
 70
     1
  9
$SHADEDGE
 70
     3
  9
$SHADEDIF
 70
    70
  9
$TILEMODE
 70
     1
  9
$MAXACTVP
 70
    16
  9
$PLIMCHECK
 70
     0
  9
$PEXTMIN
 10
1.0000000000000000E+020
 20
1.0000000000000000E+020
 30
1.0000000000000000E+020
  9
$PEXTMAX
 10
-1.0000000000000000E+020
 20
-1.0000000000000000E+020
 30
-1.0000000000000000E+020
  9
$PLIMMIN
 10
0.0
 20
0.0
  9
$PLIMMAX
 10
12.0
 20
9.0
  9
$UNITMODE
 70
     0
  9
$VISRETAIN
 70
     0
  9
$PLINEGEN
 70
     0
  9
$PSLTSCALE
 70
     0
  0
ENDSEC
  0
SECTION
  2
TABLES
  0
TABLE
  2
VPORT
 70
     1
  0
VPORT
  2
*ACTIVE
 70
     0
 10
0.0
 20
0.0
 11
1.0
 21
1.0
 12
157.0931849791377
 22
90.0
 13
0.0
 23
0.0
 14
10.0
 24
10.0
 15
10.0
 25
10.0
 16
0.0
 26
0.0
 36
1.0
 17
0.0
 27
0.0
 37
0.0
 40
180.0
 41
1.7454798331015291
 42
50.0
 43
0.0
 44
0.0
 50
0.0
 51
0.0
 71
     0
 72
   100
 73
     1
 74
     0
 75
     0
 76
     0
 77
     0
 78
     0
  0
ENDTAB
  0
TABLE
  2
LTYPE
 70
     3
  0
LTYPE
  2
CONTINUOUS
 70
     0
  3
Solid Line
 72
    65
 73
     0
 40
0.0
  0
LTYPE
  2
CENTER
 70
     0
  3
____ _ ____ _ ____ _ ____ _ ____ _ ____ _ ____
 72
    65
 73
     4
 40
2.0
 49
1.25
 49
-0.25
 49
0.25
 49
-0.25
  0
LTYPE
  2
PHANTOM2
 70
     0
  3
___ _ _ ___ _ _ ___ _ _ ___ _ _
 72
    65
 73
     6
 40
1.25
 49
0.625
 49
-0.125
 49
0.125
 49
-0.125
 49
0.125
 49
-0.125
  0
ENDTAB
  0
TABLE
  2
LAYER
 70
     3
  0
LAYER
  2
0
 70
     0
 62
     7
  6
CONTINUOUS
  0
LAYER
  2
1
 70
     0
 62
     1
  6
CENTER
  0
LAYER
  2
3
 70
     0
 62
     3
  6
CONTINUOUS
  0
ENDTAB
  0
TABLE
  2
STYLE
 70
     2
  0
STYLE
  2
STANDARD
 70
     0
 40
0.0
 41
1.0
 50
0.0
 71
     0
 42
0.2
  3
TXT
  4
BIGFONT
  0
STYLE
  2
STANDARD1
 70
     0
 40
0.0
 41
1.0
 50
0.0
 71
     0
 42
3.0
  3
txt
  4

  0
ENDTAB
  0
TABLE
  2
VIEW
 70
     1
  0
VIEW
  2
ALL
 70
     0
 40
270.0
 10
220.99159700000001
 20
135.0
 41
0.0
 11
0.0
 21
0.0
 31
1.0
 12
0.0
 22
0.0
 32
0.0
 42
0.0
 43
0.0
 44
0.0
 50
0.0
 71
     0
  0
ENDTAB
  0
TABLE
  2
UCS
 70
     0
  0
ENDTAB
  0
TABLE
  2
APPID
 70
     4
  0
APPID
  2
ACAD
 70
     0
  0
APPID
  2
ACAD_MLEADERVER
 70
     0
  0
APPID
  2
ACAD_NAV_VCDISPLAY
 70
     0
  0
APPID
  2
ACAD_EXEMPT_FROM_CAD_STANDARDS
 70
     0
  0
ENDTAB
  0
TABLE
  2
DIMSTYLE
 70
     1
  0
DIMSTYLE
  2
STANDARD
 70
     0
  3

  4

  5

  6

  7

 40
1.0
 41
0.18
 42
0.0625
 43
0.38
 44
0.18
 45
0.0
 46
0.0
 47
0.0
 48
0.0
140
0.18
141
0.09
142
0.0
143
25.399999999999999
144
1.0
145
0.0
146
1.0
147
0.09
 71
     0
 72
     0
 73
     1
 74
     1
 75
     0
 76
     0
 77
     0
 78
     0
170
     0
171
     2
172
     0
173
     0
174
     0
175
     0
176
     0
177
     0
178
     0
  0
ENDTAB
  0
ENDSEC
  0
SECTION
  2
BLOCKS
  0
BLOCK
  8
0
  2
$MODEL_SPACE
 70
     0
 10
0.0
 20
0.0
 30
0.0
  3
$MODEL_SPACE
  1

  0
ENDBLK
  5
191
  8
0
  0
BLOCK
 67
     1
  8
0
  2
$PAPER_SPACE
 70
     0
 10
0.0
 20
0.0
 30
0.0
  3
$PAPER_SPACE
  1

  0
ENDBLK
  5
18F
 67
     1
  8
0
  0
ENDSEC
  0
SECTION
  2
ENTITIES
  0
LINE
  5
34
  8
1
 10
235.0
 20
70.0
 30
0.0
 11
162.0
 21
70.0
 31
0.0
  0
LINE
  5
35
  8
0
 10
230.0
 20
73.5
 30
0.0
 11
228.5
 21
75.0
 31
0.0
  0
LINE
  5
36
  8
0
 10
228.5
 20
75.0
 30
0.0
 11
193.0
 21
75.0
 31
0.0
  0
LINE
  5
37
  8
0
 10
192.19999999999999
 20
73.849999999999994
 30
0.0
 11
190.80000000000001
 21
73.849999999999994
 31
0.0
  0
LINE
  5
38
  8
0
 10
190.0
 20
79.199999999999989
 30
0.0
 11
189.19999999999999
 21
80.0
 31
0.0
  0
ARC
  5
39
  8
0
 10
190.80000000000001
 20
74.650000000000006
 30
0.0
 40
0.8
 50
180.0
 51
270.0
  0
LINE
  5
3A
  8
0
 10
167.0
 20
87.199999999999974
 30
0.0
 11
167.80000000000001
 21
88.0
 31
0.0
  0
LINE
  5
3B
  8
0
 10
167.80000000000001
 20
88.0
 30
0.0
 11
174.19999999999999
 21
88.0
 31
0.0
  0
LINE
  5
3C
  8
0
 10
174.19999999999999
 20
88.0
 30
0.0
 11
175.0
 21
87.199999999999974
 31
0.0
  0
LINE
  5
3D
  8
0
 10
177.0
 20
80.0
 30
0.0
 11
189.19999999999999
 21
80.0
 31
0.0
  0
ARC
  5
3E
  8
0
 10
177.0
 20
82.0
 30
0.0
 40
2.0
 50
180.0
 51
270.0
  0
ARC
  5
3F
  8
0
 10
192.19999999999999
 20
74.650000000000006
 30
0.0
 40
0.8
 50
270.0
 51
0.0
  0
LINE
  5
40
  8
3
 10
174.19999999999999
 20
86.038116999999986
 30
0.0
 11
167.80000000000001
 21
86.038116999999986
 31
0.0
  0
LINE
  5
41
  8
3
 10
174.19999999999999
 20
85.588457000000005
 30
0.0
 11
167.80000000000001
 21
85.588457000000005
 31
0.0
  0
LINE
  5
42
  8
3
 10
174.19999999999999
 20
85.096069999999997
 30
0.0
 11
167.80000000000001
 21
85.096069999999997
 31
0.0
  0
LINE
  5
43
  8
3
 10
174.19999999999999
 20
84.562306000000007
 30
0.0
 11
167.80000000000001
 21
84.562306000000007
 31
0.0
  0
LINE
  5
44
  8
3
 10
174.19999999999999
 20
83.988626999999994
 30
0.0
 11
167.80000000000001
 21
83.988626999999994
 31
0.0
  0
LINE
  5
45
  8
3
 10
174.19999999999999
 20
83.376607000000007
 30
0.0
 11
167.80000000000001
 21
83.376607000000007
 31
0.0
  0
LINE
  5
46
  8
3
 10
174.19999999999999
 20
82.727922000000007
 30
0.0
 11
167.80000000000001
 21
82.727922000000007
 31
0.0
  0
LINE
  5
47
  8
3
 10
174.19999999999999
 20
82.044351000000006
 30
0.0
 11
167.80000000000001
 21
82.044351000000006
 31
0.0
  0
LINE
  5
48
  8
3
 10
174.19999999999999
 20
81.327766999999994
 30
0.0
 11
167.80000000000001
 21
81.327766999999994
 31
0.0
  0
LINE
  5
49
  8
3
 10
174.19999999999999
 20
80.580135000000013
 30
0.0
 11
167.80000000000001
 21
80.580135000000013
 31
0.0
  0
LINE
  5
4A
  8
3
 10
174.19999999999999
 20
79.803503000000006
 30
0.0
 11
167.80000000000001
 21
79.803503000000006
 31
0.0
  0
LINE
  5
4B
  8
3
 10
174.19999999999999
 20
79.0
 30
0.0
 11
167.80000000000001
 21
79.0
 31
0.0
  0
LINE
  5
4C
  8
3
 10
174.19999999999999
 20
78.171829000000002
 30
0.0
 11
167.80000000000001
 21
78.171829000000002
 31
0.0
  0
LINE
  5
4D
  8
3
 10
174.19999999999999
 20
77.321259999999995
 30
0.0
 11
167.80000000000001
 21
77.321259999999995
 31
0.0
  0
LINE
  5
4E
  8
3
 10
174.19999999999999
 20
76.450623000000007
 30
0.0
 11
167.80000000000001
 21
76.450623000000007
 31
0.0
  0
LINE
  5
4F
  8
3
 10
174.19999999999999
 20
75.562306000000007
 30
0.0
 11
167.80000000000001
 21
75.562306000000007
 31
0.0
  0
LINE
  5
50
  8
3
 10
174.19999999999999
 20
74.658742999999987
 30
0.0
 11
167.80000000000001
 21
74.658742999999987
 31
0.0
  0
LINE
  5
51
  8
3
 10
174.19999999999999
 20
73.742410000000007
 30
0.0
 11
167.80000000000001
 21
73.742410000000007
 31
0.0
  0
LINE
  5
52
  8
3
 10
174.19999999999999
 20
72.815820000000002
 30
0.0
 11
167.80000000000001
 21
72.815820000000002
 31
0.0
  0
LINE
  5
53
  8
3
 10
174.19999999999999
 20
71.881512000000015
 30
0.0
 11
167.80000000000001
 21
71.881512000000015
 31
0.0
  0
LINE
  5
54
  8
3
 10
174.19999999999999
 20
70.942047000000002
 30
0.0
 11
167.80000000000001
 21
70.942047000000002
 31
0.0
  0
LINE
  5
55
  8
3
 10
174.19999999999999
 20
86.443817999999993
 30
0.0
 11
167.80000000000001
 21
86.443817999999993
 31
0.0
  0
LINE
  5
56
  8
3
 10
174.19999999999999
 20
86.804448000000008
 30
0.0
 11
167.80000000000001
 21
86.804448000000008
 31
0.0
  0
LINE
  5
57
  8
3
 10
174.19999999999999
 20
87.119016999999985
 30
0.0
 11
167.80000000000001
 21
87.119016999999985
 31
0.0
  0
LINE
  5
58
  8
3
 10
174.19999999999999
 20
87.386664999999994
 30
0.0
 11
167.80000000000001
 21
87.386664999999994
 31
0.0
  0
LINE
  5
59
  8
3
 10
174.19999999999999
 20
87.606657000000027
 30
0.0
 11
167.80000000000001
 21
87.606657000000027
 31
0.0
  0
LINE
  5
5A
  8
3
 10
174.19999999999999
 20
87.778390000000002
 30
0.0
 11
167.80000000000001
 21
87.778390000000002
 31
0.0
  0
LINE
  5
5B
  8
3
 10
174.19999999999999
 20
87.901393999999996
 30
0.0
 11
167.80000000000001
 21
87.901393999999996
 31
0.0
  0
LINE
  5
5C
  8
3
 10
174.19999999999999
 20
87.975332000000009
 30
0.0
 11
167.80000000000001
 21
87.975332000000009
 31
0.0
  0
LINE
  5
5D
  8
3
 10
174.19999999999999
 20
52.024667999999991
 30
0.0
 11
167.80000000000001
 21
52.024667999999991
 31
0.0
  0
LINE
  5
5E
  8
3
 10
174.19999999999999
 20
52.098605999999997
 30
0.0
 11
167.80000000000001
 21
52.098605999999997
 31
0.0
  0
LINE
  5
5F
  8
3
 10
174.19999999999999
 20
52.221610000000013
 30
0.0
 11
167.80000000000001
 21
52.221610000000013
 31
0.0
  0
LINE
  5
60
  8
3
 10
174.19999999999999
 20
52.393342999999987
 30
0.0
 11
167.80000000000001
 21
52.393342999999987
 31
0.0
  0
LINE
  5
61
  8
3
 10
174.19999999999999
 20
52.613334999999999
 30
0.0
 11
167.80000000000001
 21
52.613334999999999
 31
0.0
  0
LINE
  5
62
  8
3
 10
174.19999999999999
 20
52.880983000000001
 30
0.0
 11
167.80000000000001
 21
52.880983000000001
 31
0.0
  0
LINE
  5
63
  8
3
 10
174.19999999999999
 20
53.195551999999999
 30
0.0
 11
167.80000000000001
 21
53.195551999999999
 31
0.0
  0
LINE
  5
64
  8
3
 10
174.19999999999999
 20
53.556182000000007
 30
0.0
 11
167.80000000000001
 21
53.556182000000007
 31
0.0
  0
LINE
  5
65
  8
3
 10
174.19999999999999
 20
69.057952999999998
 30
0.0
 11
167.80000000000001
 21
69.057952999999998
 31
0.0
  0
LINE
  5
66
  8
3
 10
174.19999999999999
 20
68.118487999999985
 30
0.0
 11
167.80000000000001
 21
68.118487999999985
 31
0.0
  0
LINE
  5
67
  8
3
 10
174.19999999999999
 20
67.184179999999984
 30
0.0
 11
167.80000000000001
 21
67.184179999999984
 31
0.0
  0
LINE
  5
68
  8
3
 10
174.19999999999999
 20
66.257589999999993
 30
0.0
 11
167.80000000000001
 21
66.257589999999993
 31
0.0
  0
LINE
  5
69
  8
3
 10
174.19999999999999
 20
65.341257000000013
 30
0.0
 11
167.80000000000001
 21
65.341257000000013
 31
0.0
  0
LINE
  5
6A
  8
3
 10
174.19999999999999
 20
64.437693999999993
 30
0.0
 11
167.80000000000001
 21
64.437693999999993
 31
0.0
  0
LINE
  5
6B
  8
3
 10
174.19999999999999
 20
63.549377
 30
0.0
 11
167.80000000000001
 21
63.549377
 31
0.0
  0
LINE
  5
6C
  8
3
 10
174.19999999999999
 20
62.678739999999991
 30
0.0
 11
167.80000000000001
 21
62.678739999999991
 31
0.0
  0
LINE
  5
6D
  8
3
 10
174.19999999999999
 20
61.828170999999998
 30
0.0
 11
167.80000000000001
 21
61.828170999999998
 31
0.0
  0
LINE
  5
6E
  8
3
 10
174.19999999999999
 20
61.0
 30
0.0
 11
167.80000000000001
 21
61.0
 31
0.0
  0
LINE
  5
6F
  8
3
 10
174.19999999999999
 20
60.196496999999987
 30
0.0
 11
167.80000000000001
 21
60.196496999999987
 31
0.0
  0
LINE
  5
70
  8
3
 10
174.19999999999999
 20
59.41986499999998
 30
0.0
 11
167.80000000000001
 21
59.41986499999998
 31
0.0
  0
LINE
  5
71
  8
3
 10
174.19999999999999
 20
58.672232999999999
 30
0.0
 11
167.80000000000001
 21
58.672232999999999
 31
0.0
  0
LINE
  5
72
  8
3
 10
174.19999999999999
 20
57.955648999999987
 30
0.0
 11
167.80000000000001
 21
57.955648999999987
 31
0.0
  0
LINE
  5
73
  8
3
 10
174.19999999999999
 20
57.272078000000008
 30
0.0
 11
167.80000000000001
 21
57.272078000000008
 31
0.0
  0
LINE
  5
74
  8
3
 10
174.19999999999999
 20
56.623392999999993
 30
0.0
 11
167.80000000000001
 21
56.623392999999993
 31
0.0
  0
LINE
  5
75
  8
3
 10
174.19999999999999
 20
56.011372999999992
 30
0.0
 11
167.80000000000001
 21
56.011372999999992
 31
0.0
  0
LINE
  5
76
  8
3
 10
174.19999999999999
 20
55.437693999999993
 30
0.0
 11
167.80000000000001
 21
55.437693999999993
 31
0.0
  0
LINE
  5
77
  8
3
 10
174.19999999999999
 20
54.903930000000003
 30
0.0
 11
167.80000000000001
 21
54.903930000000003
 31
0.0
  0
LINE
  5
78
  8
3
 10
174.19999999999999
 20
54.411542999999988
 30
0.0
 11
167.80000000000001
 21
54.411542999999988
 31
0.0
  0
LINE
  5
79
  8
3
 10
174.19999999999999
 20
53.961883000000022
 30
0.0
 11
167.80000000000001
 21
53.961883000000022
 31
0.0
  0
ARC
  5
7A
  8
0
 10
192.19999999999999
 20
65.349999999999994
 30
0.0
 40
0.8
 50
0.0
 51
90.0
  0
ARC
  5
7B
  8
0
 10
177.0
 20
58.0
 30
0.0
 40
2.0
 50
90.0
 51
180.0
  0
LINE
  5
7C
  8
0
 10
177.0
 20
60.0
 30
0.0
 11
189.19999999999999
 21
60.0
 31
0.0
  0
LINE
  5
7D
  8
0
 10
174.19999999999999
 20
52.0
 30
0.0
 11
175.0
 21
52.799999999999997
 31
0.0
  0
LINE
  5
7E
  8
0
 10
167.80000000000001
 20
52.0
 30
0.0
 11
174.19999999999999
 21
52.0
 31
0.0
  0
LINE
  5
7F
  8
0
 10
167.0
 20
52.799999999999997
 30
0.0
 11
167.80000000000001
 21
52.0
 31
0.0
  0
ARC
  5
80
  8
0
 10
190.80000000000001
 20
65.349999999999994
 30
0.0
 40
0.8
 50
90.0
 51
180.0
  0
LINE
  5
81
  8
0
 10
190.0
 20
60.799999999999997
 30
0.0
 11
189.19999999999999
 21
60.0
 31
0.0
  0
LINE
  5
82
  8
0
 10
192.19999999999999
 20
66.150000000000006
 30
0.0
 11
190.80000000000001
 21
66.150000000000006
 31
0.0
  0
LINE
  5
83
  8
0
 10
228.5
 20
65.0
 30
0.0
 11
193.0
 21
65.0
 31
0.0
  0
LINE
  5
84
  8
0
 10
230.0
 20
66.5
 30
0.0
 11
228.5
 21
65.0
 31
0.0
  0
LINE
  5
85
  8
3
 10
229.31200000000001
 20
74.187999999999988
 30
0.0
 11
192.85311300000001
 21
74.187999999999988
 31
0.0
  0
LINE
  5
86
  8
3
 10
229.31200000000001
 20
65.812000000000012
 30
0.0
 11
192.85311300000001
 21
65.812000000000012
 31
0.0
  0
LINE
  5
87
  8
0
 10
230.0
 20
73.5
 30
0.0
 11
230.0
 21
66.5
 31
0.0
  0
LINE
  5
88
  8
0
 10
228.5
 20
75.0
 30
0.0
 11
228.5
 21
65.0
 31
0.0
  0
LINE
  5
89
  8
0
 10
193.0
 20
75.0
 30
0.0
 11
193.0
 21
65.0
 31
0.0
  0
LINE
  5
8A
  8
0
 10
190.0
 20
79.199999999999989
 30
0.0
 11
190.0
 21
60.799999999999997
 31
0.0
  0
LINE
  5
8B
  8
0
 10
189.19999999999999
 20
80.0
 30
0.0
 11
189.19999999999999
 21
60.0
 31
0.0
  0
LINE
  5
8C
  8
0
 10
175.0
 20
87.199999999999974
 30
0.0
 11
175.0
 21
52.799999999999997
 31
0.0
  0
LINE
  5
8D
  8
0
 10
167.0
 20
87.199999999999974
 30
0.0
 11
167.0
 21
52.799999999999997
 31
0.0
  0
LINE
  5
8E
  8
0
 10
174.19999999999999
 20
88.0
 30
0.0
 11
174.19999999999999
 21
52.0
 31
0.0
  0
LINE
  5
8F
  8
0
 10
167.80000000000001
 20
88.0
 30
0.0
 11
167.80000000000001
 21
52.0
 31
0.0
  0
LINE
  5
90
  8
3
 10
174.11432600000001
 20
70.053676999999993
 30
0.0
 11
167.83027100000001
 21
70.053676999999993
 31
0.0
  0
CIRCLE
  5
14B
  8
0
 10
90.0
 20
70.0
 30
0.0
 40
18.0
  0
CIRCLE
  5
14C
  8
0
 10
290.0
 20
70.0
 30
0.0
 40
18.0
  0
CIRCLE
  5
14D
  8
0
 10
290.0
 20
70.0
 30
0.0
 40
10.0
  0
CIRCLE
  5
14E
  8
0
 10
290.0
 20
70.0
 30
0.0
 40
5.0
  0
CIRCLE
  5
14F
  8
3
 10
290.0
 20
70.0
 30
0.0
 40
4.1879999999999988
  0
CIRCLE
  5
150
  8
0
 10
90.0
 20
70.0
 30
0.0
 40
17.199999999999999
  0
CIRCLE
  5
151
  8
0
 10
290.0
 20
70.0
 30
0.0
 40
17.199999999999999
  0
CIRCLE
  5
152
  8
0
 10
290.0
 20
70.0
 30
0.0
 40
9.1999999999999993
  0
LINE
  5
153
  8
1
 10
112.2
 20
70.0
 30
0.0
 11
67.799999999999997
 21
70.0
 31
0.0
  0
LINE
  5
154
  8
1
 10
90.0
 20
92.199999999999974
 30
0.0
 11
90.0
 21
47.799999999999997
 31
0.0
  0
LINE
  5
155
  8
1
 10
313.0
 20
70.0
 30
0.0
 11
267.0
 21
70.0
 31
0.0
  0
LINE
  5
156
  8
1
 10
290.0
 20
93.0
 30
0.0
 11
290.0
 21
47.0
 31
0.0
  0
TEXT
  5
2B4
  8
0
 62
     3
 10
0.0
 20
0.0
 30
0.0
 40
10.0
  1
TKS10X40
  7
STANDARD1
  0
ENDSEC
  0
EOF
