  0
SECTION
  2
HEADER
  9
$ACADVER
  1
AC1009
  9
$INSBASE
 10
0.0
 20
0.0
 30
0.0
  9
$EXTMIN
 10
0.0
 20
-2.960436562073669
 30
0.0
  9
$EXTMAX
 10
152.5
 20
115.0
 30
0.0
  9
$LIMMIN
 10
0.0
 20
0.0
  9
$LIMMAX
 10
187.5
 20
135.0
  9
$ORTHOMODE
 70
     1
  9
$REGENMODE
 70
     1
  9
$FILLMODE
 70
     1
  9
$QTEXTMODE
 70
     0
  9
$MIRRTEXT
 70
     0
  9
$DRAGMODE
 70
     2
  9
$LTSCALE
 40
5.0
  9
$OSMODE
 70
    55
  9
$ATTMODE
 70
     1
  9
$TEXTSIZE
 40
0.2
  9
$TRACEWID
 40
0.05
  9
$TEXTSTYLE
  7
STANDARD
  9
$CLAYER
  8
0
  9
$CELTYPE
  6
BYLAYER
  9
$CECOLOR
 62
   256
  9
$DIMSCALE
 40
0.5
  9
$DIMASZ
 40
3.0
  9
$DIMEXO
 40
2.0
  9
$DIMDLI
 40
0.38
  9
$DIMRND
 40
0.0
  9
$DIMDLE
 40
0.0
  9
$DIMEXE
 40
2.0
  9
$DIMTP
 40
0.0
  9
$DIMTM
 40
0.0
  9
$DIMTXT
 40
3.2000000000000002
  9
$DIMCEN
 40
0.09
  9
$DIMTSZ
 40
0.0
  9
$DIMTOL
 70
     0
  9
$DIMLIM
 70
     0
  9
$DIMTIH
 70
     0
  9
$DIMTOH
 70
     0
  9
$DIMSE1
 70
     0
  9
$DIMSE2
 70
     0
  9
$DIMTAD
 70
     1
  9
$DIMZIN
 70
     0
  9
$DIMBLK
  1

  9
$DIMASO
 70
     1
  9
$DIMSHO
 70
     0
  9
$DIMPOST
  1

  9
$DIMAPOST
  1

  9
$DIMALT
 70
     0
  9
$DIMALTD
 70
     2
  9
$DIMALTF
 40
25.399999999999999
  9
$DIMLFAC
 40
1.0
  9
$DIMTOFL
 70
     0
  9
$DIMTVP
 40
0.0
  9
$DIMTIX
 70
     0
  9
$DIMSOXD
 70
     0
  9
$DIMSAH
 70
     0
  9
$DIMBLK1
  1

  9
$DIMBLK2
  1

  9
$DIMSTYLE
  2
STANDARD
  9
$DIMCLRD
 70
     0
  9
$DIMCLRE
 70
     0
  9
$DIMCLRT
 70
     0
  9
$DIMTFAC
 40
1.0
  9
$DIMGAP
 40
0.09
  9
$LUNITS
 70
     2
  9
$LUPREC
 70
     4
  9
$SKETCHINC
 40
0.1
  9
$FILLETRAD
 40
0.0
  9
$AUNITS
 70
     0
  9
$AUPREC
 70
     0
  9
$MENU
  1
E:\r13\win\SUPPORT\ACAD
  9
$ELEVATION
 40
0.0
  9
$PELEVATION
 40
0.0
  9
$THICKNESS
 40
0.0
  9
$LIMCHECK
 70
     0
  9
$BLIPMODE
 70
     0
  9
$CHAMFERA
 40
0.0
  9
$CHAMFERB
 40
0.0
  9
$SKPOLY
 70
     0
  9
$TDCREATE
 40
2449840.605104167
  9
$TDUPDATE
 40
2456598.4464867129
  9
$TDINDWG
 40
0.0001569676
  9
$TDUSRTIMER
 40
0.0001569676
  9
$USRTIMER
 70
     1
  9
$ANGBASE
 50
0.0
  9
$ANGDIR
 70
     0
  9
$PDMODE
 70
     0
  9
$PDSIZE
 40
0.0
  9
$PLINEWID
 40
0.0
  9
$COORDS
 70
     1
  9
$SPLFRAME
 70
     0
  9
$SPLINETYPE
 70
     6
  9
$SPLINESEGS
 70
     8
  9
$ATTDIA
 70
     0
  9
$ATTREQ
 70
     1
  9
$HANDLING
 70
     1
  9
$HANDSEED
  5
306
  9
$SURFTAB1
 70
     6
  9
$SURFTAB2
 70
     6
  9
$SURFTYPE
 70
     6
  9
$SURFU
 70
     6
  9
$SURFV
 70
     6
  9
$UCSNAME
  2

  9
$UCSORG
 10
0.0
 20
0.0
 30
0.0
  9
$UCSXDIR
 10
1.0
 20
0.0
 30
0.0
  9
$UCSYDIR
 10
0.0
 20
1.0
 30
0.0
  9
$PUCSNAME
  2

  9
$PUCSORG
 10
0.0
 20
0.0
 30
0.0
  9
$PUCSXDIR
 10
1.0
 20
0.0
 30
0.0
  9
$PUCSYDIR
 10
0.0
 20
1.0
 30
0.0
  9
$USERI1
 70
     0
  9
$USERI2
 70
     1
  9
$USERI3
 70
     1
  9
$USERI4
 70
     0
  9
$USERI5
 70
     0
  9
$USERR1
 40
0.0
  9
$USERR2
 40
0.0
  9
$USERR3
 40
0.0
  9
$USERR4
 40
0.0
  9
$USERR5
 40
0.0
  9
$WORLDVIEW
 70
     1
  9
$SHADEDGE
 70
     3
  9
$SHADEDIF
 70
    70
  9
$TILEMODE
 70
     1
  9
$MAXACTVP
 70
    16
  9
$PLIMCHECK
 70
     0
  9
$PEXTMIN
 10
1.0000000000000000E+020
 20
1.0000000000000000E+020
 30
1.0000000000000000E+020
  9
$PEXTMAX
 10
-1.0000000000000000E+020
 20
-1.0000000000000000E+020
 30
-1.0000000000000000E+020
  9
$PLIMMIN
 10
0.0
 20
0.0
  9
$PLIMMAX
 10
12.0
 20
9.0
  9
$UNITMODE
 70
     0
  9
$VISRETAIN
 70
     0
  9
$PLINEGEN
 70
     0
  9
$PSLTSCALE
 70
     0
  0
ENDSEC
  0
SECTION
  2
TABLES
  0
TABLE
  2
VPORT
 70
     1
  0
VPORT
  2
*ACTIVE
 70
     0
 10
0.0
 20
0.0
 11
1.0
 21
1.0
 12
93.74713919532617
 22
98.129098027095807
 13
0.0
 23
0.0
 14
5.0
 24
5.0
 15
5.0
 25
5.0
 16
0.0
 26
0.0
 36
1.0
 17
0.0
 27
0.0
 37
0.0
 40
203.97931595516741
 41
1.7807262569832401
 42
50.0
 43
0.0
 44
0.0
 50
0.0
 51
0.0
 71
     0
 72
   100
 73
     1
 74
     0
 75
     0
 76
     0
 77
     0
 78
     0
  0
ENDTAB
  0
TABLE
  2
LTYPE
 70
     4
  0
LTYPE
  2
CONTINUOUS
 70
     0
  3
Solid Line
 72
    65
 73
     0
 40
0.0
  0
LTYPE
  2
CENTER
 70
     0
  3
____ _ ____ _ ____ _ ____ _ ____ _ ____ _ ____
 72
    65
 73
     4
 40
2.0
 49
1.25
 49
-0.25
 49
0.25
 49
-0.25
  0
LTYPE
  2
HIDDEN
 70
     0
  3
_ _ _ _ _ _ _ _ _ _ _ _ _ _ _ _ _ _ _ _ _ _ _
 72
    65
 73
     2
 40
0.375
 49
0.25
 49
-0.125
  0
LTYPE
  2
PHANTOM2
 70
     0
  3
___ _ _ ___ _ _ ___ _ _ ___ _ _
 72
    65
 73
     6
 40
1.25
 49
0.625
 49
-0.125
 49
0.125
 49
-0.125
 49
0.125
 49
-0.125
  0
ENDTAB
  0
TABLE
  2
LAYER
 70
     4
  0
LAYER
  2
0
 70
     0
 62
     7
  6
CONTINUOUS
  0
LAYER
  2
1
 70
     0
 62
     1
  6
CENTER
  0
LAYER
  2
2
 70
     0
 62
     2
  6
HIDDEN
  0
LAYER
  2
3
 70
     0
 62
     3
  6
CONTINUOUS
  0
ENDTAB
  0
TABLE
  2
STYLE
 70
     2
  0
STYLE
  2
STANDARD
 70
     0
 40
0.0
 41
1.0
 50
0.0
 71
     0
 42
0.2
  3
TXT
  4
BIGFONT
  0
STYLE
  2
STANDARD1
 70
     0
 40
0.0
 41
1.0
 50
0.0
 71
     0
 42
3.0
  3
txt
  4

  0
ENDTAB
  0
TABLE
  2
VIEW
 70
     1
  0
VIEW
  2
ALL
 70
     0
 40
135.0
 10
110.49579799999999
 20
67.5
 41
0.0
 11
0.0
 21
0.0
 31
1.0
 12
0.0
 22
0.0
 32
0.0
 42
0.0
 43
0.0
 44
0.0
 50
0.0
 71
     0
  0
ENDTAB
  0
TABLE
  2
UCS
 70
     0
  0
ENDTAB
  0
TABLE
  2
APPID
 70
     3
  0
APPID
  2
ACAD
 70
     0
  0
APPID
  2
ACAD_MLEADERVER
 70
     0
  0
APPID
  2
ACAD_NAV_VCDISPLAY
 70
     0
  0
ENDTAB
  0
TABLE
  2
DIMSTYLE
 70
     1
  0
DIMSTYLE
  2
STANDARD
 70
     0
  3

  4

  5

  6

  7

 40
1.0
 41
0.18
 42
0.0625
 43
0.38
 44
0.18
 45
0.0
 46
0.0
 47
0.0
 48
0.0
140
0.18
141
0.09
142
0.0
143
25.399999999999999
144
1.0
145
0.0
146
1.0
147
0.09
 71
     0
 72
     0
 73
     1
 74
     1
 75
     0
 76
     0
 77
     0
 78
     0
170
     0
171
     2
172
     0
173
     0
174
     0
175
     0
176
     0
177
     0
178
     0
  0
ENDTAB
  0
ENDSEC
  0
SECTION
  2
BLOCKS
  0
BLOCK
  8
0
  2
$MODEL_SPACE
 70
     0
 10
0.0
 20
0.0
 30
0.0
  3
$MODEL_SPACE
  1

  0
ENDBLK
  5
14C
  8
0
  0
BLOCK
 67
     1
  8
0
  2
$PAPER_SPACE
 70
     0
 10
0.0
 20
0.0
 30
0.0
  3
$PAPER_SPACE
  1

  0
ENDBLK
  5
14A
 67
     1
  8
0
  0
ENDSEC
  0
SECTION
  2
ENTITIES
  0
LINE
  5
36
  8
2
 10
99.0
 20
62.933
 30
0.0
 11
99.0
 21
65.0
 31
0.0
  0
LINE
  5
37
  8
2
 10
89.500000000000014
 20
62.933
 30
0.0
 11
89.500000000000014
 21
65.0
 31
0.0
  0
LINE
  5
38
  8
2
 10
99.0
 20
62.933
 30
0.0
 11
100.0
 21
61.933
 31
0.0
  0
LINE
  5
39
  8
2
 10
88.499999999999986
 20
61.933
 30
0.0
 11
89.500000000000014
 21
62.933
 31
0.0
  0
LINE
  5
3A
  8
2
 10
99.433000000000007
 20
62.5
 30
0.0
 11
89.066999999999993
 21
62.5
 31
0.0
  0
LINE
  5
3B
  8
2
 10
99.0
 20
62.933
 30
0.0
 11
89.500000000000014
 21
62.933
 31
0.0
  0
LINE
  5
3C
  8
1
 10
86.0
 20
65.0
 30
0.0
 11
102.5
 21
65.0
 31
0.0
  0
LINE
  5
3D
  8
3
 10
88.900000000000006
 20
65.784591000000006
 30
0.0
 11
92.099999999999994
 21
65.784591000000006
 31
0.0
  0
LINE
  5
3E
  8
3
 10
88.900000000000006
 20
66.564344999999989
 30
0.0
 11
92.099999999999994
 21
66.564344999999989
 31
0.0
  0
LINE
  5
3F
  8
3
 10
88.900000000000006
 20
67.334453999999994
 30
0.0
 11
92.099999999999994
 21
67.334453999999994
 31
0.0
  0
LINE
  5
40
  8
3
 10
88.900000000000006
 20
68.071117999999998
 30
0.0
 11
92.099999999999994
 21
68.071117999999998
 31
0.0
  0
LINE
  5
41
  8
3
 10
88.900000000000006
 20
68.826833999999991
 30
0.0
 11
92.099999999999994
 21
68.826833999999991
 31
0.0
  0
LINE
  5
42
  8
3
 10
88.900000000000006
 20
69.539905000000005
 30
0.0
 11
92.099999999999994
 21
69.539905000000005
 31
0.0
  0
LINE
  5
43
  8
3
 10
88.900000000000006
 20
70.224986000000001
 30
0.0
 11
92.099999999999994
 21
70.224986000000001
 31
0.0
  0
LINE
  5
44
  8
3
 10
88.900000000000006
 20
70.877853000000002
 30
0.0
 11
92.099999999999994
 21
70.877853000000002
 31
0.0
  0
LINE
  5
45
  8
3
 10
88.900000000000006
 20
71.613118999999998
 30
0.0
 11
92.099999999999994
 21
71.613118999999998
 31
0.0
  0
LINE
  5
46
  8
3
 10
88.900000000000006
 20
72.289686000000003
 30
0.0
 11
92.099999999999994
 21
72.289686000000003
 31
0.0
  0
LINE
  5
47
  8
3
 10
88.900000000000006
 20
72.90155
 30
0.0
 11
92.099999999999994
 21
72.90155
 31
0.0
  0
LINE
  5
48
  8
3
 10
88.900000000000006
 20
73.443279000000004
 30
0.0
 11
92.099999999999994
 21
73.443279000000004
 31
0.0
  0
LINE
  5
49
  8
3
 10
88.900000000000006
 20
73.910065000000003
 30
0.0
 11
92.099999999999994
 21
73.910065000000003
 31
0.0
  0
LINE
  5
4A
  8
3
 10
88.900000000000006
 20
74.297764999999998
 30
0.0
 11
92.099999999999994
 21
74.297764999999998
 31
0.0
  0
LINE
  5
4B
  8
3
 10
88.900000000000006
 20
74.602936999999997
 30
0.0
 11
92.099999999999994
 21
74.602936999999997
 31
0.0
  0
LINE
  5
4C
  8
3
 10
88.900000000000006
 20
74.822873000000001
 30
0.0
 11
92.099999999999994
 21
74.822873000000001
 31
0.0
  0
LINE
  5
4D
  8
3
 10
88.900000000000006
 20
74.955619999999996
 30
0.0
 11
92.099999999999994
 21
74.955619999999996
 31
0.0
  0
LINE
  5
4E
  8
0
 10
99.599999999999994
 20
70.0
 30
0.0
 11
99.599999999999994
 21
60.0
 31
0.0
  0
LINE
  5
4F
  8
0
 10
88.900000000000006
 20
75.0
 30
0.0
 11
88.900000000000006
 21
55.0
 31
0.0
  0
LINE
  5
50
  8
0
 10
92.5
 20
71.0
 30
0.0
 11
92.5
 21
55.399999999999999
 31
0.0
  0
LINE
  5
51
  8
0
 10
92.099999999999994
 20
75.0
 30
0.0
 11
92.099999999999994
 21
55.0
 31
0.0
  0
LINE
  5
52
  8
0
 10
100.0
 20
69.599999999999994
 30
0.0
 11
100.0
 21
60.399999999999999
 31
0.0
  0
LINE
  5
53
  8
0
 10
88.499999999999986
 20
74.599999999999994
 30
0.0
 11
88.499999999999986
 21
55.399999999999999
 31
0.0
  0
LINE
  5
54
  8
0
 10
88.499999999999986
 20
55.399999999999999
 30
0.0
 11
88.900000000000006
 21
55.0
 31
0.0
  0
LINE
  5
55
  8
0
 10
92.099999999999994
 20
55.0
 30
0.0
 11
92.5
 21
55.399999999999999
 31
0.0
  0
ARC
  5
56
  8
0
 10
93.499999999999986
 20
59.0
 30
0.0
 40
1.0
 50
90.0
 51
180.0
  0
LINE
  5
57
  8
0
 10
99.599999999999994
 20
60.0
 30
0.0
 11
100.0
 21
60.399999999999999
 31
0.0
  0
LINE
  5
58
  8
0
 10
93.499999999999986
 20
60.0
 30
0.0
 11
99.599999999999994
 21
60.0
 31
0.0
  0
LINE
  5
59
  8
0
 10
93.499999999999986
 20
70.0
 30
0.0
 11
99.599999999999994
 21
70.0
 31
0.0
  0
LINE
  5
5A
  8
0
 10
99.599999999999994
 20
70.0
 30
0.0
 11
100.0
 21
69.599999999999994
 31
0.0
  0
ARC
  5
5B
  8
0
 10
93.499999999999986
 20
71.0
 30
0.0
 40
1.0
 50
180.0
 51
270.0
  0
LINE
  5
5C
  8
0
 10
92.5
 20
74.599999999999994
 30
0.0
 11
92.5
 21
71.0
 31
0.0
  0
LINE
  5
5D
  8
0
 10
92.099999999999994
 20
75.0
 30
0.0
 11
92.5
 21
74.599999999999994
 31
0.0
  0
LINE
  5
5E
  8
0
 10
88.900000000000006
 20
75.0
 30
0.0
 11
92.099999999999994
 21
75.0
 31
0.0
  0
LINE
  5
5F
  8
0
 10
88.499999999999986
 20
74.599999999999994
 30
0.0
 11
88.900000000000006
 21
75.0
 31
0.0
  0
LINE
  5
60
  8
3
 10
88.900000000000006
 20
65.0
 30
0.0
 11
92.099999999999994
 21
65.0
 31
0.0
  0
LINE
  5
61
  8
2
 10
99.0
 20
67.066999999999993
 30
0.0
 11
89.500000000000014
 21
67.066999999999993
 31
0.0
  0
LINE
  5
62
  8
2
 10
99.433000000000007
 20
67.5
 30
0.0
 11
89.066999999999993
 21
67.5
 31
0.0
  0
LINE
  5
63
  8
2
 10
88.499999999999986
 20
68.066999999999993
 30
0.0
 11
89.500000000000014
 21
67.066999999999993
 31
0.0
  0
LINE
  5
64
  8
2
 10
99.0
 20
67.066999999999993
 30
0.0
 11
100.0
 21
68.066999999999993
 31
0.0
  0
LINE
  5
65
  8
2
 10
89.500000000000014
 20
67.066999999999993
 30
0.0
 11
89.500000000000014
 21
65.0
 31
0.0
  0
LINE
  5
66
  8
2
 10
99.0
 20
67.066999999999993
 30
0.0
 11
99.0
 21
65.0
 31
0.0
  0
LINE
  5
67
  8
3
 10
88.900000000000006
 20
65.0
 30
0.0
 11
92.099999999999994
 21
65.0
 31
0.0
  0
LINE
  5
68
  8
0
 10
88.900000000000006
 20
55.0
 30
0.0
 11
92.099999999999994
 21
55.0
 31
0.0
  0
LINE
  5
69
  8
3
 10
88.900000000000006
 20
55.044379999999997
 30
0.0
 11
92.099999999999994
 21
55.044379999999997
 31
0.0
  0
LINE
  5
6A
  8
3
 10
88.900000000000006
 20
55.177126999999999
 30
0.0
 11
92.099999999999994
 21
55.177126999999999
 31
0.0
  0
LINE
  5
6B
  8
3
 10
88.900000000000006
 20
55.397063000000003
 30
0.0
 11
92.099999999999994
 21
55.397063000000003
 31
0.0
  0
LINE
  5
6C
  8
3
 10
88.900000000000006
 20
55.702234999999988
 30
0.0
 11
92.099999999999994
 21
55.702234999999988
 31
0.0
  0
LINE
  5
6D
  8
3
 10
88.900000000000006
 20
56.089934999999997
 30
0.0
 11
92.099999999999994
 21
56.089934999999997
 31
0.0
  0
LINE
  5
6E
  8
3
 10
88.900000000000006
 20
56.556721000000003
 30
0.0
 11
92.099999999999994
 21
56.556721000000003
 31
0.0
  0
LINE
  5
6F
  8
3
 10
88.900000000000006
 20
57.09845
 30
0.0
 11
92.099999999999994
 21
57.09845
 31
0.0
  0
LINE
  5
70
  8
3
 10
88.900000000000006
 20
57.710313999999997
 30
0.0
 11
92.099999999999994
 21
57.710313999999997
 31
0.0
  0
LINE
  5
71
  8
3
 10
88.900000000000006
 20
58.386881000000002
 30
0.0
 11
92.099999999999994
 21
58.386881000000002
 31
0.0
  0
LINE
  5
72
  8
3
 10
88.900000000000006
 20
59.122146999999991
 30
0.0
 11
92.099999999999994
 21
59.122146999999991
 31
0.0
  0
LINE
  5
73
  8
3
 10
88.900000000000006
 20
59.775013999999999
 30
0.0
 11
92.099999999999994
 21
59.775013999999999
 31
0.0
  0
LINE
  5
74
  8
3
 10
88.900000000000006
 20
60.460095000000003
 30
0.0
 11
92.099999999999994
 21
60.460095000000003
 31
0.0
  0
LINE
  5
75
  8
3
 10
88.900000000000006
 20
61.173166000000002
 30
0.0
 11
92.099999999999994
 21
61.173166000000002
 31
0.0
  0
LINE
  5
76
  8
3
 10
88.900000000000006
 20
61.928881999999987
 30
0.0
 11
92.099999999999994
 21
61.928881999999987
 31
0.0
  0
LINE
  5
77
  8
3
 10
88.900000000000006
 20
62.665545999999999
 30
0.0
 11
92.099999999999994
 21
62.665545999999999
 31
0.0
  0
LINE
  5
78
  8
3
 10
88.900000000000006
 20
63.435654999999997
 30
0.0
 11
92.099999999999994
 21
63.435654999999997
 31
0.0
  0
LINE
  5
79
  8
3
 10
88.900000000000006
 20
64.215408999999994
 30
0.0
 11
92.099999999999994
 21
64.215408999999994
 31
0.0
  0
LINE
  5
7A
  8
3
 10
88.900000000000006
 20
104.21540899999999
 30
0.0
 11
92.099999999999994
 21
104.21540899999999
 31
0.0
  0
LINE
  5
7B
  8
3
 10
88.900000000000006
 20
103.435655
 30
0.0
 11
92.099999999999994
 21
103.435655
 31
0.0
  0
LINE
  5
7C
  8
3
 10
88.900000000000006
 20
102.66554600000001
 30
0.0
 11
92.099999999999994
 21
102.66554600000001
 31
0.0
  0
LINE
  5
7D
  8
3
 10
88.900000000000006
 20
101.928882
 30
0.0
 11
92.099999999999994
 21
101.928882
 31
0.0
  0
LINE
  5
7E
  8
3
 10
88.900000000000006
 20
101.17316599999999
 30
0.0
 11
92.099999999999994
 21
101.17316599999999
 31
0.0
  0
LINE
  5
7F
  8
3
 10
88.900000000000006
 20
100.460095
 30
0.0
 11
92.099999999999994
 21
100.460095
 31
0.0
  0
LINE
  5
80
  8
3
 10
88.900000000000006
 20
99.775014000000013
 30
0.0
 11
92.099999999999994
 21
99.775014000000013
 31
0.0
  0
LINE
  5
81
  8
3
 10
88.900000000000006
 20
99.122146999999984
 30
0.0
 11
92.099999999999994
 21
99.122146999999984
 31
0.0
  0
LINE
  5
82
  8
3
 10
88.900000000000006
 20
98.386881000000002
 30
0.0
 11
92.099999999999994
 21
98.386881000000002
 31
0.0
  0
LINE
  5
83
  8
3
 10
88.900000000000006
 20
97.710313999999997
 30
0.0
 11
92.099999999999994
 21
97.710313999999997
 31
0.0
  0
LINE
  5
84
  8
3
 10
88.900000000000006
 20
97.098450000000014
 30
0.0
 11
92.099999999999994
 21
97.098450000000014
 31
0.0
  0
LINE
  5
85
  8
3
 10
88.900000000000006
 20
96.556720999999996
 30
0.0
 11
92.099999999999994
 21
96.556720999999996
 31
0.0
  0
LINE
  5
86
  8
3
 10
88.900000000000006
 20
96.089934999999997
 30
0.0
 11
92.099999999999994
 21
96.089934999999997
 31
0.0
  0
LINE
  5
87
  8
3
 10
88.900000000000006
 20
95.702235000000002
 30
0.0
 11
92.099999999999994
 21
95.702235000000002
 31
0.0
  0
LINE
  5
88
  8
3
 10
88.900000000000006
 20
95.397063000000003
 30
0.0
 11
92.099999999999994
 21
95.397063000000003
 31
0.0
  0
LINE
  5
89
  8
3
 10
88.900000000000006
 20
95.177126999999999
 30
0.0
 11
92.099999999999994
 21
95.177126999999999
 31
0.0
  0
LINE
  5
8A
  8
3
 10
88.900000000000006
 20
95.044380000000004
 30
0.0
 11
92.099999999999994
 21
95.044380000000004
 31
0.0
  0
LINE
  5
8B
  8
0
 10
88.900000000000006
 20
95.0
 30
0.0
 11
92.099999999999994
 21
95.0
 31
0.0
  0
LINE
  5
8C
  8
3
 10
88.900000000000006
 20
105.0
 30
0.0
 11
92.099999999999994
 21
105.0
 31
0.0
  0
LINE
  5
8D
  8
2
 10
99.0
 20
107.06699999999999
 30
0.0
 11
99.0
 21
105.0
 31
0.0
  0
LINE
  5
8E
  8
2
 10
89.500000000000014
 20
107.06699999999999
 30
0.0
 11
89.500000000000014
 21
105.0
 31
0.0
  0
LINE
  5
8F
  8
2
 10
99.0
 20
107.06699999999999
 30
0.0
 11
100.0
 21
108.06699999999999
 31
0.0
  0
LINE
  5
90
  8
2
 10
88.499999999999986
 20
108.06699999999999
 30
0.0
 11
89.500000000000014
 21
107.06699999999999
 31
0.0
  0
LINE
  5
91
  8
2
 10
99.433000000000007
 20
107.5
 30
0.0
 11
89.066999999999993
 21
107.5
 31
0.0
  0
LINE
  5
92
  8
2
 10
99.0
 20
107.06699999999999
 30
0.0
 11
89.500000000000014
 21
107.06699999999999
 31
0.0
  0
LINE
  5
93
  8
3
 10
88.900000000000006
 20
105.0
 30
0.0
 11
92.099999999999994
 21
105.0
 31
0.0
  0
LINE
  5
94
  8
0
 10
88.499999999999986
 20
114.59999999999999
 30
0.0
 11
88.900000000000006
 21
115.0
 31
0.0
  0
LINE
  5
95
  8
0
 10
88.900000000000006
 20
115.0
 30
0.0
 11
92.099999999999994
 21
115.0
 31
0.0
  0
LINE
  5
96
  8
0
 10
92.099999999999994
 20
115.0
 30
0.0
 11
92.5
 21
114.59999999999999
 31
0.0
  0
LINE
  5
97
  8
0
 10
92.5
 20
114.59999999999999
 30
0.0
 11
92.5
 21
111.0
 31
0.0
  0
ARC
  5
98
  8
0
 10
93.499999999999986
 20
111.0
 30
0.0
 40
1.0
 50
180.0
 51
270.0
  0
LINE
  5
99
  8
0
 10
99.599999999999994
 20
110.0
 30
0.0
 11
100.0
 21
109.59999999999999
 31
0.0
  0
LINE
  5
9A
  8
0
 10
93.499999999999986
 20
110.0
 30
0.0
 11
99.599999999999994
 21
110.0
 31
0.0
  0
LINE
  5
9B
  8
0
 10
93.499999999999986
 20
100.0
 30
0.0
 11
99.599999999999994
 21
100.0
 31
0.0
  0
LINE
  5
9C
  8
0
 10
99.599999999999994
 20
100.0
 30
0.0
 11
100.0
 21
100.40000000000001
 31
0.0
  0
ARC
  5
9D
  8
0
 10
93.499999999999986
 20
99.0
 30
0.0
 40
1.0
 50
90.0
 51
180.0
  0
LINE
  5
9E
  8
0
 10
92.099999999999994
 20
95.0
 30
0.0
 11
92.5
 21
95.400000000000006
 31
0.0
  0
LINE
  5
9F
  8
0
 10
88.499999999999986
 20
95.400000000000006
 30
0.0
 11
88.900000000000006
 21
95.0
 31
0.0
  0
LINE
  5
A0
  8
0
 10
88.499999999999986
 20
114.59999999999999
 30
0.0
 11
88.499999999999986
 21
95.400000000000006
 31
0.0
  0
LINE
  5
A1
  8
0
 10
100.0
 20
109.59999999999999
 30
0.0
 11
100.0
 21
100.40000000000001
 31
0.0
  0
LINE
  5
A2
  8
0
 10
92.099999999999994
 20
115.0
 30
0.0
 11
92.099999999999994
 21
95.0
 31
0.0
  0
LINE
  5
A3
  8
0
 10
92.5
 20
111.0
 30
0.0
 11
92.5
 21
95.400000000000006
 31
0.0
  0
LINE
  5
A4
  8
0
 10
88.900000000000006
 20
115.0
 30
0.0
 11
88.900000000000006
 21
95.0
 31
0.0
  0
LINE
  5
A5
  8
0
 10
99.599999999999994
 20
110.0
 30
0.0
 11
99.599999999999994
 21
100.0
 31
0.0
  0
LINE
  5
A6
  8
3
 10
88.900000000000006
 20
114.95562
 30
0.0
 11
92.099999999999994
 21
114.95562
 31
0.0
  0
LINE
  5
A7
  8
3
 10
88.900000000000006
 20
114.822873
 30
0.0
 11
92.099999999999994
 21
114.822873
 31
0.0
  0
LINE
  5
A8
  8
3
 10
88.900000000000006
 20
114.602937
 30
0.0
 11
92.099999999999994
 21
114.602937
 31
0.0
  0
LINE
  5
A9
  8
3
 10
88.900000000000006
 20
114.297765
 30
0.0
 11
92.099999999999994
 21
114.297765
 31
0.0
  0
LINE
  5
AA
  8
3
 10
88.900000000000006
 20
113.910065
 30
0.0
 11
92.099999999999994
 21
113.910065
 31
0.0
  0
LINE
  5
AB
  8
3
 10
88.900000000000006
 20
113.443279
 30
0.0
 11
92.099999999999994
 21
113.443279
 31
0.0
  0
LINE
  5
AC
  8
3
 10
88.900000000000006
 20
112.90155
 30
0.0
 11
92.099999999999994
 21
112.90155
 31
0.0
  0
LINE
  5
AD
  8
3
 10
88.900000000000006
 20
112.289686
 30
0.0
 11
92.099999999999994
 21
112.289686
 31
0.0
  0
LINE
  5
AE
  8
3
 10
88.900000000000006
 20
111.613119
 30
0.0
 11
92.099999999999994
 21
111.613119
 31
0.0
  0
LINE
  5
AF
  8
3
 10
88.900000000000006
 20
110.877853
 30
0.0
 11
92.099999999999994
 21
110.877853
 31
0.0
  0
LINE
  5
B0
  8
3
 10
88.900000000000006
 20
110.224986
 30
0.0
 11
92.099999999999994
 21
110.224986
 31
0.0
  0
LINE
  5
B1
  8
3
 10
88.900000000000006
 20
109.539905
 30
0.0
 11
92.099999999999994
 21
109.539905
 31
0.0
  0
LINE
  5
B2
  8
3
 10
88.900000000000006
 20
108.82683400000001
 30
0.0
 11
92.099999999999994
 21
108.82683400000001
 31
0.0
  0
LINE
  5
B3
  8
3
 10
88.900000000000006
 20
108.071118
 30
0.0
 11
92.099999999999994
 21
108.071118
 31
0.0
  0
LINE
  5
B4
  8
3
 10
88.900000000000006
 20
107.33445399999999
 30
0.0
 11
92.099999999999994
 21
107.33445399999999
 31
0.0
  0
LINE
  5
B5
  8
3
 10
88.900000000000006
 20
106.564345
 30
0.0
 11
92.099999999999994
 21
106.564345
 31
0.0
  0
LINE
  5
B6
  8
3
 10
88.900000000000006
 20
105.78459100000001
 30
0.0
 11
92.099999999999994
 21
105.78459100000001
 31
0.0
  0
LINE
  5
B7
  8
1
 10
86.0
 20
105.0
 30
0.0
 11
102.5
 21
105.0
 31
0.0
  0
LINE
  5
B8
  8
2
 10
99.0
 20
102.93300000000001
 30
0.0
 11
89.500000000000014
 21
102.93300000000001
 31
0.0
  0
LINE
  5
B9
  8
2
 10
99.433000000000007
 20
102.5
 30
0.0
 11
89.066999999999993
 21
102.5
 31
0.0
  0
LINE
  5
BA
  8
2
 10
88.499999999999986
 20
101.93300000000001
 30
0.0
 11
89.500000000000014
 21
102.93300000000001
 31
0.0
  0
LINE
  5
BB
  8
2
 10
99.0
 20
102.93300000000001
 30
0.0
 11
100.0
 21
101.93300000000001
 31
0.0
  0
LINE
  5
BC
  8
2
 10
89.500000000000014
 20
102.93300000000001
 30
0.0
 11
89.500000000000014
 21
105.0
 31
0.0
  0
LINE
  5
BD
  8
2
 10
99.0
 20
102.93300000000001
 30
0.0
 11
99.0
 21
105.0
 31
0.0
  0
LINE
  5
BE
  8
3
 10
88.900000000000006
 20
24.215409000000001
 30
0.0
 11
92.099999999999994
 21
24.215409000000001
 31
0.0
  0
LINE
  5
BF
  8
3
 10
88.900000000000006
 20
23.435655000000001
 30
0.0
 11
92.099999999999994
 21
23.435655000000001
 31
0.0
  0
LINE
  5
C0
  8
3
 10
88.900000000000006
 20
22.665545999999999
 30
0.0
 11
92.099999999999994
 21
22.665545999999999
 31
0.0
  0
LINE
  5
C1
  8
3
 10
88.900000000000006
 20
21.928882000000002
 30
0.0
 11
92.099999999999994
 21
21.928882000000002
 31
0.0
  0
LINE
  5
C2
  8
3
 10
88.900000000000006
 20
21.173165999999998
 30
0.0
 11
92.099999999999994
 21
21.173165999999998
 31
0.0
  0
LINE
  5
C3
  8
3
 10
88.900000000000006
 20
20.460094999999999
 30
0.0
 11
92.099999999999994
 21
20.460094999999999
 31
0.0
  0
LINE
  5
C4
  8
3
 10
88.900000000000006
 20
19.775013999999999
 30
0.0
 11
92.099999999999994
 21
19.775013999999999
 31
0.0
  0
LINE
  5
C5
  8
3
 10
88.900000000000006
 20
19.122146999999998
 30
0.0
 11
92.099999999999994
 21
19.122146999999998
 31
0.0
  0
LINE
  5
C6
  8
3
 10
88.900000000000006
 20
18.386880999999999
 30
0.0
 11
92.099999999999994
 21
18.386880999999999
 31
0.0
  0
LINE
  5
C7
  8
3
 10
88.900000000000006
 20
17.710314
 30
0.0
 11
92.099999999999994
 21
17.710314
 31
0.0
  0
LINE
  5
C8
  8
3
 10
88.900000000000006
 20
17.09845
 30
0.0
 11
92.099999999999994
 21
17.09845
 31
0.0
  0
LINE
  5
C9
  8
3
 10
88.900000000000006
 20
16.556721
 30
0.0
 11
92.099999999999994
 21
16.556721
 31
0.0
  0
LINE
  5
CA
  8
3
 10
88.900000000000006
 20
16.089935000000001
 30
0.0
 11
92.099999999999994
 21
16.089935000000001
 31
0.0
  0
LINE
  5
CB
  8
3
 10
88.900000000000006
 20
15.702235
 30
0.0
 11
92.099999999999994
 21
15.702235
 31
0.0
  0
LINE
  5
CC
  8
3
 10
88.900000000000006
 20
15.397062999999999
 30
0.0
 11
92.099999999999994
 21
15.397062999999999
 31
0.0
  0
LINE
  5
CD
  8
3
 10
88.900000000000006
 20
15.177127
 30
0.0
 11
92.099999999999994
 21
15.177127
 31
0.0
  0
LINE
  5
CE
  8
3
 10
88.900000000000006
 20
15.04438
 30
0.0
 11
92.099999999999994
 21
15.04438
 31
0.0
  0
LINE
  5
CF
  8
0
 10
88.900000000000006
 20
15.0
 30
0.0
 11
92.099999999999994
 21
15.0
 31
0.0
  0
LINE
  5
D0
  8
3
 10
88.900000000000006
 20
25.0
 30
0.0
 11
92.099999999999994
 21
25.0
 31
0.0
  0
LINE
  5
D1
  8
2
 10
99.0
 20
27.067
 30
0.0
 11
99.0
 21
25.0
 31
0.0
  0
LINE
  5
D2
  8
2
 10
89.500000000000014
 20
27.067
 30
0.0
 11
89.500000000000014
 21
25.0
 31
0.0
  0
LINE
  5
D3
  8
2
 10
99.0
 20
27.067
 30
0.0
 11
100.0
 21
28.067
 31
0.0
  0
LINE
  5
D4
  8
2
 10
88.499999999999986
 20
28.067
 30
0.0
 11
89.500000000000014
 21
27.067
 31
0.0
  0
LINE
  5
D5
  8
2
 10
99.433000000000007
 20
27.5
 30
0.0
 11
89.066999999999993
 21
27.5
 31
0.0
  0
LINE
  5
D6
  8
2
 10
99.0
 20
27.067
 30
0.0
 11
89.500000000000014
 21
27.067
 31
0.0
  0
LINE
  5
D7
  8
3
 10
88.900000000000006
 20
25.0
 30
0.0
 11
92.099999999999994
 21
25.0
 31
0.0
  0
LINE
  5
D8
  8
0
 10
88.499999999999986
 20
34.600000000000001
 30
0.0
 11
88.900000000000006
 21
35.0
 31
0.0
  0
LINE
  5
D9
  8
0
 10
88.900000000000006
 20
35.0
 30
0.0
 11
92.099999999999994
 21
35.0
 31
0.0
  0
LINE
  5
DA
  8
0
 10
92.099999999999994
 20
35.0
 30
0.0
 11
92.5
 21
34.600000000000001
 31
0.0
  0
LINE
  5
DB
  8
0
 10
92.5
 20
34.600000000000001
 30
0.0
 11
92.5
 21
31.0
 31
0.0
  0
ARC
  5
DC
  8
0
 10
93.499999999999986
 20
31.0
 30
0.0
 40
1.0
 50
180.0
 51
270.0
  0
LINE
  5
DD
  8
0
 10
99.599999999999994
 20
30.0
 30
0.0
 11
100.0
 21
29.600000000000001
 31
0.0
  0
LINE
  5
DE
  8
0
 10
93.499999999999986
 20
30.0
 30
0.0
 11
99.599999999999994
 21
30.0
 31
0.0
  0
LINE
  5
DF
  8
0
 10
93.499999999999986
 20
20.0
 30
0.0
 11
99.599999999999994
 21
20.0
 31
0.0
  0
LINE
  5
E0
  8
0
 10
99.599999999999994
 20
20.0
 30
0.0
 11
100.0
 21
20.399999999999999
 31
0.0
  0
ARC
  5
E1
  8
0
 10
93.499999999999986
 20
19.0
 30
0.0
 40
1.0
 50
90.0
 51
180.0
  0
LINE
  5
E2
  8
0
 10
92.099999999999994
 20
15.0
 30
0.0
 11
92.5
 21
15.4
 31
0.0
  0
LINE
  5
E3
  8
0
 10
88.499999999999986
 20
15.4
 30
0.0
 11
88.900000000000006
 21
15.0
 31
0.0
  0
LINE
  5
E4
  8
0
 10
88.499999999999986
 20
34.600000000000001
 30
0.0
 11
88.499999999999986
 21
15.4
 31
0.0
  0
LINE
  5
E5
  8
0
 10
100.0
 20
29.600000000000001
 30
0.0
 11
100.0
 21
20.399999999999999
 31
0.0
  0
LINE
  5
E6
  8
0
 10
92.099999999999994
 20
35.0
 30
0.0
 11
92.099999999999994
 21
15.0
 31
0.0
  0
LINE
  5
E7
  8
0
 10
92.5
 20
31.0
 30
0.0
 11
92.5
 21
15.4
 31
0.0
  0
LINE
  5
E8
  8
0
 10
88.900000000000006
 20
35.0
 30
0.0
 11
88.900000000000006
 21
15.0
 31
0.0
  0
LINE
  5
E9
  8
0
 10
99.599999999999994
 20
30.0
 30
0.0
 11
99.599999999999994
 21
20.0
 31
0.0
  0
LINE
  5
EA
  8
3
 10
88.900000000000006
 20
34.955620000000003
 30
0.0
 11
92.099999999999994
 21
34.955620000000003
 31
0.0
  0
LINE
  5
EB
  8
3
 10
88.900000000000006
 20
34.822873000000001
 30
0.0
 11
92.099999999999994
 21
34.822873000000001
 31
0.0
  0
LINE
  5
EC
  8
3
 10
88.900000000000006
 20
34.602936999999997
 30
0.0
 11
92.099999999999994
 21
34.602936999999997
 31
0.0
  0
LINE
  5
ED
  8
3
 10
88.900000000000006
 20
34.297765000000012
 30
0.0
 11
92.099999999999994
 21
34.297765000000012
 31
0.0
  0
LINE
  5
EE
  8
3
 10
88.900000000000006
 20
33.910065000000003
 30
0.0
 11
92.099999999999994
 21
33.910065000000003
 31
0.0
  0
LINE
  5
EF
  8
3
 10
88.900000000000006
 20
33.443278999999997
 30
0.0
 11
92.099999999999994
 21
33.443278999999997
 31
0.0
  0
LINE
  5
F0
  8
3
 10
88.900000000000006
 20
32.90155
 30
0.0
 11
92.099999999999994
 21
32.90155
 31
0.0
  0
LINE
  5
F1
  8
3
 10
88.900000000000006
 20
32.289686000000003
 30
0.0
 11
92.099999999999994
 21
32.289686000000003
 31
0.0
  0
LINE
  5
F2
  8
3
 10
88.900000000000006
 20
31.613119000000001
 30
0.0
 11
92.099999999999994
 21
31.613119000000001
 31
0.0
  0
LINE
  5
F3
  8
3
 10
88.900000000000006
 20
30.877853000000002
 30
0.0
 11
92.099999999999994
 21
30.877853000000002
 31
0.0
  0
LINE
  5
F4
  8
3
 10
88.900000000000006
 20
30.224986000000001
 30
0.0
 11
92.099999999999994
 21
30.224986000000001
 31
0.0
  0
LINE
  5
F5
  8
3
 10
88.900000000000006
 20
29.539905000000001
 30
0.0
 11
92.099999999999994
 21
29.539905000000001
 31
0.0
  0
LINE
  5
F6
  8
3
 10
88.900000000000006
 20
28.826834000000002
 30
0.0
 11
92.099999999999994
 21
28.826834000000002
 31
0.0
  0
LINE
  5
F7
  8
3
 10
88.900000000000006
 20
28.071117999999998
 30
0.0
 11
92.099999999999994
 21
28.071117999999998
 31
0.0
  0
LINE
  5
F8
  8
3
 10
88.900000000000006
 20
27.334454000000001
 30
0.0
 11
92.099999999999994
 21
27.334454000000001
 31
0.0
  0
LINE
  5
F9
  8
3
 10
88.900000000000006
 20
26.564344999999999
 30
0.0
 11
92.099999999999994
 21
26.564344999999999
 31
0.0
  0
LINE
  5
FA
  8
3
 10
88.900000000000006
 20
25.784590999999999
 30
0.0
 11
92.099999999999994
 21
25.784590999999999
 31
0.0
  0
LINE
  5
FB
  8
1
 10
86.0
 20
25.0
 30
0.0
 11
102.5
 21
25.0
 31
0.0
  0
LINE
  5
FC
  8
2
 10
99.0
 20
22.933
 30
0.0
 11
89.500000000000014
 21
22.933
 31
0.0
  0
LINE
  5
FD
  8
2
 10
99.433000000000007
 20
22.5
 30
0.0
 11
89.066999999999993
 21
22.5
 31
0.0
  0
LINE
  5
FE
  8
2
 10
88.499999999999986
 20
21.933
 30
0.0
 11
89.500000000000014
 21
22.933
 31
0.0
  0
LINE
  5
FF
  8
2
 10
99.0
 20
22.933
 30
0.0
 11
100.0
 21
21.933
 31
0.0
  0
LINE
  5
100
  8
2
 10
89.500000000000014
 20
22.933
 30
0.0
 11
89.500000000000014
 21
25.0
 31
0.0
  0
LINE
  5
101
  8
2
 10
99.0
 20
22.933
 30
0.0
 11
99.0
 21
25.0
 31
0.0
  0
CIRCLE
  5
102
  8
0
 10
50.0
 20
65.0
 30
0.0
 40
10.0
  0
CIRCLE
  5
103
  8
0
 10
140.0
 20
65.0
 30
0.0
 40
10.0
  0
CIRCLE
  5
104
  8
0
 10
140.0
 20
65.0
 30
0.0
 40
5.0
  0
CIRCLE
  5
105
  8
0
 10
50.0
 20
65.0
 30
0.0
 40
2.0669999999999988
  0
CIRCLE
  5
106
  8
3
 10
50.0
 20
65.0
 30
0.0
 40
2.5
  0
CIRCLE
  5
107
  8
0
 10
140.0
 20
65.0
 30
0.0
 40
2.0669999999999988
  0
CIRCLE
  5
108
  8
3
 10
140.0
 20
65.0
 30
0.0
 40
2.5
  0
CIRCLE
  5
109
  8
0
 10
140.0
 20
65.0
 30
0.0
 40
4.5999999999999988
  0
CIRCLE
  5
10A
  8
0
 10
140.0
 20
65.0
 30
0.0
 40
9.5999999999999996
  0
CIRCLE
  5
10B
  8
0
 10
50.0
 20
65.0
 30
0.0
 40
9.5999999999999996
  0
LINE
  5
10C
  8
1
 10
62.5
 20
65.0
 30
0.0
 11
37.5
 21
65.0
 31
0.0
  0
LINE
  5
10D
  8
1
 10
50.0
 20
77.5
 30
0.0
 11
50.0
 21
52.5
 31
0.0
  0
LINE
  5
10E
  8
1
 10
152.5
 20
65.0
 30
0.0
 11
127.5
 21
65.0
 31
0.0
  0
LINE
  5
10F
  8
1
 10
140.0
 20
77.5
 30
0.0
 11
140.0
 21
52.5
 31
0.0
  0
TEXT
  5
26F
  8
0
 62
     3
 10
0.0
 20
0.0
 30
0.0
 40
10.0
  1
TKN5
  7
STANDARD1
  0
ENDSEC
  0
EOF
