  0
SECTION
  2
HEADER
  9
$ACADVER
  1
AC1009
  9
$INSBASE
 10
0.0
 20
0.0
 30
0.0
  9
$EXTMIN
 10
0.0
 20
-2.960436562073669
 30
0.0
  9
$EXTMAX
 10
150.5
 20
122.9999999999999
 30
0.0
  9
$LIMMIN
 10
0.0
 20
0.0
  9
$LIMMAX
 10
187.5
 20
135.0
  9
$ORTHOMODE
 70
     1
  9
$REGENMODE
 70
     1
  9
$FILLMODE
 70
     1
  9
$QTEXTMODE
 70
     0
  9
$MIRRTEXT
 70
     0
  9
$DRAGMODE
 70
     2
  9
$LTSCALE
 40
5.0
  9
$OSMODE
 70
    55
  9
$ATTMODE
 70
     1
  9
$TEXTSIZE
 40
0.2
  9
$TRACEWID
 40
0.05
  9
$TEXTSTYLE
  7
STANDARD
  9
$CLAYER
  8
0
  9
$CELTYPE
  6
BYLAYER
  9
$CECOLOR
 62
   256
  9
$DIMSCALE
 40
0.5
  9
$DIMASZ
 40
3.0
  9
$DIMEXO
 40
2.0
  9
$DIMDLI
 40
0.38
  9
$DIMRND
 40
0.0
  9
$DIMDLE
 40
0.0
  9
$DIMEXE
 40
2.0
  9
$DIMTP
 40
0.0
  9
$DIMTM
 40
0.0
  9
$DIMTXT
 40
3.2000000000000002
  9
$DIMCEN
 40
0.09
  9
$DIMTSZ
 40
0.0
  9
$DIMTOL
 70
     0
  9
$DIMLIM
 70
     0
  9
$DIMTIH
 70
     0
  9
$DIMTOH
 70
     0
  9
$DIMSE1
 70
     0
  9
$DIMSE2
 70
     0
  9
$DIMTAD
 70
     1
  9
$DIMZIN
 70
     0
  9
$DIMBLK
  1

  9
$DIMASO
 70
     1
  9
$DIMSHO
 70
     0
  9
$DIMPOST
  1

  9
$DIMAPOST
  1

  9
$DIMALT
 70
     0
  9
$DIMALTD
 70
     2
  9
$DIMALTF
 40
25.399999999999999
  9
$DIMLFAC
 40
1.0
  9
$DIMTOFL
 70
     0
  9
$DIMTVP
 40
0.0
  9
$DIMTIX
 70
     0
  9
$DIMSOXD
 70
     0
  9
$DIMSAH
 70
     0
  9
$DIMBLK1
  1

  9
$DIMBLK2
  1

  9
$DIMSTYLE
  2
STANDARD
  9
$DIMCLRD
 70
     0
  9
$DIMCLRE
 70
     0
  9
$DIMCLRT
 70
     0
  9
$DIMTFAC
 40
1.0
  9
$DIMGAP
 40
0.09
  9
$LUNITS
 70
     2
  9
$LUPREC
 70
     4
  9
$SKETCHINC
 40
0.1
  9
$FILLETRAD
 40
0.0
  9
$AUNITS
 70
     0
  9
$AUPREC
 70
     0
  9
$MENU
  1
E:\r13\win\SUPPORT\ACAD
  9
$ELEVATION
 40
0.0
  9
$PELEVATION
 40
0.0
  9
$THICKNESS
 40
0.0
  9
$LIMCHECK
 70
     0
  9
$BLIPMODE
 70
     0
  9
$CHAMFERA
 40
0.0
  9
$CHAMFERB
 40
0.0
  9
$SKPOLY
 70
     0
  9
$TDCREATE
 40
2449840.605104167
  9
$TDUPDATE
 40
2456598.4464078131
  9
$TDINDWG
 40
0.0253166898
  9
$TDUSRTIMER
 40
0.0253166898
  9
$USRTIMER
 70
     1
  9
$ANGBASE
 50
0.0
  9
$ANGDIR
 70
     0
  9
$PDMODE
 70
     0
  9
$PDSIZE
 40
0.0
  9
$PLINEWID
 40
0.0
  9
$COORDS
 70
     1
  9
$SPLFRAME
 70
     0
  9
$SPLINETYPE
 70
     6
  9
$SPLINESEGS
 70
     8
  9
$ATTDIA
 70
     0
  9
$ATTREQ
 70
     1
  9
$HANDLING
 70
     1
  9
$HANDSEED
  5
11E4
  9
$SURFTAB1
 70
     6
  9
$SURFTAB2
 70
     6
  9
$SURFTYPE
 70
     6
  9
$SURFU
 70
     6
  9
$SURFV
 70
     6
  9
$UCSNAME
  2

  9
$UCSORG
 10
0.0
 20
0.0
 30
0.0
  9
$UCSXDIR
 10
1.0
 20
0.0
 30
0.0
  9
$UCSYDIR
 10
0.0
 20
1.0
 30
0.0
  9
$PUCSNAME
  2

  9
$PUCSORG
 10
0.0
 20
0.0
 30
0.0
  9
$PUCSXDIR
 10
1.0
 20
0.0
 30
0.0
  9
$PUCSYDIR
 10
0.0
 20
1.0
 30
0.0
  9
$USERI1
 70
     0
  9
$USERI2
 70
     1
  9
$USERI3
 70
     1
  9
$USERI4
 70
     0
  9
$USERI5
 70
     0
  9
$USERR1
 40
0.0
  9
$USERR2
 40
0.0
  9
$USERR3
 40
0.0
  9
$USERR4
 40
0.0
  9
$USERR5
 40
0.0
  9
$WORLDVIEW
 70
     1
  9
$SHADEDGE
 70
     3
  9
$SHADEDIF
 70
    70
  9
$TILEMODE
 70
     1
  9
$MAXACTVP
 70
    16
  9
$PLIMCHECK
 70
     0
  9
$PEXTMIN
 10
1.0000000000000000E+020
 20
1.0000000000000000E+020
 30
1.0000000000000000E+020
  9
$PEXTMAX
 10
-1.0000000000000000E+020
 20
-1.0000000000000000E+020
 30
-1.0000000000000000E+020
  9
$PLIMMIN
 10
0.0
 20
0.0
  9
$PLIMMAX
 10
12.0
 20
9.0
  9
$UNITMODE
 70
     0
  9
$VISRETAIN
 70
     0
  9
$PLINEGEN
 70
     0
  9
$PSLTSCALE
 70
     0
  0
ENDSEC
  0
SECTION
  2
TABLES
  0
TABLE
  2
VPORT
 70
     1
  0
VPORT
  2
*ACTIVE
 70
     0
 10
0.0
 20
0.0
 11
1.0
 21
1.0
 12
93.74713919532617
 22
98.129098027095807
 13
0.0
 23
0.0
 14
5.0
 24
5.0
 15
5.0
 25
5.0
 16
0.0
 26
0.0
 36
1.0
 17
0.0
 27
0.0
 37
0.0
 40
203.97931595516741
 41
1.7807262569832401
 42
50.0
 43
0.0
 44
0.0
 50
0.0
 51
0.0
 71
     0
 72
   100
 73
     1
 74
     0
 75
     0
 76
     0
 77
     0
 78
     0
  0
ENDTAB
  0
TABLE
  2
LTYPE
 70
     4
  0
LTYPE
  2
CONTINUOUS
 70
     0
  3
Solid Line
 72
    65
 73
     0
 40
0.0
  0
LTYPE
  2
CENTER
 70
     0
  3
____ _ ____ _ ____ _ ____ _ ____ _ ____ _ ____
 72
    65
 73
     4
 40
2.0
 49
1.25
 49
-0.25
 49
0.25
 49
-0.25
  0
LTYPE
  2
HIDDEN
 70
     0
  3
_ _ _ _ _ _ _ _ _ _ _ _ _ _ _ _ _ _ _ _ _ _ _
 72
    65
 73
     2
 40
0.375
 49
0.25
 49
-0.125
  0
LTYPE
  2
PHANTOM2
 70
     0
  3
___ _ _ ___ _ _ ___ _ _ ___ _ _
 72
    65
 73
     6
 40
1.25
 49
0.625
 49
-0.125
 49
0.125
 49
-0.125
 49
0.125
 49
-0.125
  0
ENDTAB
  0
TABLE
  2
LAYER
 70
     6
  0
LAYER
  2
0
 70
     0
 62
     7
  6
CONTINUOUS
  0
LAYER
  2
1
 70
     0
 62
     1
  6
CENTER
  0
LAYER
  2
2
 70
     0
 62
     2
  6
HIDDEN
  0
LAYER
  2
3
 70
     0
 62
     3
  6
CONTINUOUS
  0
LAYER
  2
11
 70
     0
 62
     3
  6
CONTINUOUS
  0
LAYER
  2
JISSEN
 70
     0
 62
     7
  6
CONTINUOUS
  0
ENDTAB
  0
TABLE
  2
STYLE
 70
     2
  0
STYLE
  2
STANDARD
 70
     0
 40
0.0
 41
1.0
 50
0.0
 71
     0
 42
0.2
  3
TXT
  4
BIGFONT
  0
STYLE
  2
STANDARD1
 70
     0
 40
0.0
 41
1.0
 50
0.0
 71
     0
 42
3.0
  3
txt
  4

  0
ENDTAB
  0
TABLE
  2
VIEW
 70
     1
  0
VIEW
  2
ALL
 70
     0
 40
135.0
 10
110.49579799999999
 20
67.5
 41
0.0
 11
0.0
 21
0.0
 31
1.0
 12
0.0
 22
0.0
 32
0.0
 42
0.0
 43
0.0
 44
0.0
 50
0.0
 71
     0
  0
ENDTAB
  0
TABLE
  2
UCS
 70
     0
  0
ENDTAB
  0
TABLE
  2
APPID
 70
     6
  0
APPID
  2
ACAD
 70
     0
  0
APPID
  2
GENIUS_GENODEF_13
 70
     0
  0
APPID
  2
GENIUS_GENOBJ-N-FIL_13
 70
     0
  0
APPID
  2
_CALL_MAC$
 70
     0
  0
APPID
  2
ACAD_MLEADERVER
 70
     0
  0
APPID
  2
ACAD_NAV_VCDISPLAY
 70
     0
  0
ENDTAB
  0
TABLE
  2
DIMSTYLE
 70
     1
  0
DIMSTYLE
  2
STANDARD
 70
     0
  3

  4

  5

  6

  7

 40
1.0
 41
0.18
 42
0.0625
 43
0.38
 44
0.18
 45
0.0
 46
0.0
 47
0.0
 48
0.0
140
0.18
141
0.09
142
0.0
143
25.399999999999999
144
1.0
145
0.0
146
1.0
147
0.09
 71
     0
 72
     0
 73
     1
 74
     1
 75
     0
 76
     0
 77
     0
 78
     0
170
     0
171
     2
172
     0
173
     0
174
     0
175
     0
176
     0
177
     0
178
     0
  0
ENDTAB
  0
ENDSEC
  0
SECTION
  2
BLOCKS
  0
BLOCK
  8
0
  2
$MODEL_SPACE
 70
     0
 10
0.0
 20
0.0
 30
0.0
  3
$MODEL_SPACE
  1

  0
ENDBLK
  5
1026
  8
0
  0
BLOCK
 67
     1
  8
0
  2
$PAPER_SPACE
 70
     0
 10
0.0
 20
0.0
 30
0.0
  3
$PAPER_SPACE
  1

  0
ENDBLK
  5
1024
 67
     1
  8
0
  0
BLOCK
  8
0
  2
STDGX5
 70
     0
 10
0.0
 20
0.0
 30
0.0
  3
STDGX5
  1

  0
ENDBLK
  5
220
  8
0
  0
ENDSEC
  0
SECTION
  2
ENTITIES
  0
LINE
  5
10E
  8
1
 10
150.5
 20
75.0
 30
0.0
 11
129.5
 21
75.0
 31
0.0
  0
LINE
  5
10F
  8
1
 10
140.0
 20
85.5
 30
0.0
 11
140.0
 21
64.5
 31
0.0
  0
INSERT
  5
6C6
  8
11
  2
STDGX5
 10
225.5016897062429
 20
71.219275779330815
 30
0.0
  0
INSERT
  5
6C7
  8
11
  2
STDGX5
 10
262.98678832245929
 20
35.219275502727903
 30
0.0
  0
INSERT
  5
6C8
  8
11
  2
STDGX5
 10
196.53593126087091
 20
2.8679245323004352
 30
0.0
  0
INSERT
  5
6C9
  8
11
  2
STDGX5
 10
265.65243185952772
 20
70.860275930164448
 30
0.0
  0
INSERT
  5
6CA
  8
11
  2
STDGX5
 10
265.65243185952772
 20
70.860275930164448
 30
0.0
  0
INSERT
  5
6CB
  8
11
  2
STDGX5
 10
265.65243185952772
 20
70.860275930164448
 30
0.0
  0
INSERT
  5
6CC
  8
11
  2
STDGX5
 10
265.65243185952772
 20
70.860275930164448
 30
0.0
  0
INSERT
  5
6CD
  8
11
  2
STDGX5
 10
265.65243185952772
 20
70.860275930164448
 30
0.0
  0
INSERT
  5
6CE
  8
11
  2
STDGX5
 10
540.65243185952772
 20
127.14405945858741
 30
0.0
  0
INSERT
  5
6CF
  8
11
  2
STDGX5
 10
540.65243185952772
 20
127.14405945858741
 30
0.0
  0
INSERT
  5
6D0
  8
11
  2
STDGX5
 10
540.65243185952772
 20
127.14405945858741
 30
0.0
  0
INSERT
  5
6D1
  8
11
  2
STDGX5
 10
540.65243185952772
 20
127.14405945858741
 30
0.0
  0
INSERT
  5
6D2
  8
11
  2
STDGX5
 10
784.86705478376507
 20
283.98791866902621
 30
0.0
  0
INSERT
  5
6D3
  8
11
  2
STDGX5
 10
822.3521533999816
 20
247.98791839242321
 30
0.0
  0
INSERT
  5
6D4
  8
11
  2
STDGX5
 10
755.90129633839308
 20
215.63656742199581
 30
0.0
  0
INSERT
  5
6D5
  8
11
  2
STDGX5
 10
905.15041180222624
 20
363.36848076063018
 30
0.0
  0
INSERT
  5
6D6
  8
11
  2
STDGX5
 10
942.63551041844266
 20
327.3684804840272
 30
0.0
  0
INSERT
  5
6D7
  8
11
  2
STDGX5
 10
876.18465335685437
 20
295.0171295135998
 30
0.0
  0
INSERT
  5
6D8
  8
11
  2
STDGX5
 10
615.50168970624293
 20
96.219318981747733
 30
0.0
  0
INSERT
  5
6D9
  8
11
  2
STDGX5
 10
652.98678832245935
 20
60.219318705144822
 30
0.0
  0
INSERT
  5
6DA
  8
11
  2
STDGX5
 10
586.53593126087094
 20
27.86796773471735
 30
0.0
  0
INSERT
  5
6DB
  8
11
  2
STDGX5
 10
655.65243185952772
 20
95.860319132581367
 30
0.0
  0
INSERT
  5
6DC
  8
11
  2
STDGX5
 10
655.65243185952772
 20
95.860319132581367
 30
0.0
  0
INSERT
  5
6DD
  8
11
  2
STDGX5
 10
655.65243185952772
 20
95.860319132581367
 30
0.0
  0
INSERT
  5
6DE
  8
11
  2
STDGX5
 10
655.65243185952772
 20
95.860319132581367
 30
0.0
  0
INSERT
  5
6DF
  8
11
  2
STDGX5
 10
655.65243185952772
 20
95.860319132581367
 30
0.0
  0
INSERT
  5
6E0
  8
11
  2
STDGX5
 10
930.65243185952772
 20
152.1441026610043
 30
0.0
  0
INSERT
  5
6E1
  8
11
  2
STDGX5
 10
930.65243185952772
 20
152.1441026610043
 30
0.0
  0
INSERT
  5
6E2
  8
11
  2
STDGX5
 10
930.65243185952772
 20
152.1441026610043
 30
0.0
  0
INSERT
  5
6E3
  8
11
  2
STDGX5
 10
930.65243185952772
 20
152.1441026610043
 30
0.0
  0
INSERT
  5
6E4
  8
11
  2
STDGX5
 10
1174.8670547837651
 20
308.98796187144308
 30
0.0
  0
INSERT
  5
6E5
  8
11
  2
STDGX5
 10
1212.352153399981
 20
272.98796159484021
 30
0.0
  0
INSERT
  5
6E6
  8
11
  2
STDGX5
 10
1145.901296338393
 20
240.6366106244127
 30
0.0
  0
INSERT
  5
6E7
  8
11
  2
STDGX5
 10
1295.150411802226
 20
388.3685239630471
 30
0.0
  0
INSERT
  5
6E8
  8
11
  2
STDGX5
 10
1332.6355104184429
 20
352.36852368644418
 30
0.0
  0
INSERT
  5
6E9
  8
11
  2
STDGX5
 10
1266.1846533568539
 20
320.01717271601672
 30
0.0
  0
INSERT
  5
6EA
  8
11
  2
STDGX5
 10
632.40020784750743
 20
152.5398776010563
 30
0.0
  0
INSERT
  5
6EB
  8
11
  2
STDGX5
 10
669.88530646372385
 20
116.5398773244534
 30
0.0
  0
INSERT
  5
6EC
  8
11
  2
STDGX5
 10
603.43444940213544
 20
84.188526354025953
 30
0.0
  0
INSERT
  5
6ED
  8
11
  2
STDGX5
 10
672.55095000079223
 20
152.18087775188991
 30
0.0
  0
INSERT
  5
6EE
  8
11
  2
STDGX5
 10
672.55095000079223
 20
152.18087775188991
 30
0.0
  0
INSERT
  5
6EF
  8
11
  2
STDGX5
 10
672.55095000079223
 20
152.18087775188991
 30
0.0
  0
INSERT
  5
6F0
  8
11
  2
STDGX5
 10
672.55095000079223
 20
152.18087775188991
 30
0.0
  0
INSERT
  5
6F1
  8
11
  2
STDGX5
 10
672.55095000079223
 20
152.18087775188991
 30
0.0
  0
INSERT
  5
6F2
  8
11
  2
STDGX5
 10
947.55095000079211
 20
208.4646612803129
 30
0.0
  0
INSERT
  5
6F3
  8
11
  2
STDGX5
 10
947.55095000079211
 20
208.4646612803129
 30
0.0
  0
INSERT
  5
6F4
  8
11
  2
STDGX5
 10
947.55095000079211
 20
208.4646612803129
 30
0.0
  0
INSERT
  5
6F5
  8
11
  2
STDGX5
 10
947.55095000079211
 20
208.4646612803129
 30
0.0
  0
INSERT
  5
6F6
  8
11
  2
STDGX5
 10
1191.7655729250289
 20
365.30852049075168
 30
0.0
  0
INSERT
  5
6F7
  8
11
  2
STDGX5
 10
1229.250671541246
 20
329.30852021414881
 30
0.0
  0
INSERT
  5
6F8
  8
11
  2
STDGX5
 10
1162.799814479657
 20
296.9571692437213
 30
0.0
  0
INSERT
  5
6F9
  8
11
  2
STDGX5
 10
1312.048929943491
 20
444.68908258235558
 30
0.0
  0
INSERT
  5
6FA
  8
11
  2
STDGX5
 10
1349.5340285597069
 20
408.68908230575278
 30
0.0
  0
INSERT
  5
6FB
  8
11
  2
STDGX5
 10
1283.0831714981191
 20
376.33773133532532
 30
0.0
  0
INSERT
  5
6FD
  8
0
  2
STDGX5
 10
196.53593126087091
 20
2.8679245323004352
 30
0.0
  0
INSERT
  5
6FE
  8
0
  2
STDGX5
 10
196.53593126087091
 20
2.8679245323004352
 30
0.0
  0
INSERT
  5
6FF
  8
0
  2
STDGX5
 10
471.53593126087088
 20
2.8679245323004352
 30
0.0
  0
INSERT
  5
700
  8
0
  2
STDGX5
 10
471.53593126087088
 20
2.8679245323004352
 30
0.0
  0
INSERT
  5
701
  8
0
  2
STDGX5
 10
196.53593126087091
 20
2.8679245323004352
 30
0.0
 41
0.5
 42
0.5
 43
0.5
  0
INSERT
  5
702
  8
0
  2
STDGX5
 10
196.53593126087091
 20
2.8679245323004352
 30
0.0
 41
0.5
 42
0.5
 43
0.5
  0
INSERT
  5
703
  8
0
  2
STDGX5
 10
334.03593126087088
 20
2.8679245323004352
 30
0.0
 41
0.5
 42
0.5
 43
0.5
  0
INSERT
  5
704
  8
0
  2
STDGX5
 10
334.03593126087088
 20
2.8679245323004352
 30
0.0
 41
0.5
 42
0.5
 43
0.5
  0
INSERT
  5
705
  8
0
  2
STDGX5
 10
196.53593126087091
 20
2.8679245323004352
 30
0.0
  0
INSERT
  5
706
  8
0
  2
STDGX5
 10
196.53593126087091
 20
2.8679245323004352
 30
0.0
  0
INSERT
  5
707
  8
0
  2
STDGX5
 10
471.53593126087088
 20
2.8679245323004352
 30
0.0
  0
INSERT
  5
708
  8
0
  2
STDGX5
 10
471.53593126087088
 20
2.8679245323004352
 30
0.0
  0
INSERT
  5
709
  8
0
  2
STDGX5
 10
196.53593126087091
 20
2.8679245323004352
 30
0.0
 41
0.5
 42
0.5
 43
0.5
  0
INSERT
  5
70A
  8
0
  2
STDGX5
 10
196.53593126087091
 20
2.8679245323004352
 30
0.0
 41
0.5
 42
0.5
 43
0.5
  0
INSERT
  5
70B
  8
0
  2
STDGX5
 10
334.03593126087088
 20
2.8679245323004352
 30
0.0
 41
0.5
 42
0.5
 43
0.5
  0
INSERT
  5
70C
  8
0
  2
STDGX5
 10
334.03593126087088
 20
2.8679245323004352
 30
0.0
 41
0.5
 42
0.5
 43
0.5
  0
INSERT
  5
70D
  8
0
  2
STDGX5
 10
196.53593126087091
 20
2.8679245323004352
 30
0.0
  0
INSERT
  5
70E
  8
0
  2
STDGX5
 10
196.53593126087091
 20
2.8679245323004352
 30
0.0
  0
INSERT
  5
70F
  8
0
  2
STDGX5
 10
471.53593126087088
 20
2.8679245323004352
 30
0.0
  0
INSERT
  5
710
  8
0
  2
STDGX5
 10
471.53593126087088
 20
2.8679245323004352
 30
0.0
  0
INSERT
  5
711
  8
0
  2
STDGX5
 10
196.53593126087091
 20
2.8679245323004352
 30
0.0
 41
0.5
 42
0.5
 43
0.5
  0
INSERT
  5
712
  8
0
  2
STDGX5
 10
196.53593126087091
 20
2.8679245323004352
 30
0.0
 41
0.5
 42
0.5
 43
0.5
  0
INSERT
  5
713
  8
0
  2
STDGX5
 10
334.03593126087088
 20
2.8679245323004352
 30
0.0
 41
0.5
 42
0.5
 43
0.5
  0
INSERT
  5
714
  8
0
  2
STDGX5
 10
334.03593126087088
 20
2.8679245323004352
 30
0.0
 41
0.5
 42
0.5
 43
0.5
  0
INSERT
  5
715
  8
0
  2
STDGX5
 10
196.53593126087091
 20
2.8679245323004352
 30
0.0
 41
0.5
 42
0.5
 43
0.5
  0
INSERT
  5
716
  8
0
  2
STDGX5
 10
196.53593126087091
 20
2.8679245323004352
 30
0.0
 41
0.5
 42
0.5
 43
0.5
  0
INSERT
  5
717
  8
0
  2
STDGX5
 10
334.03593126087088
 20
2.8679245323004352
 30
0.0
 41
0.5
 42
0.5
 43
0.5
  0
INSERT
  5
718
  8
0
  2
STDGX5
 10
334.03593126087088
 20
2.8679245323004352
 30
0.0
 41
0.5
 42
0.5
 43
0.5
  0
INSERT
  5
8C5
  8
0
  2
STDGX5
 10
0.0
 20
0.0
 30
0.0
 41
0.5
 42
0.5
 43
0.5
  0
INSERT
  5
8C6
  8
0
  2
STDGX5
 10
0.0
 20
0.0
 30
0.0
 41
0.5
 42
0.5
 43
0.5
  0
INSERT
  5
8C7
  8
0
  2
STDGX5
 10
137.5
 20
0.0
 30
0.0
 41
0.5
 42
0.5
 43
0.5
  0
INSERT
  5
8C8
  8
0
  2
STDGX5
 10
137.5
 20
0.0
 30
0.0
 41
0.5
 42
0.5
 43
0.5
  0
INSERT
  5
E51
  8
11
  2
STDGX5
 10
224.06422977314801
 20
73.237294701239875
 30
0.0
  0
INSERT
  5
E52
  8
11
  2
STDGX5
 10
261.5493283893644
 20
37.237294424636957
 30
0.0
  0
INSERT
  5
E53
  8
11
  2
STDGX5
 10
195.098471327776
 20
4.8859434542094951
 30
0.0
  0
INSERT
  5
E54
  8
11
  2
STDGX5
 10
264.21497192643278
 20
72.878294852073509
 30
0.0
  0
INSERT
  5
E55
  8
11
  2
STDGX5
 10
264.21497192643278
 20
72.878294852073509
 30
0.0
  0
INSERT
  5
E56
  8
11
  2
STDGX5
 10
264.21497192643278
 20
72.878294852073509
 30
0.0
  0
INSERT
  5
E57
  8
11
  2
STDGX5
 10
264.21497192643278
 20
72.878294852073509
 30
0.0
  0
INSERT
  5
E58
  8
11
  2
STDGX5
 10
264.21497192643278
 20
72.878294852073509
 30
0.0
  0
INSERT
  5
E59
  8
11
  2
STDGX5
 10
539.21497192643267
 20
129.1620783804965
 30
0.0
  0
INSERT
  5
E5A
  8
11
  2
STDGX5
 10
539.21497192643267
 20
129.1620783804965
 30
0.0
  0
INSERT
  5
E5B
  8
11
  2
STDGX5
 10
539.21497192643267
 20
129.1620783804965
 30
0.0
  0
INSERT
  5
E5C
  8
11
  2
STDGX5
 10
539.21497192643267
 20
129.1620783804965
 30
0.0
  0
INSERT
  5
E5D
  8
11
  2
STDGX5
 10
783.42959485067024
 20
286.00593759093522
 30
0.0
  0
INSERT
  5
E5E
  8
11
  2
STDGX5
 10
820.91469346688666
 20
250.0059373143323
 30
0.0
  0
INSERT
  5
E5F
  8
11
  2
STDGX5
 10
754.46383640529825
 20
217.6545863439049
 30
0.0
  0
INSERT
  5
E60
  8
11
  2
STDGX5
 10
903.71295186913142
 20
365.38649968253918
 30
0.0
  0
INSERT
  5
E61
  8
11
  2
STDGX5
 10
941.19805048534772
 20
329.38649940593632
 30
0.0
  0
INSERT
  5
E62
  8
11
  2
STDGX5
 10
874.74719342375943
 20
297.0351484355088
 30
0.0
  0
INSERT
  5
E63
  8
11
  2
STDGX5
 10
614.06422977314799
 20
98.237337903656794
 30
0.0
  0
INSERT
  5
E64
  8
11
  2
STDGX5
 10
651.54932838936429
 20
62.237337627053869
 30
0.0
  0
INSERT
  5
E65
  8
11
  2
STDGX5
 10
585.09847132777588
 20
29.885986656626411
 30
0.0
  0
INSERT
  5
E66
  8
11
  2
STDGX5
 10
654.21497192643278
 20
97.878338054490428
 30
0.0
  0
INSERT
  5
E67
  8
11
  2
STDGX5
 10
654.21497192643278
 20
97.878338054490428
 30
0.0
  0
INSERT
  5
E68
  8
11
  2
STDGX5
 10
654.21497192643278
 20
97.878338054490428
 30
0.0
  0
INSERT
  5
E69
  8
11
  2
STDGX5
 10
654.21497192643278
 20
97.878338054490428
 30
0.0
  0
INSERT
  5
E6A
  8
11
  2
STDGX5
 10
654.21497192643278
 20
97.878338054490428
 30
0.0
  0
INSERT
  5
E6B
  8
11
  2
STDGX5
 10
929.21497192643278
 20
154.16212158291339
 30
0.0
  0
INSERT
  5
E6C
  8
11
  2
STDGX5
 10
929.21497192643278
 20
154.16212158291339
 30
0.0
  0
INSERT
  5
E6D
  8
11
  2
STDGX5
 10
929.21497192643278
 20
154.16212158291339
 30
0.0
  0
INSERT
  5
E6E
  8
11
  2
STDGX5
 10
929.21497192643278
 20
154.16212158291339
 30
0.0
  0
INSERT
  5
E6F
  8
11
  2
STDGX5
 10
1173.4295948506699
 20
311.00598079335208
 30
0.0
  0
INSERT
  5
E70
  8
11
  2
STDGX5
 10
1210.9146934668861
 20
275.00598051674922
 30
0.0
  0
INSERT
  5
E71
  8
11
  2
STDGX5
 10
1144.463836405298
 20
242.6546295463217
 30
0.0
  0
INSERT
  5
E72
  8
11
  2
STDGX5
 10
1293.7129518691311
 20
390.38654288495621
 30
0.0
  0
INSERT
  5
E73
  8
11
  2
STDGX5
 10
1331.1980504853479
 20
354.38654260835318
 30
0.0
  0
INSERT
  5
E74
  8
11
  2
STDGX5
 10
1264.747193423759
 20
322.03519163792578
 30
0.0
  0
INSERT
  5
E75
  8
11
  2
STDGX5
 10
630.96274791441249
 20
154.55789652296539
 30
0.0
  0
INSERT
  5
E76
  8
11
  2
STDGX5
 10
668.44784653062879
 20
118.5578962463625
 30
0.0
  0
INSERT
  5
E77
  8
11
  2
STDGX5
 10
601.99698946904039
 20
86.206545275935014
 30
0.0
  0
INSERT
  5
E78
  8
11
  2
STDGX5
 10
671.11349006769728
 20
154.198896673799
 30
0.0
  0
INSERT
  5
E79
  8
11
  2
STDGX5
 10
671.11349006769728
 20
154.198896673799
 30
0.0
  0
INSERT
  5
E7A
  8
11
  2
STDGX5
 10
671.11349006769728
 20
154.198896673799
 30
0.0
  0
INSERT
  5
E7B
  8
11
  2
STDGX5
 10
671.11349006769728
 20
154.198896673799
 30
0.0
  0
INSERT
  5
E7C
  8
11
  2
STDGX5
 10
671.11349006769728
 20
154.198896673799
 30
0.0
  0
INSERT
  5
E7D
  8
11
  2
STDGX5
 10
946.11349006769717
 20
210.48268020222201
 30
0.0
  0
INSERT
  5
E7E
  8
11
  2
STDGX5
 10
946.11349006769717
 20
210.48268020222201
 30
0.0
  0
INSERT
  5
E7F
  8
11
  2
STDGX5
 10
946.11349006769717
 20
210.48268020222201
 30
0.0
  0
INSERT
  5
E80
  8
11
  2
STDGX5
 10
946.11349006769717
 20
210.48268020222201
 30
0.0
  0
INSERT
  5
E81
  8
11
  2
STDGX5
 10
1190.3281129919339
 20
367.32653941266079
 30
0.0
  0
INSERT
  5
E82
  8
11
  2
STDGX5
 10
1227.8132116081511
 20
331.32653913605782
 30
0.0
  0
INSERT
  5
E83
  8
11
  2
STDGX5
 10
1161.362354546563
 20
298.9751881656303
 30
0.0
  0
INSERT
  5
E84
  8
11
  2
STDGX5
 10
1310.611470010396
 20
446.7071015042647
 30
0.0
  0
INSERT
  5
E85
  8
11
  2
STDGX5
 10
1348.096568626612
 20
410.70710122766178
 30
0.0
  0
INSERT
  5
E86
  8
11
  2
STDGX5
 10
1281.6457115650239
 20
378.35575025723438
 30
0.0
  0
INSERT
  5
E88
  8
0
  2
STDGX5
 10
195.098471327776
 20
4.8859434542094951
 30
0.0
  0
INSERT
  5
E89
  8
0
  2
STDGX5
 10
195.098471327776
 20
4.8859434542094951
 30
0.0
  0
INSERT
  5
E8A
  8
0
  2
STDGX5
 10
470.098471327776
 20
4.8859434542094951
 30
0.0
  0
INSERT
  5
E8B
  8
0
  2
STDGX5
 10
470.098471327776
 20
4.8859434542094951
 30
0.0
  0
INSERT
  5
E8C
  8
0
  2
STDGX5
 10
195.098471327776
 20
4.8859434542094951
 30
0.0
 41
0.5
 42
0.5
 43
0.5
  0
INSERT
  5
E8D
  8
0
  2
STDGX5
 10
195.098471327776
 20
4.8859434542094951
 30
0.0
 41
0.5
 42
0.5
 43
0.5
  0
INSERT
  5
E8E
  8
0
  2
STDGX5
 10
332.598471327776
 20
4.8859434542094951
 30
0.0
 41
0.5
 42
0.5
 43
0.5
  0
INSERT
  5
E8F
  8
0
  2
STDGX5
 10
332.598471327776
 20
4.8859434542094951
 30
0.0
 41
0.5
 42
0.5
 43
0.5
  0
INSERT
  5
E90
  8
0
  2
STDGX5
 10
195.098471327776
 20
4.8859434542094951
 30
0.0
  0
INSERT
  5
E91
  8
0
  2
STDGX5
 10
195.098471327776
 20
4.8859434542094951
 30
0.0
  0
INSERT
  5
E92
  8
0
  2
STDGX5
 10
470.098471327776
 20
4.8859434542094951
 30
0.0
  0
INSERT
  5
E93
  8
0
  2
STDGX5
 10
470.098471327776
 20
4.8859434542094951
 30
0.0
  0
INSERT
  5
E94
  8
0
  2
STDGX5
 10
195.098471327776
 20
4.8859434542094951
 30
0.0
 41
0.5
 42
0.5
 43
0.5
  0
INSERT
  5
E95
  8
0
  2
STDGX5
 10
195.098471327776
 20
4.8859434542094951
 30
0.0
 41
0.5
 42
0.5
 43
0.5
  0
INSERT
  5
E96
  8
0
  2
STDGX5
 10
332.598471327776
 20
4.8859434542094951
 30
0.0
 41
0.5
 42
0.5
 43
0.5
  0
INSERT
  5
E97
  8
0
  2
STDGX5
 10
332.598471327776
 20
4.8859434542094951
 30
0.0
 41
0.5
 42
0.5
 43
0.5
  0
INSERT
  5
E98
  8
0
  2
STDGX5
 10
195.098471327776
 20
4.8859434542094951
 30
0.0
  0
INSERT
  5
E99
  8
0
  2
STDGX5
 10
195.098471327776
 20
4.8859434542094951
 30
0.0
  0
INSERT
  5
E9A
  8
0
  2
STDGX5
 10
470.098471327776
 20
4.8859434542094951
 30
0.0
  0
INSERT
  5
E9B
  8
0
  2
STDGX5
 10
470.098471327776
 20
4.8859434542094951
 30
0.0
  0
INSERT
  5
E9C
  8
0
  2
STDGX5
 10
195.098471327776
 20
4.8859434542094951
 30
0.0
 41
0.5
 42
0.5
 43
0.5
  0
INSERT
  5
E9D
  8
0
  2
STDGX5
 10
195.098471327776
 20
4.8859434542094951
 30
0.0
 41
0.5
 42
0.5
 43
0.5
  0
INSERT
  5
E9E
  8
0
  2
STDGX5
 10
332.598471327776
 20
4.8859434542094951
 30
0.0
 41
0.5
 42
0.5
 43
0.5
  0
INSERT
  5
E9F
  8
0
  2
STDGX5
 10
332.598471327776
 20
4.8859434542094951
 30
0.0
 41
0.5
 42
0.5
 43
0.5
  0
INSERT
  5
EA0
  8
0
  2
STDGX5
 10
195.098471327776
 20
4.8859434542094951
 30
0.0
 41
0.5
 42
0.5
 43
0.5
  0
INSERT
  5
EA1
  8
0
  2
STDGX5
 10
195.098471327776
 20
4.8859434542094951
 30
0.0
 41
0.5
 42
0.5
 43
0.5
  0
INSERT
  5
EA2
  8
0
  2
STDGX5
 10
332.598471327776
 20
4.8859434542094951
 30
0.0
 41
0.5
 42
0.5
 43
0.5
  0
INSERT
  5
EA3
  8
0
  2
STDGX5
 10
332.598471327776
 20
4.8859434542094951
 30
0.0
 41
0.5
 42
0.5
 43
0.5
  0
LINE
  5
EB0
  8
0
 10
92.599999999999937
 20
67.0
 30
0.0
 11
92.599999999999937
 21
82.999999999999972
 31
0.0
  0
LINE
  5
EB1
  8
0
 10
89.900000000000006
 20
82.999999999999972
 30
0.0
 11
89.900000000000006
 21
66.999999999999986
 31
0.0
  0
LINE
  5
EB2
  8
0
 10
93.000000000000014
 20
67.400000000000006
 30
0.0
 11
93.000000000000014
 21
70.499999999999943
 31
0.0
  0
LINE
  5
EB3
  8
0
 10
89.900000000000006
 20
66.999999999999972
 30
0.0
 11
92.599999999999937
 21
67.0
 31
0.0
  0
LINE
  5
EB4
  8
0
 10
89.500000000000014
 20
67.399999999999977
 30
0.0
 11
89.900000000000006
 21
66.999999999999972
 31
0.0
  0
LINE
  5
EB5
  8
0
 10
92.599999999999937
 20
67.0
 30
0.0
 11
93.000000000000014
 21
67.400000000000006
 31
0.0
  0
LINE
  5
EB6
  8
1
 10
87.000000000000014
 20
75.0
 30
0.0
 11
101.4999999999999
 21
75.0
 31
0.0
  0
LINE
  5
EB7
  8
JISSEN
 10
98.599999999999937
 20
78.999999999999972
 30
0.0
 11
98.599999999999937
 21
71.0
 31
0.0
  0
LINE
  5
EB8
  8
3
 10
89.900000000000006
 20
76.002665868514498
 30
0.0
 11
92.599999999999937
 21
76.002665868514498
 31
0.0
  0
LINE
  5
EB9
  8
JISSEN
 10
99.000000000000028
 20
71.400000000000006
 30
0.0
 11
98.599999999999937
 21
71.0
 31
0.0
  0
ARC
  5
EBA
  8
0
 10
93.500000000000028
 20
70.499999999999943
 30
0.0
 40
0.5
 50
89.999999999996746
 51
180.0
  0
LINE
  5
EBB
  8
0
 10
93.500000000000028
 20
70.999999999999943
 30
0.0
 11
93.499999999999915
 21
70.999999999999972
 31
0.0
  0
LINE
  5
EBC
  8
JISSEN
 10
93.500000000000028
 20
70.999999999999943
 30
0.0
 11
98.599999999999937
 21
71.0
 31
0.0
  0
LINE
  5
EBD
  8
3
 10
89.900000000000006
 20
79.702282018339787
 30
0.0
 11
92.599999999999937
 21
79.702282018339787
 31
0.0
  0
LINE
  5
EBE
  8
3
 10
89.900000000000006
 20
78.854029392813686
 30
0.0
 11
92.599999999999937
 21
78.854029392813715
 31
0.0
  0
LINE
  5
EBF
  8
3
 10
89.900000000000006
 20
77.944996421477441
 30
0.0
 11
92.599999999999937
 21
77.944996421477441
 31
0.0
  0
LINE
  5
EC0
  8
3
 10
89.900000000000006
 20
76.989519097318833
 30
0.0
 11
92.599999999999937
 21
76.989519097318833
 31
0.0
  0
LINE
  5
EC1
  8
3
 10
89.900000000000006
 20
82.858298005829596
 30
0.0
 11
92.599999999999937
 21
82.858298005829482
 31
0.0
  0
LINE
  5
EC2
  8
3
 10
89.900000000000006
 20
82.608452130361314
 30
0.0
 11
92.599999999999937
 21
82.608452130361314
 31
0.0
  0
LINE
  5
EC3
  8
3
 10
89.900000000000006
 20
82.238616419728217
 30
0.0
 11
92.599999999999937
 21
82.238616419728217
 31
0.0
  0
LINE
  5
EC4
  8
3
 10
89.900000000000006
 20
81.754623404016087
 30
0.0
 11
92.599999999999937
 21
81.754623404016087
 31
0.0
  0
LINE
  5
EC5
  8
3
 10
89.900000000000006
 20
81.164105942206305
 30
0.0
 11
92.599999999999937
 21
81.164105942206305
 31
0.0
  0
LINE
  5
EC6
  8
3
 10
89.900000000000006
 20
80.476376847429563
 30
0.0
 11
92.600000000000051
 21
80.476376847429563
 31
0.0
  0
LINE
  5
EC7
  8
0
 10
89.900000000000006
 20
82.999999999999972
 30
0.0
 11
92.599999999999937
 21
82.999999999999972
 31
0.0
  0
LINE
  5
EC8
  8
0
 10
89.900000000000006
 20
82.999999999999972
 30
0.0
 11
89.500000000000014
 21
82.599999999999994
 31
0.0
  0
LINE
  5
EC9
  8
JISSEN
 10
98.599999999999937
 20
78.999999999999972
 30
0.0
 11
99.000000000000028
 21
78.599999999999966
 31
0.0
  0
ARC
  5
ECA
  8
0
 10
93.500000000000028
 20
79.499999999999972
 30
0.0
 40
0.5
 50
180.0
 51
270.0
  0
LINE
  5
ECB
  8
0
 10
93.500000000000028
 20
79.0
 30
0.0
 11
93.499999999999915
 21
79.0
 31
0.0
  0
LINE
  5
ECC
  8
0
 10
92.599999999999937
 20
82.999999999999972
 30
0.0
 11
93.000000000000014
 21
82.599999999999994
 31
0.0
  0
LINE
  5
ECD
  8
JISSEN
 10
93.500000000000028
 20
78.999999999999972
 30
0.0
 11
98.599999999999937
 21
78.999999999999972
 31
0.0
  0
LINE
  5
ECE
  8
3
 10
89.900000000000006
 20
75.0
 30
0.0
 11
92.599999999999937
 21
75.0
 31
0.0
  0
LINE
  5
F30
  8
0
 10
93.000000000000014
 20
70.499999999999943
 30
0.0
 11
92.999999999999915
 21
82.600000000000094
 31
0.0
  0
LINE
  5
F31
  8
2
 10
98.678999999999945
 20
73.0
 30
0.0
 11
89.821000000000055
 21
73.0
 31
0.0
  0
LINE
  5
F32
  8
2
 10
98.299999999999926
 20
73.379000000000005
 30
0.0
 11
90.200000000000017
 21
73.378999999999991
 31
0.0
  0
LINE
  5
F33
  8
0
 10
89.500000000000014
 20
67.399999999999935
 30
0.0
 11
89.500000000000014
 21
82.599999999999994
 31
0.0
  0
LINE
  5
F34
  8
0
 10
98.999999999999858
 20
71.399999999999864
 30
0.0
 11
99.000000000000028
 21
78.599999999999966
 31
0.0
  0
LINE
  5
F35
  8
2
 10
90.200000000000017
 20
73.378999999999991
 30
0.0
 11
89.500000000000014
 21
72.679000000000002
 31
0.0
  0
LINE
  5
F36
  8
2
 10
98.299999999999926
 20
73.379000000000005
 30
0.0
 11
98.999999999999915
 21
72.679000000000002
 31
0.0
  0
LINE
  5
F37
  8
2
 10
90.200000000000017
 20
73.378999999999991
 30
0.0
 11
90.200000000000017
 21
76.620999999999995
 31
0.0
  0
LINE
  5
F38
  8
2
 10
98.299999999999926
 20
73.379000000000005
 30
0.0
 11
98.29999999999994
 21
76.620999999999995
 31
0.0
  0
LINE
  5
F4D
  8
3
 10
89.900000000000006
 20
75.0
 30
0.0
 11
92.599999999999937
 21
75.0
 31
0.0
  0
LINE
  5
F4E
  8
3
 10
89.900000000000006
 20
69.523623152570423
 30
0.0
 11
92.600000000000051
 21
69.523623152570423
 31
0.0
  0
LINE
  5
F4F
  8
3
 10
89.900000000000006
 20
70.297717981660213
 30
0.0
 11
92.599999999999937
 21
70.297717981660213
 31
0.0
  0
LINE
  5
F50
  8
3
 10
89.900000000000006
 20
71.145970607186314
 30
0.0
 11
92.599999999999937
 21
71.145970607186285
 31
0.0
  0
LINE
  5
F51
  8
3
 10
89.900000000000006
 20
72.055003578522559
 30
0.0
 11
92.599999999999937
 21
72.055003578522559
 31
0.0
  0
LINE
  5
F52
  8
3
 10
89.900000000000006
 20
73.997334131485502
 30
0.0
 11
92.599999999999937
 21
73.997334131485502
 31
0.0
  0
LINE
  5
F53
  8
3
 10
89.900000000000006
 20
73.010480902681167
 30
0.0
 11
92.599999999999937
 21
73.010480902681167
 31
0.0
  0
LINE
  5
F54
  8
3
 10
89.900000000000006
 20
67.141701994170404
 30
0.0
 11
92.599999999999937
 21
67.141701994170504
 31
0.0
  0
LINE
  5
F55
  8
3
 10
89.900000000000006
 20
67.391547869638686
 30
0.0
 11
92.599999999999937
 21
67.391547869638686
 31
0.0
  0
LINE
  5
F56
  8
3
 10
89.900000000000006
 20
67.761383580271769
 30
0.0
 11
92.599999999999937
 21
67.761383580271769
 31
0.0
  0
LINE
  5
F57
  8
3
 10
89.900000000000006
 20
68.245376595983913
 30
0.0
 11
92.599999999999937
 21
68.245376595983913
 31
0.0
  0
LINE
  5
F58
  8
3
 10
89.900000000000006
 20
68.835894057793695
 30
0.0
 11
92.599999999999937
 21
68.835894057793695
 31
0.0
  0
LINE
  5
F59
  8
2
 10
98.299999999999926
 20
76.620999999999995
 30
0.0
 11
90.200000000000017
 21
76.621000000000009
 31
0.0
  0
LINE
  5
F5A
  8
2
 10
98.678999999999945
 20
77.0
 30
0.0
 11
89.821000000000055
 21
77.0
 31
0.0
  0
LINE
  5
F5B
  8
2
 10
98.299999999999926
 20
76.620999999999995
 30
0.0
 11
98.999999999999915
 21
77.320999999999984
 31
0.0
  0
LINE
  5
F5C
  8
2
 10
90.200000000000017
 20
76.621000000000009
 30
0.0
 11
89.500000000000014
 21
77.320999999999984
 31
0.0
  0
LINE
  5
F61
  8
0
 10
93.000000000000014
 20
107.40000000000001
 30
0.0
 11
93.000000000000014
 21
110.4999999999999
 31
0.0
  0
LINE
  5
F62
  8
0
 10
89.500000000000014
 20
107.39999999999991
 30
0.0
 11
89.500000000000014
 21
122.59999999999999
 31
0.0
  0
LINE
  5
F63
  8
0
 10
89.900000000000006
 20
122.9999999999999
 30
0.0
 11
89.900000000000006
 21
107.0
 31
0.0
  0
LINE
  5
F64
  8
0
 10
92.599999999999937
 20
107.0
 30
0.0
 11
92.599999999999937
 21
122.9999999999999
 31
0.0
  0
LINE
  5
F65
  8
0
 10
89.900000000000006
 20
107.0
 30
0.0
 11
92.599999999999937
 21
107.0
 31
0.0
  0
LINE
  5
F66
  8
3
 10
89.900000000000006
 20
107.1417019941704
 30
0.0
 11
92.599999999999937
 21
107.1417019941705
 31
0.0
  0
LINE
  5
F67
  8
3
 10
89.900000000000006
 20
107.3915478696387
 30
0.0
 11
92.599999999999937
 21
107.3915478696387
 31
0.0
  0
LINE
  5
F68
  8
3
 10
89.900000000000006
 20
107.7613835802717
 30
0.0
 11
92.599999999999937
 21
107.7613835802717
 31
0.0
  0
LINE
  5
F69
  8
3
 10
89.900000000000006
 20
108.2453765959839
 30
0.0
 11
92.599999999999937
 21
108.2453765959839
 31
0.0
  0
LINE
  5
F6A
  8
3
 10
89.900000000000006
 20
108.83589405779369
 30
0.0
 11
92.599999999999937
 21
108.83589405779369
 31
0.0
  0
LINE
  5
F6B
  8
0
 10
89.500000000000014
 20
107.40000000000001
 30
0.0
 11
89.900000000000006
 21
107.0
 31
0.0
  0
LINE
  5
F6C
  8
0
 10
92.599999999999937
 20
107.0
 30
0.0
 11
93.000000000000014
 21
107.40000000000001
 31
0.0
  0
LINE
  5
F6D
  8
1
 10
87.000000000000014
 20
115.0
 30
0.0
 11
101.4999999999999
 21
115.0
 31
0.0
  0
LINE
  5
F6E
  8
0
 10
93.000000000000014
 20
110.4999999999999
 30
0.0
 11
92.999999999999915
 21
122.60000000000009
 31
0.0
  0
LINE
  5
F6F
  8
0
 10
98.999999999999858
 20
111.39999999999981
 30
0.0
 11
99.000000000000028
 21
118.59999999999989
 31
0.0
  0
LINE
  5
F70
  8
JISSEN
 10
98.599999999999937
 20
118.9999999999999
 30
0.0
 11
98.599999999999937
 21
111.0
 31
0.0
  0
LINE
  5
F71
  8
2
 10
98.299999999999926
 20
113.379
 30
0.0
 11
98.29999999999994
 21
116.621
 31
0.0
  0
LINE
  5
F72
  8
2
 10
90.200000000000017
 20
113.379
 30
0.0
 11
90.200000000000017
 21
116.621
 31
0.0
  0
LINE
  5
F73
  8
JISSEN
 10
93.500000000000028
 20
110.9999999999999
 30
0.0
 11
98.599999999999937
 21
111.0
 31
0.0
  0
LINE
  5
F74
  8
2
 10
98.678999999999945
 20
113.0
 30
0.0
 11
89.821000000000055
 21
113.0
 31
0.0
  0
LINE
  5
F75
  8
2
 10
98.299999999999926
 20
113.379
 30
0.0
 11
90.200000000000017
 21
113.379
 31
0.0
  0
LINE
  5
F76
  8
3
 10
89.900000000000006
 20
110.2977179816602
 30
0.0
 11
92.599999999999937
 21
110.2977179816602
 31
0.0
  0
LINE
  5
F77
  8
3
 10
89.900000000000006
 20
111.1459706071863
 30
0.0
 11
92.599999999999937
 21
111.1459706071863
 31
0.0
  0
LINE
  5
F78
  8
3
 10
89.900000000000006
 20
112.0550035785225
 30
0.0
 11
92.599999999999937
 21
112.0550035785225
 31
0.0
  0
LINE
  5
F79
  8
3
 10
89.900000000000006
 20
109.52362315257039
 30
0.0
 11
92.600000000000051
 21
109.52362315257039
 31
0.0
  0
LINE
  5
F7A
  8
0
 10
93.500000000000028
 20
110.9999999999999
 30
0.0
 11
93.499999999999915
 21
110.9999999999999
 31
0.0
  0
ARC
  5
F7B
  8
0
 10
93.500000000000028
 20
110.4999999999999
 30
0.0
 40
0.5
 50
89.999999999996746
 51
180.0
  0
LINE
  5
F7C
  8
3
 10
89.900000000000006
 20
113.9973341314855
 30
0.0
 11
92.599999999999937
 21
113.9973341314855
 31
0.0
  0
LINE
  5
F7D
  8
3
 10
89.900000000000006
 20
113.0104809026811
 30
0.0
 11
92.599999999999937
 21
113.0104809026811
 31
0.0
  0
LINE
  5
F7E
  8
2
 10
90.200000000000017
 20
113.379
 30
0.0
 11
89.500000000000014
 21
112.679
 31
0.0
  0
LINE
  5
F7F
  8
JISSEN
 10
99.000000000000028
 20
111.40000000000001
 30
0.0
 11
98.599999999999937
 21
111.0
 31
0.0
  0
LINE
  5
F80
  8
2
 10
98.299999999999926
 20
113.379
 30
0.0
 11
98.999999999999915
 21
112.679
 31
0.0
  0
LINE
  5
F81
  8
JISSEN
 10
93.500000000000028
 20
118.9999999999999
 30
0.0
 11
98.599999999999937
 21
118.9999999999999
 31
0.0
  0
LINE
  5
F82
  8
2
 10
98.299999999999926
 20
116.621
 30
0.0
 11
90.200000000000017
 21
116.621
 31
0.0
  0
LINE
  5
F83
  8
2
 10
98.678999999999945
 20
117.0
 30
0.0
 11
89.821000000000055
 21
117.0
 31
0.0
  0
LINE
  5
F84
  8
3
 10
89.900000000000006
 20
116.98951909731881
 30
0.0
 11
92.599999999999937
 21
116.98951909731881
 31
0.0
  0
LINE
  5
F85
  8
3
 10
89.900000000000006
 20
116.0026658685145
 30
0.0
 11
92.599999999999937
 21
116.0026658685145
 31
0.0
  0
LINE
  5
F86
  8
3
 10
89.900000000000006
 20
115.0
 30
0.0
 11
92.599999999999937
 21
115.0
 31
0.0
  0
LINE
  5
F87
  8
3
 10
89.900000000000006
 20
115.0
 30
0.0
 11
92.599999999999937
 21
115.0
 31
0.0
  0
LINE
  5
F88
  8
2
 10
90.200000000000017
 20
116.621
 30
0.0
 11
89.500000000000014
 21
117.321
 31
0.0
  0
LINE
  5
F89
  8
3
 10
89.900000000000006
 20
117.9449964214774
 30
0.0
 11
92.599999999999937
 21
117.9449964214774
 31
0.0
  0
LINE
  5
F8A
  8
3
 10
89.900000000000006
 20
118.8540293928137
 30
0.0
 11
92.599999999999937
 21
118.8540293928137
 31
0.0
  0
LINE
  5
F8B
  8
3
 10
89.900000000000006
 20
119.7022820183398
 30
0.0
 11
92.599999999999937
 21
119.7022820183398
 31
0.0
  0
LINE
  5
F8C
  8
0
 10
93.500000000000028
 20
119.0
 30
0.0
 11
93.499999999999915
 21
119.0
 31
0.0
  0
ARC
  5
F8D
  8
0
 10
93.500000000000028
 20
119.5
 30
0.0
 40
0.5
 50
180.0
 51
270.0
  0
LINE
  5
F8E
  8
2
 10
98.299999999999926
 20
116.621
 30
0.0
 11
98.999999999999915
 21
117.321
 31
0.0
  0
LINE
  5
F8F
  8
JISSEN
 10
98.599999999999937
 20
118.9999999999999
 30
0.0
 11
99.000000000000028
 21
118.59999999999989
 31
0.0
  0
LINE
  5
F90
  8
3
 10
89.900000000000006
 20
121.16410594220631
 30
0.0
 11
92.599999999999937
 21
121.16410594220631
 31
0.0
  0
LINE
  5
F91
  8
3
 10
89.900000000000006
 20
121.7546234040161
 30
0.0
 11
92.599999999999937
 21
121.7546234040161
 31
0.0
  0
LINE
  5
F92
  8
3
 10
89.900000000000006
 20
122.2386164197282
 30
0.0
 11
92.599999999999937
 21
122.2386164197282
 31
0.0
  0
LINE
  5
F93
  8
3
 10
89.900000000000006
 20
122.6084521303613
 30
0.0
 11
92.599999999999937
 21
122.6084521303613
 31
0.0
  0
LINE
  5
F94
  8
3
 10
89.900000000000006
 20
122.8582980058296
 30
0.0
 11
92.599999999999937
 21
122.8582980058295
 31
0.0
  0
LINE
  5
F95
  8
0
 10
89.900000000000006
 20
122.9999999999999
 30
0.0
 11
92.599999999999937
 21
122.9999999999999
 31
0.0
  0
LINE
  5
F96
  8
3
 10
89.900000000000006
 20
120.47637684742961
 30
0.0
 11
92.600000000000051
 21
120.47637684742961
 31
0.0
  0
LINE
  5
F97
  8
0
 10
89.900000000000006
 20
122.9999999999999
 30
0.0
 11
89.500000000000014
 21
122.59999999999999
 31
0.0
  0
LINE
  5
F98
  8
0
 10
92.599999999999937
 20
122.9999999999999
 30
0.0
 11
93.000000000000014
 21
122.59999999999999
 31
0.0
  0
LINE
  5
F99
  8
0
 10
93.000000000000014
 20
27.400000000000009
 30
0.0
 11
93.000000000000014
 21
30.49999999999994
 31
0.0
  0
LINE
  5
F9A
  8
0
 10
89.500000000000014
 20
27.399999999999949
 30
0.0
 11
89.500000000000014
 21
42.599999999999987
 31
0.0
  0
LINE
  5
F9B
  8
0
 10
89.900000000000006
 20
42.999999999999972
 30
0.0
 11
89.900000000000006
 21
26.999999999999989
 31
0.0
  0
LINE
  5
F9C
  8
0
 10
92.599999999999937
 20
27.0
 30
0.0
 11
92.599999999999937
 21
42.999999999999972
 31
0.0
  0
LINE
  5
F9D
  8
0
 10
89.900000000000006
 20
26.999999999999972
 30
0.0
 11
92.599999999999937
 21
27.0
 31
0.0
  0
LINE
  5
F9E
  8
3
 10
89.900000000000006
 20
27.141701994170401
 30
0.0
 11
92.599999999999937
 21
27.141701994170521
 31
0.0
  0
LINE
  5
F9F
  8
3
 10
89.900000000000006
 20
27.391547869638689
 30
0.0
 11
92.599999999999937
 21
27.391547869638689
 31
0.0
  0
LINE
  5
FA0
  8
3
 10
89.900000000000006
 20
27.761383580271769
 30
0.0
 11
92.599999999999937
 21
27.761383580271769
 31
0.0
  0
LINE
  5
FA1
  8
3
 10
89.900000000000006
 20
28.24537659598391
 30
0.0
 11
92.599999999999937
 21
28.24537659598391
 31
0.0
  0
LINE
  5
FA2
  8
3
 10
89.900000000000006
 20
28.835894057793698
 30
0.0
 11
92.599999999999937
 21
28.835894057793698
 31
0.0
  0
LINE
  5
FA3
  8
0
 10
89.500000000000014
 20
27.399999999999981
 30
0.0
 11
89.900000000000006
 21
26.999999999999972
 31
0.0
  0
LINE
  5
FA4
  8
0
 10
92.599999999999937
 20
27.0
 30
0.0
 11
93.000000000000014
 21
27.400000000000009
 31
0.0
  0
LINE
  5
FA5
  8
1
 10
87.000000000000014
 20
35.0
 30
0.0
 11
101.4999999999999
 21
35.0
 31
0.0
  0
LINE
  5
FA6
  8
0
 10
93.000000000000014
 20
30.49999999999994
 30
0.0
 11
92.999999999999915
 21
42.600000000000108
 31
0.0
  0
LINE
  5
FA7
  8
0
 10
98.999999999999858
 20
31.39999999999986
 30
0.0
 11
99.000000000000028
 21
38.599999999999973
 31
0.0
  0
LINE
  5
FA8
  8
JISSEN
 10
98.599999999999937
 20
38.999999999999972
 30
0.0
 11
98.599999999999937
 21
31.0
 31
0.0
  0
LINE
  5
FA9
  8
2
 10
98.299999999999926
 20
33.379000000000012
 30
0.0
 11
98.29999999999994
 21
36.621000000000002
 31
0.0
  0
LINE
  5
FAA
  8
2
 10
90.200000000000017
 20
33.378999999999991
 30
0.0
 11
90.200000000000017
 21
36.621000000000002
 31
0.0
  0
LINE
  5
FAB
  8
JISSEN
 10
93.500000000000028
 20
30.99999999999994
 30
0.0
 11
98.599999999999937
 21
31.0
 31
0.0
  0
LINE
  5
FAC
  8
2
 10
98.678999999999945
 20
33.0
 30
0.0
 11
89.821000000000055
 21
33.0
 31
0.0
  0
LINE
  5
FAD
  8
2
 10
98.299999999999926
 20
33.379000000000012
 30
0.0
 11
90.200000000000017
 21
33.378999999999991
 31
0.0
  0
LINE
  5
FAE
  8
3
 10
89.900000000000006
 20
30.29771798166021
 30
0.0
 11
92.599999999999937
 21
30.29771798166021
 31
0.0
  0
LINE
  5
FAF
  8
3
 10
89.900000000000006
 20
31.145970607186321
 30
0.0
 11
92.599999999999937
 21
31.145970607186289
 31
0.0
  0
LINE
  5
FB0
  8
3
 10
89.900000000000006
 20
32.055003578522559
 30
0.0
 11
92.599999999999937
 21
32.055003578522559
 31
0.0
  0
LINE
  5
FB1
  8
3
 10
89.900000000000006
 20
29.523623152570419
 30
0.0
 11
92.600000000000051
 21
29.523623152570419
 31
0.0
  0
LINE
  5
FB2
  8
0
 10
93.500000000000028
 20
30.99999999999994
 30
0.0
 11
93.499999999999915
 21
30.999999999999972
 31
0.0
  0
ARC
  5
FB3
  8
0
 10
93.500000000000028
 20
30.49999999999994
 30
0.0
 40
0.5
 50
89.999999999996746
 51
180.0
  0
LINE
  5
FB4
  8
3
 10
89.900000000000006
 20
33.997334131485502
 30
0.0
 11
92.599999999999937
 21
33.997334131485502
 31
0.0
  0
LINE
  5
FB5
  8
3
 10
89.900000000000006
 20
33.010480902681167
 30
0.0
 11
92.599999999999937
 21
33.010480902681167
 31
0.0
  0
LINE
  5
FB6
  8
2
 10
90.200000000000017
 20
33.378999999999991
 30
0.0
 11
89.500000000000014
 21
32.679000000000002
 31
0.0
  0
LINE
  5
FB7
  8
JISSEN
 10
99.000000000000028
 20
31.400000000000009
 30
0.0
 11
98.599999999999937
 21
31.0
 31
0.0
  0
LINE
  5
FB8
  8
2
 10
98.299999999999926
 20
33.379000000000012
 30
0.0
 11
98.999999999999915
 21
32.679000000000002
 31
0.0
  0
LINE
  5
FB9
  8
JISSEN
 10
93.500000000000028
 20
38.999999999999972
 30
0.0
 11
98.599999999999937
 21
38.999999999999972
 31
0.0
  0
LINE
  5
FBA
  8
2
 10
98.299999999999926
 20
36.621000000000002
 30
0.0
 11
90.200000000000017
 21
36.621000000000009
 31
0.0
  0
LINE
  5
FBB
  8
2
 10
98.678999999999945
 20
37.0
 30
0.0
 11
89.821000000000055
 21
37.0
 31
0.0
  0
LINE
  5
FBC
  8
3
 10
89.900000000000006
 20
36.989519097318841
 30
0.0
 11
92.599999999999937
 21
36.989519097318841
 31
0.0
  0
LINE
  5
FBD
  8
3
 10
89.900000000000006
 20
36.002665868514498
 30
0.0
 11
92.599999999999937
 21
36.002665868514498
 31
0.0
  0
LINE
  5
FBE
  8
3
 10
89.900000000000006
 20
35.0
 30
0.0
 11
92.599999999999937
 21
35.0
 31
0.0
  0
LINE
  5
FBF
  8
3
 10
89.900000000000006
 20
35.0
 30
0.0
 11
92.599999999999937
 21
35.0
 31
0.0
  0
LINE
  5
FC0
  8
2
 10
90.200000000000017
 20
36.621000000000009
 30
0.0
 11
89.500000000000014
 21
37.320999999999998
 31
0.0
  0
LINE
  5
FC1
  8
3
 10
89.900000000000006
 20
37.944996421477441
 30
0.0
 11
92.599999999999937
 21
37.944996421477441
 31
0.0
  0
LINE
  5
FC2
  8
3
 10
89.900000000000006
 20
38.854029392813693
 30
0.0
 11
92.599999999999937
 21
38.854029392813722
 31
0.0
  0
LINE
  5
FC3
  8
3
 10
89.900000000000006
 20
39.702282018339787
 30
0.0
 11
92.599999999999937
 21
39.702282018339787
 31
0.0
  0
LINE
  5
FC4
  8
0
 10
93.500000000000028
 20
39.0
 30
0.0
 11
93.499999999999915
 21
39.0
 31
0.0
  0
ARC
  5
FC5
  8
0
 10
93.500000000000028
 20
39.499999999999972
 30
0.0
 40
0.5
 50
180.0
 51
270.0
  0
LINE
  5
FC6
  8
2
 10
98.299999999999926
 20
36.621000000000002
 30
0.0
 11
98.999999999999915
 21
37.320999999999998
 31
0.0
  0
LINE
  5
FC7
  8
JISSEN
 10
98.599999999999937
 20
38.999999999999972
 30
0.0
 11
99.000000000000028
 21
38.599999999999973
 31
0.0
  0
LINE
  5
FC8
  8
3
 10
89.900000000000006
 20
41.164105942206312
 30
0.0
 11
92.599999999999937
 21
41.164105942206312
 31
0.0
  0
LINE
  5
FC9
  8
3
 10
89.900000000000006
 20
41.75462340401608
 30
0.0
 11
92.599999999999937
 21
41.75462340401608
 31
0.0
  0
LINE
  5
FCA
  8
3
 10
89.900000000000006
 20
42.238616419728231
 30
0.0
 11
92.599999999999937
 21
42.238616419728231
 31
0.0
  0
LINE
  5
FCB
  8
3
 10
89.900000000000006
 20
42.608452130361307
 30
0.0
 11
92.599999999999937
 21
42.608452130361307
 31
0.0
  0
LINE
  5
FCC
  8
3
 10
89.900000000000006
 20
42.858298005829589
 30
0.0
 11
92.599999999999937
 21
42.858298005829482
 31
0.0
  0
LINE
  5
FCD
  8
0
 10
89.900000000000006
 20
42.999999999999972
 30
0.0
 11
92.599999999999937
 21
42.999999999999972
 31
0.0
  0
LINE
  5
FCE
  8
3
 10
89.900000000000006
 20
40.476376847429577
 30
0.0
 11
92.600000000000051
 21
40.476376847429577
 31
0.0
  0
LINE
  5
FCF
  8
0
 10
89.900000000000006
 20
42.999999999999972
 30
0.0
 11
89.500000000000014
 21
42.599999999999987
 31
0.0
  0
LINE
  5
FD0
  8
0
 10
92.599999999999937
 20
42.999999999999972
 30
0.0
 11
93.000000000000014
 21
42.599999999999987
 31
0.0
  0
CIRCLE
  5
FD5
  8
0
 10
140.0
 20
75.0
 30
0.0
 40
7.9999999999999707
  0
CIRCLE
  5
FD6
  8
0
 10
140.0
 20
75.0
 30
0.0
 40
7.600000000000108
  0
CIRCLE
  5
FD7
  8
0
 10
140.0
 20
75.0
 30
0.0
 40
3.9999999999999711
  0
CIRCLE
  5
FD8
  8
0
 10
140.0
 20
75.0
 30
0.0
 40
3.5999999999999801
  0
CIRCLE
  5
FE2
  8
0
 10
140.0
 20
75.0
 30
0.0
 40
1.649999999999999
  0
CIRCLE
  5
FE3
  8
3
 10
140.0
 20
75.0
 30
0.0
 40
2.0
  0
LINE
  5
FE7
  8
1
 10
50.0
 20
85.5
 30
0.0
 11
50.0
 21
64.5
 31
0.0
  0
CIRCLE
  5
FE8
  8
0
 10
50.0
 20
75.0
 30
0.0
 40
7.600000000000108
  0
CIRCLE
  5
FE9
  8
0
 10
50.0
 20
75.0
 30
0.0
 40
7.9999999999999707
  0
LINE
  5
FEA
  8
1
 10
60.5
 20
75.0
 30
0.0
 11
39.5
 21
75.0
 31
0.0
  0
CIRCLE
  5
FEB
  8
3
 10
50.0
 20
75.0
 30
0.0
 40
2.0
  0
CIRCLE
  5
FEC
  8
0
 10
50.0
 20
75.0
 30
0.0
 40
1.649999999999999
  0
CIRCLE
  5
FED
  8
0
 10
50.0
 20
75.0
 30
0.0
 40
3.5999999999999801
  0
CIRCLE
  5
FEE
  8
0
 10
50.0
 20
75.0
 30
0.0
 40
3.9999999999999711
  0
TEXT
  5
1149
  8
0
 62
     3
 10
0.0
 20
0.0
 30
0.0
 40
10.0
  1
TKN4
  7
STANDARD1
  0
ENDSEC
  0
EOF
