  0
SECTION
  2
HEADER
  9
$ACADVER
  1
AC1009
  9
$INSBASE
 10
0.0
 20
0.0
 30
0.0
  9
$EXTMIN
 10
0.0
 20
-2.960436562073669
 30
0.0
  9
$EXTMAX
 10
148.5
 20
121.0
 30
0.0
  9
$LIMMIN
 10
0.0
 20
0.0
  9
$LIMMAX
 10
187.5
 20
135.0
  9
$ORTHOMODE
 70
     1
  9
$REGENMODE
 70
     1
  9
$FILLMODE
 70
     1
  9
$QTEXTMODE
 70
     0
  9
$MIRRTEXT
 70
     0
  9
$DRAGMODE
 70
     2
  9
$LTSCALE
 40
5.0
  9
$OSMODE
 70
    55
  9
$ATTMODE
 70
     1
  9
$TEXTSIZE
 40
0.2
  9
$TRACEWID
 40
0.05
  9
$TEXTSTYLE
  7
STANDARD
  9
$CLAYER
  8
0
  9
$CELTYPE
  6
BYLAYER
  9
$CECOLOR
 62
   256
  9
$DIMSCALE
 40
0.5
  9
$DIMASZ
 40
3.0
  9
$DIMEXO
 40
2.0
  9
$DIMDLI
 40
0.38
  9
$DIMRND
 40
0.0
  9
$DIMDLE
 40
0.0
  9
$DIMEXE
 40
2.0
  9
$DIMTP
 40
0.0
  9
$DIMTM
 40
0.0
  9
$DIMTXT
 40
3.2000000000000002
  9
$DIMCEN
 40
0.09
  9
$DIMTSZ
 40
0.0
  9
$DIMTOL
 70
     0
  9
$DIMLIM
 70
     0
  9
$DIMTIH
 70
     0
  9
$DIMTOH
 70
     0
  9
$DIMSE1
 70
     0
  9
$DIMSE2
 70
     0
  9
$DIMTAD
 70
     1
  9
$DIMZIN
 70
     0
  9
$DIMBLK
  1

  9
$DIMASO
 70
     1
  9
$DIMSHO
 70
     0
  9
$DIMPOST
  1

  9
$DIMAPOST
  1

  9
$DIMALT
 70
     0
  9
$DIMALTD
 70
     2
  9
$DIMALTF
 40
25.399999999999999
  9
$DIMLFAC
 40
1.0
  9
$DIMTOFL
 70
     0
  9
$DIMTVP
 40
0.0
  9
$DIMTIX
 70
     0
  9
$DIMSOXD
 70
     0
  9
$DIMSAH
 70
     0
  9
$DIMBLK1
  1

  9
$DIMBLK2
  1

  9
$DIMSTYLE
  2
STANDARD
  9
$DIMCLRD
 70
     0
  9
$DIMCLRE
 70
     0
  9
$DIMCLRT
 70
     0
  9
$DIMTFAC
 40
1.0
  9
$DIMGAP
 40
0.09
  9
$LUNITS
 70
     2
  9
$LUPREC
 70
     4
  9
$SKETCHINC
 40
0.1
  9
$FILLETRAD
 40
0.0
  9
$AUNITS
 70
     0
  9
$AUPREC
 70
     0
  9
$MENU
  1
E:\r13\win\SUPPORT\ACAD
  9
$ELEVATION
 40
0.0
  9
$PELEVATION
 40
0.0
  9
$THICKNESS
 40
0.0
  9
$LIMCHECK
 70
     0
  9
$BLIPMODE
 70
     0
  9
$CHAMFERA
 40
0.0
  9
$CHAMFERB
 40
0.0
  9
$SKPOLY
 70
     0
  9
$TDCREATE
 40
2449840.605104167
  9
$TDUPDATE
 40
2456598.4463866898
  9
$TDINDWG
 40
0.0186246644
  9
$TDUSRTIMER
 40
0.0186246644
  9
$USRTIMER
 70
     1
  9
$ANGBASE
 50
0.0
  9
$ANGDIR
 70
     0
  9
$PDMODE
 70
     0
  9
$PDSIZE
 40
0.0
  9
$PLINEWID
 40
0.0
  9
$COORDS
 70
     1
  9
$SPLFRAME
 70
     0
  9
$SPLINETYPE
 70
     6
  9
$SPLINESEGS
 70
     8
  9
$ATTDIA
 70
     0
  9
$ATTREQ
 70
     1
  9
$HANDLING
 70
     1
  9
$HANDSEED
  5
ACE
  9
$SURFTAB1
 70
     6
  9
$SURFTAB2
 70
     6
  9
$SURFTYPE
 70
     6
  9
$SURFU
 70
     6
  9
$SURFV
 70
     6
  9
$UCSNAME
  2

  9
$UCSORG
 10
0.0
 20
0.0
 30
0.0
  9
$UCSXDIR
 10
1.0
 20
0.0
 30
0.0
  9
$UCSYDIR
 10
0.0
 20
1.0
 30
0.0
  9
$PUCSNAME
  2

  9
$PUCSORG
 10
0.0
 20
0.0
 30
0.0
  9
$PUCSXDIR
 10
1.0
 20
0.0
 30
0.0
  9
$PUCSYDIR
 10
0.0
 20
1.0
 30
0.0
  9
$USERI1
 70
     0
  9
$USERI2
 70
     1
  9
$USERI3
 70
     1
  9
$USERI4
 70
     0
  9
$USERI5
 70
     0
  9
$USERR1
 40
0.0
  9
$USERR2
 40
0.0
  9
$USERR3
 40
0.0
  9
$USERR4
 40
0.0
  9
$USERR5
 40
0.0
  9
$WORLDVIEW
 70
     1
  9
$SHADEDGE
 70
     3
  9
$SHADEDIF
 70
    70
  9
$TILEMODE
 70
     1
  9
$MAXACTVP
 70
    16
  9
$PLIMCHECK
 70
     0
  9
$PEXTMIN
 10
1.0000000000000000E+020
 20
1.0000000000000000E+020
 30
1.0000000000000000E+020
  9
$PEXTMAX
 10
-1.0000000000000000E+020
 20
-1.0000000000000000E+020
 30
-1.0000000000000000E+020
  9
$PLIMMIN
 10
0.0
 20
0.0
  9
$PLIMMAX
 10
12.0
 20
9.0
  9
$UNITMODE
 70
     0
  9
$VISRETAIN
 70
     0
  9
$PLINEGEN
 70
     0
  9
$PSLTSCALE
 70
     0
  0
ENDSEC
  0
SECTION
  2
TABLES
  0
TABLE
  2
VPORT
 70
     1
  0
VPORT
  2
*ACTIVE
 70
     0
 10
0.0
 20
0.0
 11
1.0
 21
1.0
 12
93.74713919532617
 22
98.129098027095807
 13
0.0
 23
0.0
 14
5.0
 24
5.0
 15
5.0
 25
5.0
 16
0.0
 26
0.0
 36
1.0
 17
0.0
 27
0.0
 37
0.0
 40
203.97931595516741
 41
1.7807262569832401
 42
50.0
 43
0.0
 44
0.0
 50
0.0
 51
0.0
 71
     0
 72
   100
 73
     1
 74
     0
 75
     0
 76
     0
 77
     0
 78
     0
  0
ENDTAB
  0
TABLE
  2
LTYPE
 70
     4
  0
LTYPE
  2
CONTINUOUS
 70
     0
  3
Solid Line
 72
    65
 73
     0
 40
0.0
  0
LTYPE
  2
CENTER
 70
     0
  3
____ _ ____ _ ____ _ ____ _ ____ _ ____ _ ____
 72
    65
 73
     4
 40
2.0
 49
1.25
 49
-0.25
 49
0.25
 49
-0.25
  0
LTYPE
  2
HIDDEN
 70
     0
  3
_ _ _ _ _ _ _ _ _ _ _ _ _ _ _ _ _ _ _ _ _ _ _
 72
    65
 73
     2
 40
0.375
 49
0.25
 49
-0.125
  0
LTYPE
  2
PHANTOM2
 70
     0
  3
___ _ _ ___ _ _ ___ _ _ ___ _ _
 72
    65
 73
     6
 40
1.25
 49
0.625
 49
-0.125
 49
0.125
 49
-0.125
 49
0.125
 49
-0.125
  0
ENDTAB
  0
TABLE
  2
LAYER
 70
     6
  0
LAYER
  2
0
 70
     0
 62
     7
  6
CONTINUOUS
  0
LAYER
  2
1
 70
     0
 62
     1
  6
CENTER
  0
LAYER
  2
2
 70
     0
 62
     2
  6
HIDDEN
  0
LAYER
  2
3
 70
     0
 62
     3
  6
CONTINUOUS
  0
LAYER
  2
11
 70
     0
 62
     3
  6
CONTINUOUS
  0
LAYER
  2
JISSEN
 70
     0
 62
     7
  6
CONTINUOUS
  0
ENDTAB
  0
TABLE
  2
STYLE
 70
     2
  0
STYLE
  2
STANDARD
 70
     0
 40
0.0
 41
1.0
 50
0.0
 71
     0
 42
0.2
  3
TXT
  4
BIGFONT
  0
STYLE
  2
STANDARD1
 70
     0
 40
0.0
 41
1.0
 50
0.0
 71
     0
 42
3.0
  3
txt
  4

  0
ENDTAB
  0
TABLE
  2
VIEW
 70
     1
  0
VIEW
  2
ALL
 70
     0
 40
135.0
 10
110.49579799999999
 20
67.5
 41
0.0
 11
0.0
 21
0.0
 31
1.0
 12
0.0
 22
0.0
 32
0.0
 42
0.0
 43
0.0
 44
0.0
 50
0.0
 71
     0
  0
ENDTAB
  0
TABLE
  2
UCS
 70
     0
  0
ENDTAB
  0
TABLE
  2
APPID
 70
     6
  0
APPID
  2
ACAD
 70
     0
  0
APPID
  2
GENIUS_GENODEF_13
 70
     0
  0
APPID
  2
GENIUS_GENOBJ-N-FIL_13
 70
     0
  0
APPID
  2
_CALL_MAC$
 70
     0
  0
APPID
  2
ACAD_MLEADERVER
 70
     0
  0
APPID
  2
ACAD_NAV_VCDISPLAY
 70
     0
  0
ENDTAB
  0
TABLE
  2
DIMSTYLE
 70
     1
  0
DIMSTYLE
  2
STANDARD
 70
     0
  3

  4

  5

  6

  7

 40
1.0
 41
0.18
 42
0.0625
 43
0.38
 44
0.18
 45
0.0
 46
0.0
 47
0.0
 48
0.0
140
0.18
141
0.09
142
0.0
143
25.399999999999999
144
1.0
145
0.0
146
1.0
147
0.09
 71
     0
 72
     0
 73
     1
 74
     1
 75
     0
 76
     0
 77
     0
 78
     0
170
     0
171
     2
172
     0
173
     0
174
     0
175
     0
176
     0
177
     0
178
     0
  0
ENDTAB
  0
ENDSEC
  0
SECTION
  2
BLOCKS
  0
BLOCK
  8
0
  2
$MODEL_SPACE
 70
     0
 10
0.0
 20
0.0
 30
0.0
  3
$MODEL_SPACE
  1

  0
ENDBLK
  5
910
  8
0
  0
BLOCK
 67
     1
  8
0
  2
$PAPER_SPACE
 70
     0
 10
0.0
 20
0.0
 30
0.0
  3
$PAPER_SPACE
  1

  0
ENDBLK
  5
90E
 67
     1
  8
0
  0
BLOCK
  8
0
  2
STDGX5
 70
     0
 10
0.0
 20
0.0
 30
0.0
  3
STDGX5
  1

  0
ENDBLK
  5
220
  8
0
  0
ENDSEC
  0
SECTION
  2
ENTITIES
  0
LINE
  5
10E
  8
1
 10
148.5
 20
75.0
 30
0.0
 11
131.49999999999989
 21
75.0
 31
0.0
  0
LINE
  5
10F
  8
1
 10
140.0
 20
83.500000000000057
 30
0.0
 11
140.0
 21
66.499999999999943
 31
0.0
  0
INSERT
  5
6C6
  8
11
  2
STDGX5
 10
225.5016897062429
 20
71.219275779330815
 30
0.0
  0
INSERT
  5
6C7
  8
11
  2
STDGX5
 10
262.98678832245929
 20
35.219275502727903
 30
0.0
  0
INSERT
  5
6C8
  8
11
  2
STDGX5
 10
196.53593126087091
 20
2.8679245323004352
 30
0.0
  0
INSERT
  5
6C9
  8
11
  2
STDGX5
 10
265.65243185952772
 20
70.860275930164448
 30
0.0
  0
INSERT
  5
6CA
  8
11
  2
STDGX5
 10
265.65243185952772
 20
70.860275930164448
 30
0.0
  0
INSERT
  5
6CB
  8
11
  2
STDGX5
 10
265.65243185952772
 20
70.860275930164448
 30
0.0
  0
INSERT
  5
6CC
  8
11
  2
STDGX5
 10
265.65243185952772
 20
70.860275930164448
 30
0.0
  0
INSERT
  5
6CD
  8
11
  2
STDGX5
 10
265.65243185952772
 20
70.860275930164448
 30
0.0
  0
INSERT
  5
6CE
  8
11
  2
STDGX5
 10
540.65243185952772
 20
127.14405945858741
 30
0.0
  0
INSERT
  5
6CF
  8
11
  2
STDGX5
 10
540.65243185952772
 20
127.14405945858741
 30
0.0
  0
INSERT
  5
6D0
  8
11
  2
STDGX5
 10
540.65243185952772
 20
127.14405945858741
 30
0.0
  0
INSERT
  5
6D1
  8
11
  2
STDGX5
 10
540.65243185952772
 20
127.14405945858741
 30
0.0
  0
INSERT
  5
6D2
  8
11
  2
STDGX5
 10
784.86705478376507
 20
283.98791866902621
 30
0.0
  0
INSERT
  5
6D3
  8
11
  2
STDGX5
 10
822.3521533999816
 20
247.98791839242321
 30
0.0
  0
INSERT
  5
6D4
  8
11
  2
STDGX5
 10
755.90129633839308
 20
215.63656742199581
 30
0.0
  0
INSERT
  5
6D5
  8
11
  2
STDGX5
 10
905.15041180222624
 20
363.36848076063018
 30
0.0
  0
INSERT
  5
6D6
  8
11
  2
STDGX5
 10
942.63551041844266
 20
327.3684804840272
 30
0.0
  0
INSERT
  5
6D7
  8
11
  2
STDGX5
 10
876.18465335685437
 20
295.0171295135998
 30
0.0
  0
INSERT
  5
6D8
  8
11
  2
STDGX5
 10
615.50168970624293
 20
96.219318981747733
 30
0.0
  0
INSERT
  5
6D9
  8
11
  2
STDGX5
 10
652.98678832245935
 20
60.219318705144822
 30
0.0
  0
INSERT
  5
6DA
  8
11
  2
STDGX5
 10
586.53593126087094
 20
27.86796773471735
 30
0.0
  0
INSERT
  5
6DB
  8
11
  2
STDGX5
 10
655.65243185952772
 20
95.860319132581367
 30
0.0
  0
INSERT
  5
6DC
  8
11
  2
STDGX5
 10
655.65243185952772
 20
95.860319132581367
 30
0.0
  0
INSERT
  5
6DD
  8
11
  2
STDGX5
 10
655.65243185952772
 20
95.860319132581367
 30
0.0
  0
INSERT
  5
6DE
  8
11
  2
STDGX5
 10
655.65243185952772
 20
95.860319132581367
 30
0.0
  0
INSERT
  5
6DF
  8
11
  2
STDGX5
 10
655.65243185952772
 20
95.860319132581367
 30
0.0
  0
INSERT
  5
6E0
  8
11
  2
STDGX5
 10
930.65243185952772
 20
152.1441026610043
 30
0.0
  0
INSERT
  5
6E1
  8
11
  2
STDGX5
 10
930.65243185952772
 20
152.1441026610043
 30
0.0
  0
INSERT
  5
6E2
  8
11
  2
STDGX5
 10
930.65243185952772
 20
152.1441026610043
 30
0.0
  0
INSERT
  5
6E3
  8
11
  2
STDGX5
 10
930.65243185952772
 20
152.1441026610043
 30
0.0
  0
INSERT
  5
6E4
  8
11
  2
STDGX5
 10
1174.8670547837651
 20
308.98796187144308
 30
0.0
  0
INSERT
  5
6E5
  8
11
  2
STDGX5
 10
1212.352153399981
 20
272.98796159484021
 30
0.0
  0
INSERT
  5
6E6
  8
11
  2
STDGX5
 10
1145.901296338393
 20
240.6366106244127
 30
0.0
  0
INSERT
  5
6E7
  8
11
  2
STDGX5
 10
1295.150411802226
 20
388.3685239630471
 30
0.0
  0
INSERT
  5
6E8
  8
11
  2
STDGX5
 10
1332.6355104184429
 20
352.36852368644418
 30
0.0
  0
INSERT
  5
6E9
  8
11
  2
STDGX5
 10
1266.1846533568539
 20
320.01717271601672
 30
0.0
  0
INSERT
  5
6EA
  8
11
  2
STDGX5
 10
632.40020784750743
 20
152.5398776010563
 30
0.0
  0
INSERT
  5
6EB
  8
11
  2
STDGX5
 10
669.88530646372385
 20
116.5398773244534
 30
0.0
  0
INSERT
  5
6EC
  8
11
  2
STDGX5
 10
603.43444940213544
 20
84.188526354025953
 30
0.0
  0
INSERT
  5
6ED
  8
11
  2
STDGX5
 10
672.55095000079223
 20
152.18087775188991
 30
0.0
  0
INSERT
  5
6EE
  8
11
  2
STDGX5
 10
672.55095000079223
 20
152.18087775188991
 30
0.0
  0
INSERT
  5
6EF
  8
11
  2
STDGX5
 10
672.55095000079223
 20
152.18087775188991
 30
0.0
  0
INSERT
  5
6F0
  8
11
  2
STDGX5
 10
672.55095000079223
 20
152.18087775188991
 30
0.0
  0
INSERT
  5
6F1
  8
11
  2
STDGX5
 10
672.55095000079223
 20
152.18087775188991
 30
0.0
  0
INSERT
  5
6F2
  8
11
  2
STDGX5
 10
947.55095000079211
 20
208.4646612803129
 30
0.0
  0
INSERT
  5
6F3
  8
11
  2
STDGX5
 10
947.55095000079211
 20
208.4646612803129
 30
0.0
  0
INSERT
  5
6F4
  8
11
  2
STDGX5
 10
947.55095000079211
 20
208.4646612803129
 30
0.0
  0
INSERT
  5
6F5
  8
11
  2
STDGX5
 10
947.55095000079211
 20
208.4646612803129
 30
0.0
  0
INSERT
  5
6F6
  8
11
  2
STDGX5
 10
1191.7655729250289
 20
365.30852049075168
 30
0.0
  0
INSERT
  5
6F7
  8
11
  2
STDGX5
 10
1229.250671541246
 20
329.30852021414881
 30
0.0
  0
INSERT
  5
6F8
  8
11
  2
STDGX5
 10
1162.799814479657
 20
296.9571692437213
 30
0.0
  0
INSERT
  5
6F9
  8
11
  2
STDGX5
 10
1312.048929943491
 20
444.68908258235558
 30
0.0
  0
INSERT
  5
6FA
  8
11
  2
STDGX5
 10
1349.5340285597069
 20
408.68908230575278
 30
0.0
  0
INSERT
  5
6FB
  8
11
  2
STDGX5
 10
1283.0831714981191
 20
376.33773133532532
 30
0.0
  0
INSERT
  5
6FD
  8
0
  2
STDGX5
 10
196.53593126087091
 20
2.8679245323004352
 30
0.0
  0
INSERT
  5
6FE
  8
0
  2
STDGX5
 10
196.53593126087091
 20
2.8679245323004352
 30
0.0
  0
INSERT
  5
6FF
  8
0
  2
STDGX5
 10
471.53593126087088
 20
2.8679245323004352
 30
0.0
  0
INSERT
  5
700
  8
0
  2
STDGX5
 10
471.53593126087088
 20
2.8679245323004352
 30
0.0
  0
INSERT
  5
701
  8
0
  2
STDGX5
 10
196.53593126087091
 20
2.8679245323004352
 30
0.0
 41
0.5
 42
0.5
 43
0.5
  0
INSERT
  5
702
  8
0
  2
STDGX5
 10
196.53593126087091
 20
2.8679245323004352
 30
0.0
 41
0.5
 42
0.5
 43
0.5
  0
INSERT
  5
703
  8
0
  2
STDGX5
 10
334.03593126087088
 20
2.8679245323004352
 30
0.0
 41
0.5
 42
0.5
 43
0.5
  0
INSERT
  5
704
  8
0
  2
STDGX5
 10
334.03593126087088
 20
2.8679245323004352
 30
0.0
 41
0.5
 42
0.5
 43
0.5
  0
INSERT
  5
705
  8
0
  2
STDGX5
 10
196.53593126087091
 20
2.8679245323004352
 30
0.0
  0
INSERT
  5
706
  8
0
  2
STDGX5
 10
196.53593126087091
 20
2.8679245323004352
 30
0.0
  0
INSERT
  5
707
  8
0
  2
STDGX5
 10
471.53593126087088
 20
2.8679245323004352
 30
0.0
  0
INSERT
  5
708
  8
0
  2
STDGX5
 10
471.53593126087088
 20
2.8679245323004352
 30
0.0
  0
INSERT
  5
709
  8
0
  2
STDGX5
 10
196.53593126087091
 20
2.8679245323004352
 30
0.0
 41
0.5
 42
0.5
 43
0.5
  0
INSERT
  5
70A
  8
0
  2
STDGX5
 10
196.53593126087091
 20
2.8679245323004352
 30
0.0
 41
0.5
 42
0.5
 43
0.5
  0
INSERT
  5
70B
  8
0
  2
STDGX5
 10
334.03593126087088
 20
2.8679245323004352
 30
0.0
 41
0.5
 42
0.5
 43
0.5
  0
INSERT
  5
70C
  8
0
  2
STDGX5
 10
334.03593126087088
 20
2.8679245323004352
 30
0.0
 41
0.5
 42
0.5
 43
0.5
  0
INSERT
  5
70D
  8
0
  2
STDGX5
 10
196.53593126087091
 20
2.8679245323004352
 30
0.0
  0
INSERT
  5
70E
  8
0
  2
STDGX5
 10
196.53593126087091
 20
2.8679245323004352
 30
0.0
  0
INSERT
  5
70F
  8
0
  2
STDGX5
 10
471.53593126087088
 20
2.8679245323004352
 30
0.0
  0
INSERT
  5
710
  8
0
  2
STDGX5
 10
471.53593126087088
 20
2.8679245323004352
 30
0.0
  0
INSERT
  5
711
  8
0
  2
STDGX5
 10
196.53593126087091
 20
2.8679245323004352
 30
0.0
 41
0.5
 42
0.5
 43
0.5
  0
INSERT
  5
712
  8
0
  2
STDGX5
 10
196.53593126087091
 20
2.8679245323004352
 30
0.0
 41
0.5
 42
0.5
 43
0.5
  0
INSERT
  5
713
  8
0
  2
STDGX5
 10
334.03593126087088
 20
2.8679245323004352
 30
0.0
 41
0.5
 42
0.5
 43
0.5
  0
INSERT
  5
714
  8
0
  2
STDGX5
 10
334.03593126087088
 20
2.8679245323004352
 30
0.0
 41
0.5
 42
0.5
 43
0.5
  0
INSERT
  5
715
  8
0
  2
STDGX5
 10
196.53593126087091
 20
2.8679245323004352
 30
0.0
 41
0.5
 42
0.5
 43
0.5
  0
INSERT
  5
716
  8
0
  2
STDGX5
 10
196.53593126087091
 20
2.8679245323004352
 30
0.0
 41
0.5
 42
0.5
 43
0.5
  0
INSERT
  5
717
  8
0
  2
STDGX5
 10
334.03593126087088
 20
2.8679245323004352
 30
0.0
 41
0.5
 42
0.5
 43
0.5
  0
INSERT
  5
718
  8
0
  2
STDGX5
 10
334.03593126087088
 20
2.8679245323004352
 30
0.0
 41
0.5
 42
0.5
 43
0.5
  0
LINE
  5
725
  8
0
 10
90.799999999999983
 20
69.000000000000142
 30
0.0
 11
90.799999999999983
 21
81.0
 31
0.0
  0
LINE
  5
726
  8
0
 10
92.69999999999996
 20
81.0
 30
0.0
 11
92.699999999999847
 21
68.999999999999943
 31
0.0
  0
LINE
  5
727
  8
0
 10
92.999999999999972
 20
69.300000000000054
 30
0.0
 11
92.999999999999972
 21
71.500000000000114
 31
0.0
  0
LINE
  5
728
  8
JISSEN
 10
97.69999999999996
 20
78.000000000000057
 30
0.0
 11
97.69999999999996
 21
72.000000000000085
 31
0.0
  0
LINE
  5
729
  8
1
 10
87.999999999999972
 20
75.0
 30
0.0
 11
100.5
 21
75.0
 31
0.0
  0
LINE
  5
72A
  8
0
 10
90.799999999999983
 20
69.000000000000114
 30
0.0
 11
92.699999999999903
 21
69.0
 31
0.0
  0
LINE
  5
72B
  8
0
 10
90.500000000000014
 20
69.300000000000054
 30
0.0
 11
90.799999999999983
 21
69.000000000000114
 31
0.0
  0
LINE
  5
72C
  8
0
 10
92.699999999999903
 20
69.0
 30
0.0
 11
92.999999999999915
 21
69.300000000000054
 31
0.0
  0
LINE
  5
72D
  8
3
 10
90.799999999999983
 20
75.751999401385874
 30
0.0
 11
92.69999999999996
 21
75.751999401385874
 31
0.0
  0
LINE
  5
72E
  8
3
 10
90.799999999999983
 20
76.492139322989033
 30
0.0
 11
92.699999999999903
 21
76.492139322989146
 31
0.0
  0
LINE
  5
72F
  8
JISSEN
 10
98.000000000000043
 20
72.300000000000125
 30
0.0
 11
97.69999999999996
 21
72.000000000000114
 31
0.0
  0
LINE
  5
730
  8
0
 10
93.499999999999915
 20
72.000000000000114
 30
0.0
 11
93.499999999999972
 21
72.000000000000114
 31
0.0
  0
ARC
  5
731
  8
0
 10
93.499999999999915
 20
71.500000000000114
 30
0.0
 40
0.5
 50
90.000000000006509
 51
179.9999999999994
  0
LINE
  5
732
  8
JISSEN
 10
93.499999999999915
 20
72.000000000000114
 30
0.0
 11
97.69999999999996
 21
72.000000000000114
 31
0.0
  0
LINE
  5
733
  8
0
 10
90.799999999999983
 20
81.0
 30
0.0
 11
92.69999999999996
 21
81.0
 31
0.0
  0
LINE
  5
734
  8
3
 10
90.799999999999983
 20
80.893723504372133
 30
0.0
 11
92.69999999999996
 21
80.893723504372133
 31
0.0
  0
LINE
  5
735
  8
3
 10
90.799999999999983
 20
80.706339097770979
 30
0.0
 11
92.69999999999996
 21
80.706339097770979
 31
0.0
  0
LINE
  5
736
  8
3
 10
90.799999999999983
 20
80.428962314796195
 30
0.0
 11
92.69999999999996
 21
80.428962314796195
 31
0.0
  0
LINE
  5
737
  8
3
 10
90.799999999999983
 20
80.065967553012115
 30
0.0
 11
92.69999999999996
 21
80.065967553012115
 31
0.0
  0
LINE
  5
738
  8
3
 10
90.799999999999983
 20
77.208747316108088
 30
0.0
 11
92.69999999999996
 21
77.208747316108088
 31
0.0
  0
LINE
  5
739
  8
3
 10
90.799999999999983
 20
77.890522044610293
 30
0.0
 11
92.69999999999996
 21
77.890522044610293
 31
0.0
  0
LINE
  5
73A
  8
3
 10
90.799999999999983
 20
78.526711513754876
 30
0.0
 11
92.69999999999996
 21
78.526711513754876
 31
0.0
  0
LINE
  5
73B
  8
3
 10
90.799999999999983
 20
79.107282635572233
 30
0.0
 11
92.69999999999996
 21
79.107282635572233
 31
0.0
  0
LINE
  5
73C
  8
3
 10
90.799999999999983
 20
79.62307945665475
 30
0.0
 11
92.69999999999996
 21
79.62307945665475
 31
0.0
  0
LINE
  5
73D
  8
0
 10
90.799999999999983
 20
81.0
 30
0.0
 11
90.499999999999972
 21
80.700000000000045
 31
0.0
  0
LINE
  5
73E
  8
JISSEN
 10
97.69999999999996
 20
78.000000000000057
 30
0.0
 11
98.000000000000043
 21
77.700000000000045
 31
0.0
  0
LINE
  5
73F
  8
0
 10
93.499999999999915
 20
78.0
 30
0.0
 11
93.499999999999972
 21
78.0
 31
0.0
  0
LINE
  5
740
  8
0
 10
92.69999999999996
 20
81.0
 30
0.0
 11
92.999999999999915
 21
80.700000000000045
 31
0.0
  0
ARC
  5
741
  8
0
 10
93.499999999999915
 20
78.5
 30
0.0
 40
0.5
 50
180.0
 51
270.0
  0
LINE
  5
742
  8
JISSEN
 10
93.499999999999915
 20
78.0
 30
0.0
 11
97.69999999999996
 21
78.000000000000057
 31
0.0
  0
LINE
  5
797
  8
3
 10
90.799999999999983
 20
75.0
 30
0.0
 11
92.69999999999996
 21
75.0
 31
0.0
  0
LINE
  5
7A2
  8
0
 10
93.0
 20
71.500000000000114
 30
0.0
 11
92.999999999999915
 21
80.700000000000045
 31
0.0
  0
LINE
  5
7A3
  8
2
 10
90.729499999999945
 20
73.5
 30
0.0
 11
97.770499999999998
 21
73.5
 31
0.0
  0
LINE
  5
7A4
  8
2
 10
90.999999999999972
 20
73.770499999999998
 30
0.0
 11
97.500000000000028
 21
73.770499999999998
 31
0.0
  0
LINE
  5
7A5
  8
JISSEN
 10
98.000000000000043
 20
72.300000000000182
 30
0.0
 11
98.000000000000043
 21
77.700000000000045
 31
0.0
  0
LINE
  5
7A6
  8
0
 10
90.499999999999972
 20
69.300000000000097
 30
0.0
 11
90.499999999999972
 21
80.700000000000045
 31
0.0
  0
LINE
  5
7A7
  8
2
 10
97.500000000000028
 20
73.770499999999998
 30
0.0
 11
98.000000000000043
 21
73.270499999999984
 31
0.0
  0
LINE
  5
7A8
  8
2
 10
90.999999999999972
 20
73.770499999999998
 30
0.0
 11
90.499999999999972
 21
73.270499999999984
 31
0.0
  0
LINE
  5
7A9
  8
2
 10
90.999999999999972
 20
73.770499999999998
 30
0.0
 11
90.999999999999972
 21
76.229500000000002
 31
0.0
  0
LINE
  5
7AA
  8
2
 10
97.500000000000028
 20
73.770499999999998
 30
0.0
 11
97.500000000000014
 21
76.22950000000003
 31
0.0
  0
LINE
  5
7FC
  8
2
 10
90.999999999999957
 20
76.229500000000002
 30
0.0
 11
90.499999999999943
 21
76.729500000000002
 31
0.0
  0
LINE
  5
7FD
  8
2
 10
90.999999999999957
 20
76.229500000000002
 30
0.0
 11
97.500000000000014
 21
76.22950000000003
 31
0.0
  0
LINE
  5
7FE
  8
2
 10
90.729499999999931
 20
76.5
 30
0.0
 11
97.770499999999984
 21
76.500000000000028
 31
0.0
  0
LINE
  5
7FF
  8
2
 10
97.500000000000014
 20
76.22950000000003
 30
0.0
 11
98.000000000000014
 21
76.72950000000003
 31
0.0
  0
LINE
  5
800
  8
3
 10
90.799999999999983
 20
75.0
 30
0.0
 11
92.69999999999996
 21
75.0
 31
0.0
  0
LINE
  5
801
  8
3
 10
90.799999999999983
 20
74.248000598614112
 30
0.0
 11
92.69999999999996
 21
74.248000598614112
 31
0.0
  0
LINE
  5
802
  8
3
 10
90.799999999999983
 20
73.507860677010967
 30
0.0
 11
92.699999999999903
 21
73.507860677010854
 31
0.0
  0
LINE
  5
803
  8
3
 10
90.799999999999983
 20
69.293660902229021
 30
0.0
 11
92.69999999999996
 21
69.293660902229021
 31
0.0
  0
LINE
  5
804
  8
3
 10
90.799999999999983
 20
69.571037685203805
 30
0.0
 11
92.69999999999996
 21
69.571037685203805
 31
0.0
  0
LINE
  5
805
  8
3
 10
90.799999999999983
 20
69.934032446987885
 30
0.0
 11
92.69999999999996
 21
69.934032446987885
 31
0.0
  0
LINE
  5
806
  8
3
 10
90.799999999999983
 20
72.109477955389707
 30
0.0
 11
92.69999999999996
 21
72.109477955389707
 31
0.0
  0
LINE
  5
807
  8
3
 10
90.799999999999983
 20
71.47328848624511
 30
0.0
 11
92.69999999999996
 21
71.47328848624511
 31
0.0
  0
LINE
  5
808
  8
3
 10
90.799999999999983
 20
70.892717364427767
 30
0.0
 11
92.69999999999996
 21
70.892717364427767
 31
0.0
  0
LINE
  5
809
  8
3
 10
90.799999999999983
 20
70.37692054334525
 30
0.0
 11
92.69999999999996
 21
70.37692054334525
 31
0.0
  0
LINE
  5
80A
  8
3
 10
90.799999999999983
 20
72.791252683891912
 30
0.0
 11
92.69999999999996
 21
72.791252683891912
 31
0.0
  0
LINE
  5
80B
  8
3
 10
90.799999999999983
 20
69.106276495627867
 30
0.0
 11
92.69999999999996
 21
69.106276495627867
 31
0.0
  0
CIRCLE
  5
81B
  8
0
 10
140.0
 20
75.0
 30
0.0
 40
2.6999999999998741
  0
CIRCLE
  5
81C
  8
0
 10
140.0
 20
75.0
 30
0.0
 40
2.9999999999998859
  0
CIRCLE
  5
81D
  8
0
 10
140.0
 20
75.0
 30
0.0
 40
5.6999999999998741
  0
CIRCLE
  5
81E
  8
0
 10
140.0
 20
75.0
 30
0.0
 40
6.0000000000000488
  0
CIRCLE
  5
829
  8
0
 10
140.0
 20
75.0
 30
0.0
 40
1.2295
  0
CIRCLE
  5
82A
  8
3
 10
140.0
 20
75.0
 30
0.0
 40
1.5
  0
LINE
  5
835
  8
JISSEN
 10
98.000000000000043
 20
112.3000000000001
 30
0.0
 11
98.000000000000043
 21
117.7
 31
0.0
  0
LINE
  5
836
  8
JISSEN
 10
97.69999999999996
 20
118.0
 30
0.0
 11
97.69999999999996
 21
112.0
 31
0.0
  0
LINE
  5
837
  8
0
 10
90.499999999999972
 20
109.3000000000001
 30
0.0
 11
90.499999999999972
 21
120.7
 31
0.0
  0
LINE
  5
838
  8
0
 10
93.0
 20
111.5000000000001
 30
0.0
 11
92.999999999999915
 21
120.7
 31
0.0
  0
LINE
  5
839
  8
0
 10
92.69999999999996
 20
121.0
 30
0.0
 11
92.699999999999847
 21
108.9999999999999
 31
0.0
  0
LINE
  5
83A
  8
0
 10
90.799999999999983
 20
109.0000000000001
 30
0.0
 11
90.799999999999983
 21
121.0
 31
0.0
  0
LINE
  5
83B
  8
1
 10
87.999999999999972
 20
115.0
 30
0.0
 11
100.5
 21
115.0
 31
0.0
  0
LINE
  5
83C
  8
JISSEN
 10
98.000000000000043
 20
112.3000000000001
 30
0.0
 11
97.69999999999996
 21
112.0000000000001
 31
0.0
  0
LINE
  5
83D
  8
JISSEN
 10
93.499999999999915
 20
112.0000000000001
 30
0.0
 11
97.69999999999996
 21
112.0000000000001
 31
0.0
  0
LINE
  5
83E
  8
0
 10
92.999999999999972
 20
109.3
 30
0.0
 11
92.999999999999972
 21
111.5000000000001
 31
0.0
  0
LINE
  5
83F
  8
0
 10
90.799999999999983
 20
109.0000000000001
 30
0.0
 11
92.699999999999903
 21
109.0
 31
0.0
  0
LINE
  5
840
  8
3
 10
90.799999999999983
 20
109.29366090222901
 30
0.0
 11
92.69999999999996
 21
109.29366090222901
 31
0.0
  0
LINE
  5
841
  8
3
 10
90.799999999999983
 20
109.57103768520381
 30
0.0
 11
92.69999999999996
 21
109.57103768520381
 31
0.0
  0
LINE
  5
842
  8
3
 10
90.799999999999983
 20
109.1062764956278
 30
0.0
 11
92.69999999999996
 21
109.1062764956278
 31
0.0
  0
LINE
  5
843
  8
0
 10
90.500000000000014
 20
109.3
 30
0.0
 11
90.799999999999983
 21
109.0000000000001
 31
0.0
  0
LINE
  5
844
  8
0
 10
92.699999999999903
 20
109.0
 30
0.0
 11
92.999999999999915
 21
109.3
 31
0.0
  0
LINE
  5
845
  8
3
 10
90.799999999999983
 20
109.9340324469879
 30
0.0
 11
92.69999999999996
 21
109.9340324469879
 31
0.0
  0
LINE
  5
846
  8
3
 10
90.799999999999983
 20
112.10947795538971
 30
0.0
 11
92.69999999999996
 21
112.10947795538971
 31
0.0
  0
LINE
  5
847
  8
3
 10
90.799999999999983
 20
111.4732884862451
 30
0.0
 11
92.69999999999996
 21
111.4732884862451
 31
0.0
  0
LINE
  5
848
  8
3
 10
90.799999999999983
 20
110.8927173644277
 30
0.0
 11
92.69999999999996
 21
110.8927173644277
 31
0.0
  0
LINE
  5
849
  8
3
 10
90.799999999999983
 20
110.37692054334519
 30
0.0
 11
92.69999999999996
 21
110.37692054334519
 31
0.0
  0
ARC
  5
84A
  8
0
 10
93.499999999999915
 20
111.5000000000001
 30
0.0
 40
0.5
 50
90.000000000006509
 51
179.9999999999994
  0
LINE
  5
84B
  8
0
 10
93.499999999999915
 20
112.0000000000001
 30
0.0
 11
93.499999999999972
 21
112.0000000000001
 31
0.0
  0
LINE
  5
84C
  8
2
 10
90.729499999999945
 20
113.5
 30
0.0
 11
97.770499999999998
 21
113.5
 31
0.0
  0
LINE
  5
84D
  8
2
 10
90.999999999999972
 20
113.7705
 30
0.0
 11
97.500000000000028
 21
113.7705
 31
0.0
  0
LINE
  5
84E
  8
2
 10
90.999999999999957
 20
116.2295
 30
0.0
 11
97.500000000000014
 21
116.2295
 31
0.0
  0
LINE
  5
84F
  8
2
 10
90.729499999999931
 20
116.5
 30
0.0
 11
97.770499999999984
 21
116.5
 31
0.0
  0
LINE
  5
850
  8
2
 10
90.999999999999972
 20
113.7705
 30
0.0
 11
90.999999999999972
 21
116.2295
 31
0.0
  0
LINE
  5
851
  8
3
 10
90.799999999999983
 20
114.2480005986141
 30
0.0
 11
92.69999999999996
 21
114.2480005986141
 31
0.0
  0
LINE
  5
852
  8
3
 10
90.799999999999983
 20
113.5078606770109
 30
0.0
 11
92.699999999999903
 21
113.5078606770108
 31
0.0
  0
LINE
  5
853
  8
3
 10
90.799999999999983
 20
112.7912526838919
 30
0.0
 11
92.69999999999996
 21
112.7912526838919
 31
0.0
  0
LINE
  5
854
  8
2
 10
90.999999999999972
 20
113.7705
 30
0.0
 11
90.499999999999972
 21
113.2705
 31
0.0
  0
LINE
  5
855
  8
3
 10
90.799999999999983
 20
117.2087473161081
 30
0.0
 11
92.69999999999996
 21
117.2087473161081
 31
0.0
  0
LINE
  5
856
  8
3
 10
90.799999999999983
 20
116.492139322989
 30
0.0
 11
92.699999999999903
 21
116.4921393229891
 31
0.0
  0
LINE
  5
857
  8
3
 10
90.799999999999983
 20
115.7519994013859
 30
0.0
 11
92.69999999999996
 21
115.7519994013859
 31
0.0
  0
LINE
  5
858
  8
3
 10
90.799999999999983
 20
115.0
 30
0.0
 11
92.69999999999996
 21
115.0
 31
0.0
  0
LINE
  5
859
  8
3
 10
90.799999999999983
 20
115.0
 30
0.0
 11
92.69999999999996
 21
115.0
 31
0.0
  0
LINE
  5
85A
  8
2
 10
90.999999999999957
 20
116.2295
 30
0.0
 11
90.499999999999943
 21
116.7295
 31
0.0
  0
LINE
  5
85B
  8
2
 10
97.500000000000028
 20
113.7705
 30
0.0
 11
97.500000000000014
 21
116.2295
 31
0.0
  0
LINE
  5
85C
  8
2
 10
97.500000000000028
 20
113.7705
 30
0.0
 11
98.000000000000043
 21
113.2705
 31
0.0
  0
LINE
  5
85D
  8
2
 10
97.500000000000014
 20
116.2295
 30
0.0
 11
98.000000000000014
 21
116.7295
 31
0.0
  0
LINE
  5
85E
  8
JISSEN
 10
93.499999999999915
 20
118.0
 30
0.0
 11
97.69999999999996
 21
118.0
 31
0.0
  0
LINE
  5
85F
  8
3
 10
90.799999999999983
 20
119.62307945665469
 30
0.0
 11
92.69999999999996
 21
119.62307945665469
 31
0.0
  0
LINE
  5
860
  8
3
 10
90.799999999999983
 20
119.1072826355722
 30
0.0
 11
92.69999999999996
 21
119.1072826355722
 31
0.0
  0
LINE
  5
861
  8
3
 10
90.799999999999983
 20
118.5267115137549
 30
0.0
 11
92.69999999999996
 21
118.5267115137549
 31
0.0
  0
LINE
  5
862
  8
3
 10
90.799999999999983
 20
117.89052204461029
 30
0.0
 11
92.69999999999996
 21
117.89052204461029
 31
0.0
  0
LINE
  5
863
  8
3
 10
90.799999999999983
 20
120.0659675530121
 30
0.0
 11
92.69999999999996
 21
120.0659675530121
 31
0.0
  0
ARC
  5
864
  8
0
 10
93.499999999999915
 20
118.5
 30
0.0
 40
0.5
 50
180.0
 51
270.0
  0
LINE
  5
865
  8
0
 10
93.499999999999915
 20
118.0
 30
0.0
 11
93.499999999999972
 21
118.0
 31
0.0
  0
LINE
  5
866
  8
3
 10
90.799999999999983
 20
120.42896231479619
 30
0.0
 11
92.69999999999996
 21
120.42896231479619
 31
0.0
  0
LINE
  5
867
  8
3
 10
90.799999999999983
 20
120.70633909777089
 30
0.0
 11
92.69999999999996
 21
120.70633909777089
 31
0.0
  0
LINE
  5
868
  8
3
 10
90.799999999999983
 20
120.8937235043721
 30
0.0
 11
92.69999999999996
 21
120.8937235043721
 31
0.0
  0
LINE
  5
869
  8
0
 10
90.799999999999983
 20
121.0
 30
0.0
 11
92.69999999999996
 21
121.0
 31
0.0
  0
LINE
  5
86A
  8
0
 10
90.799999999999983
 20
121.0
 30
0.0
 11
90.499999999999972
 21
120.7
 31
0.0
  0
LINE
  5
86B
  8
0
 10
92.69999999999996
 20
121.0
 30
0.0
 11
92.999999999999915
 21
120.7
 31
0.0
  0
LINE
  5
86C
  8
JISSEN
 10
97.69999999999996
 20
118.0
 30
0.0
 11
98.000000000000043
 21
117.7
 31
0.0
  0
LINE
  5
86D
  8
JISSEN
 10
98.000000000000043
 20
32.300000000000182
 30
0.0
 11
98.000000000000043
 21
37.700000000000053
 31
0.0
  0
LINE
  5
86E
  8
JISSEN
 10
97.69999999999996
 20
38.000000000000057
 30
0.0
 11
97.69999999999996
 21
32.000000000000092
 31
0.0
  0
LINE
  5
86F
  8
0
 10
90.499999999999972
 20
29.3000000000001
 30
0.0
 11
90.499999999999972
 21
40.700000000000038
 31
0.0
  0
LINE
  5
870
  8
0
 10
93.0
 20
31.50000000000011
 30
0.0
 11
92.999999999999915
 21
40.700000000000038
 31
0.0
  0
LINE
  5
871
  8
0
 10
92.69999999999996
 20
41.0
 30
0.0
 11
92.699999999999847
 21
28.999999999999961
 31
0.0
  0
LINE
  5
872
  8
0
 10
90.799999999999983
 20
29.000000000000139
 30
0.0
 11
90.799999999999983
 21
41.0
 31
0.0
  0
LINE
  5
873
  8
1
 10
87.999999999999972
 20
35.0
 30
0.0
 11
100.5
 21
35.0
 31
0.0
  0
LINE
  5
874
  8
JISSEN
 10
98.000000000000043
 20
32.300000000000132
 30
0.0
 11
97.69999999999996
 21
32.000000000000121
 31
0.0
  0
LINE
  5
875
  8
JISSEN
 10
93.499999999999915
 20
32.000000000000121
 30
0.0
 11
97.69999999999996
 21
32.000000000000121
 31
0.0
  0
LINE
  5
876
  8
0
 10
92.999999999999972
 20
29.300000000000072
 30
0.0
 11
92.999999999999972
 21
31.50000000000011
 31
0.0
  0
LINE
  5
877
  8
0
 10
90.799999999999983
 20
29.000000000000121
 30
0.0
 11
92.699999999999903
 21
29.000000000000011
 31
0.0
  0
LINE
  5
878
  8
3
 10
90.799999999999983
 20
29.293660902229028
 30
0.0
 11
92.69999999999996
 21
29.293660902229028
 31
0.0
  0
LINE
  5
879
  8
3
 10
90.799999999999983
 20
29.571037685203809
 30
0.0
 11
92.69999999999996
 21
29.571037685203809
 31
0.0
  0
LINE
  5
87A
  8
3
 10
90.799999999999983
 20
29.106276495627871
 30
0.0
 11
92.69999999999996
 21
29.106276495627871
 31
0.0
  0
LINE
  5
87B
  8
0
 10
90.500000000000014
 20
29.300000000000072
 30
0.0
 11
90.799999999999983
 21
29.000000000000121
 31
0.0
  0
LINE
  5
87C
  8
0
 10
92.699999999999903
 20
29.000000000000011
 30
0.0
 11
92.999999999999915
 21
29.300000000000072
 31
0.0
  0
LINE
  5
87D
  8
3
 10
90.799999999999983
 20
29.934032446987889
 30
0.0
 11
92.69999999999996
 21
29.934032446987889
 31
0.0
  0
LINE
  5
87E
  8
3
 10
90.799999999999983
 20
32.109477955389721
 30
0.0
 11
92.69999999999996
 21
32.109477955389721
 31
0.0
  0
LINE
  5
87F
  8
3
 10
90.799999999999983
 20
31.473288486245121
 30
0.0
 11
92.69999999999996
 21
31.473288486245121
 31
0.0
  0
LINE
  5
880
  8
3
 10
90.799999999999983
 20
30.892717364427771
 30
0.0
 11
92.69999999999996
 21
30.892717364427771
 31
0.0
  0
LINE
  5
881
  8
3
 10
90.799999999999983
 20
30.37692054334526
 30
0.0
 11
92.69999999999996
 21
30.37692054334526
 31
0.0
  0
ARC
  5
882
  8
0
 10
93.499999999999915
 20
31.50000000000011
 30
0.0
 40
0.5
 50
90.000000000006509
 51
179.9999999999994
  0
LINE
  5
883
  8
0
 10
93.499999999999915
 20
32.000000000000121
 30
0.0
 11
93.499999999999972
 21
32.000000000000121
 31
0.0
  0
LINE
  5
884
  8
2
 10
90.729499999999945
 20
33.5
 30
0.0
 11
97.770499999999998
 21
33.5
 31
0.0
  0
LINE
  5
885
  8
2
 10
90.999999999999972
 20
33.770499999999998
 30
0.0
 11
97.500000000000028
 21
33.770499999999998
 31
0.0
  0
LINE
  5
886
  8
2
 10
90.999999999999957
 20
36.229500000000002
 30
0.0
 11
97.500000000000014
 21
36.22950000000003
 31
0.0
  0
LINE
  5
887
  8
2
 10
90.729499999999931
 20
36.5
 30
0.0
 11
97.770499999999984
 21
36.500000000000028
 31
0.0
  0
LINE
  5
888
  8
2
 10
90.999999999999972
 20
33.770499999999998
 30
0.0
 11
90.999999999999972
 21
36.229500000000002
 31
0.0
  0
LINE
  5
889
  8
3
 10
90.799999999999983
 20
34.248000598614112
 30
0.0
 11
92.69999999999996
 21
34.248000598614112
 31
0.0
  0
LINE
  5
88A
  8
3
 10
90.799999999999983
 20
33.507860677010967
 30
0.0
 11
92.699999999999903
 21
33.507860677010861
 31
0.0
  0
LINE
  5
88B
  8
3
 10
90.799999999999983
 20
32.791252683891919
 30
0.0
 11
92.69999999999996
 21
32.791252683891919
 31
0.0
  0
LINE
  5
88C
  8
2
 10
90.999999999999972
 20
33.770499999999998
 30
0.0
 11
90.499999999999972
 21
33.270499999999998
 31
0.0
  0
LINE
  5
88D
  8
3
 10
90.799999999999983
 20
37.208747316108088
 30
0.0
 11
92.69999999999996
 21
37.208747316108088
 31
0.0
  0
LINE
  5
88E
  8
3
 10
90.799999999999983
 20
36.492139322989033
 30
0.0
 11
92.699999999999903
 21
36.492139322989154
 31
0.0
  0
LINE
  5
88F
  8
3
 10
90.799999999999983
 20
35.751999401385888
 30
0.0
 11
92.69999999999996
 21
35.751999401385888
 31
0.0
  0
LINE
  5
890
  8
3
 10
90.799999999999983
 20
35.0
 30
0.0
 11
92.69999999999996
 21
35.0
 31
0.0
  0
LINE
  5
891
  8
3
 10
90.799999999999983
 20
35.0
 30
0.0
 11
92.69999999999996
 21
35.0
 31
0.0
  0
LINE
  5
892
  8
2
 10
90.999999999999957
 20
36.229500000000002
 30
0.0
 11
90.499999999999943
 21
36.729500000000002
 31
0.0
  0
LINE
  5
893
  8
2
 10
97.500000000000028
 20
33.770499999999998
 30
0.0
 11
97.500000000000014
 21
36.22950000000003
 31
0.0
  0
LINE
  5
894
  8
2
 10
97.500000000000028
 20
33.770499999999998
 30
0.0
 11
98.000000000000043
 21
33.270499999999998
 31
0.0
  0
LINE
  5
895
  8
2
 10
97.500000000000014
 20
36.22950000000003
 30
0.0
 11
98.000000000000014
 21
36.72950000000003
 31
0.0
  0
LINE
  5
896
  8
JISSEN
 10
93.499999999999915
 20
38.0
 30
0.0
 11
97.69999999999996
 21
38.000000000000057
 31
0.0
  0
LINE
  5
897
  8
3
 10
90.799999999999983
 20
39.62307945665475
 30
0.0
 11
92.69999999999996
 21
39.62307945665475
 31
0.0
  0
LINE
  5
898
  8
3
 10
90.799999999999983
 20
39.107282635572233
 30
0.0
 11
92.69999999999996
 21
39.107282635572233
 31
0.0
  0
LINE
  5
899
  8
3
 10
90.799999999999983
 20
38.52671151375489
 30
0.0
 11
92.69999999999996
 21
38.52671151375489
 31
0.0
  0
LINE
  5
89A
  8
3
 10
90.799999999999983
 20
37.890522044610293
 30
0.0
 11
92.69999999999996
 21
37.890522044610293
 31
0.0
  0
LINE
  5
89B
  8
3
 10
90.799999999999983
 20
40.065967553012108
 30
0.0
 11
92.69999999999996
 21
40.065967553012108
 31
0.0
  0
ARC
  5
89C
  8
0
 10
93.499999999999915
 20
38.5
 30
0.0
 40
0.5
 50
180.0
 51
270.0
  0
LINE
  5
89D
  8
0
 10
93.499999999999915
 20
38.0
 30
0.0
 11
93.499999999999972
 21
38.0
 31
0.0
  0
LINE
  5
89E
  8
3
 10
90.799999999999983
 20
40.428962314796188
 30
0.0
 11
92.69999999999996
 21
40.428962314796188
 31
0.0
  0
LINE
  5
89F
  8
3
 10
90.799999999999983
 20
40.706339097770979
 30
0.0
 11
92.69999999999996
 21
40.706339097770979
 31
0.0
  0
LINE
  5
8A0
  8
3
 10
90.799999999999983
 20
40.893723504372133
 30
0.0
 11
92.69999999999996
 21
40.893723504372133
 31
0.0
  0
LINE
  5
8A1
  8
0
 10
90.799999999999983
 20
41.0
 30
0.0
 11
92.69999999999996
 21
41.0
 31
0.0
  0
LINE
  5
8A2
  8
0
 10
90.799999999999983
 20
41.0
 30
0.0
 11
90.499999999999972
 21
40.700000000000038
 31
0.0
  0
LINE
  5
8A3
  8
0
 10
92.69999999999996
 20
41.0
 30
0.0
 11
92.999999999999915
 21
40.700000000000038
 31
0.0
  0
LINE
  5
8A4
  8
JISSEN
 10
97.69999999999996
 20
38.000000000000057
 30
0.0
 11
98.000000000000043
 21
37.700000000000053
 31
0.0
  0
LINE
  5
8A6
  8
1
 10
50.0
 20
83.500000000000057
 30
0.0
 11
50.0
 21
66.499999999999943
 31
0.0
  0
CIRCLE
  5
8A7
  8
0
 10
50.0
 20
75.0
 30
0.0
 40
6.0000000000000488
  0
CIRCLE
  5
8A8
  8
0
 10
50.0
 20
75.0
 30
0.0
 40
5.6999999999998741
  0
LINE
  5
8AB
  8
1
 10
58.50000000000005
 20
75.0
 30
0.0
 11
41.499999999999943
 21
75.0
 31
0.0
  0
CIRCLE
  5
8AC
  8
3
 10
50.0
 20
75.0
 30
0.0
 40
1.5
  0
CIRCLE
  5
8AD
  8
0
 10
50.0
 20
75.0
 30
0.0
 40
1.2295
  0
INSERT
  5
8C5
  8
0
  2
STDGX5
 10
0.0
 20
0.0
 30
0.0
 41
0.5
 42
0.5
 43
0.5
  0
INSERT
  5
8C6
  8
0
  2
STDGX5
 10
0.0
 20
0.0
 30
0.0
 41
0.5
 42
0.5
 43
0.5
  0
INSERT
  5
8C7
  8
0
  2
STDGX5
 10
137.5
 20
0.0
 30
0.0
 41
0.5
 42
0.5
 43
0.5
  0
INSERT
  5
8C8
  8
0
  2
STDGX5
 10
137.5
 20
0.0
 30
0.0
 41
0.5
 42
0.5
 43
0.5
  0
TEXT
  5
A33
  8
0
 62
     3
 10
0.0
 20
0.0
 30
0.0
 40
10.0
  1
TKN3-SUS
  7
STANDARD1
  0
ENDSEC
  0
EOF
