  0
SECTION
  2
HEADER
  9
$ACADVER
  1
AC1009
  9
$INSBASE
 10
0.0
 20
0.0
 30
0.0
  9
$EXTMIN
 10
0.0
 20
-2.960436562073669
 30
0.0
  9
$EXTMAX
 10
308.0
 20
223.0
 30
0.0
  9
$LIMMIN
 10
0.0
 20
0.0
  9
$LIMMAX
 10
375.0
 20
270.0
  9
$ORTHOMODE
 70
     1
  9
$REGENMODE
 70
     1
  9
$FILLMODE
 70
     1
  9
$QTEXTMODE
 70
     0
  9
$MIRRTEXT
 70
     0
  9
$DRAGMODE
 70
     2
  9
$LTSCALE
 40
10.0
  9
$OSMODE
 70
    55
  9
$ATTMODE
 70
     1
  9
$TEXTSIZE
 40
0.2
  9
$TRACEWID
 40
0.05
  9
$TEXTSTYLE
  7
STANDARD
  9
$CLAYER
  8
0
  9
$CELTYPE
  6
BYLAYER
  9
$CECOLOR
 62
   256
  9
$DIMSCALE
 40
1.0
  9
$DIMASZ
 40
3.0
  9
$DIMEXO
 40
2.0
  9
$DIMDLI
 40
0.38
  9
$DIMRND
 40
0.0
  9
$DIMDLE
 40
0.0
  9
$DIMEXE
 40
2.0
  9
$DIMTP
 40
0.0
  9
$DIMTM
 40
0.0
  9
$DIMTXT
 40
3.2000000000000002
  9
$DIMCEN
 40
0.09
  9
$DIMTSZ
 40
0.0
  9
$DIMTOL
 70
     0
  9
$DIMLIM
 70
     0
  9
$DIMTIH
 70
     0
  9
$DIMTOH
 70
     0
  9
$DIMSE1
 70
     0
  9
$DIMSE2
 70
     0
  9
$DIMTAD
 70
     1
  9
$DIMZIN
 70
     0
  9
$DIMBLK
  1

  9
$DIMASO
 70
     1
  9
$DIMSHO
 70
     0
  9
$DIMPOST
  1

  9
$DIMAPOST
  1

  9
$DIMALT
 70
     0
  9
$DIMALTD
 70
     2
  9
$DIMALTF
 40
25.399999999999999
  9
$DIMLFAC
 40
1.0
  9
$DIMTOFL
 70
     0
  9
$DIMTVP
 40
0.0
  9
$DIMTIX
 70
     0
  9
$DIMSOXD
 70
     0
  9
$DIMSAH
 70
     0
  9
$DIMBLK1
  1

  9
$DIMBLK2
  1

  9
$DIMSTYLE
  2
STANDARD
  9
$DIMCLRD
 70
     0
  9
$DIMCLRE
 70
     0
  9
$DIMCLRT
 70
     0
  9
$DIMTFAC
 40
1.0
  9
$DIMGAP
 40
0.09
  9
$LUNITS
 70
     2
  9
$LUPREC
 70
     4
  9
$SKETCHINC
 40
0.1
  9
$FILLETRAD
 40
1.1999999999999991
  9
$AUNITS
 70
     0
  9
$AUPREC
 70
     0
  9
$MENU
  1
E:\r13\win\SUPPORT\ACAD
  9
$ELEVATION
 40
0.0
  9
$PELEVATION
 40
0.0
  9
$THICKNESS
 40
0.0
  9
$LIMCHECK
 70
     0
  9
$BLIPMODE
 70
     0
  9
$CHAMFERA
 40
0.0
  9
$CHAMFERB
 40
0.0
  9
$SKPOLY
 70
     0
  9
$TDCREATE
 40
2449840.6051736111
  9
$TDUPDATE
 40
2456598.4462949652
  9
$TDINDWG
 40
0.0001748727
  9
$TDUSRTIMER
 40
0.0001748727
  9
$USRTIMER
 70
     1
  9
$ANGBASE
 50
0.0
  9
$ANGDIR
 70
     0
  9
$PDMODE
 70
     0
  9
$PDSIZE
 40
0.0
  9
$PLINEWID
 40
0.0
  9
$COORDS
 70
     1
  9
$SPLFRAME
 70
     0
  9
$SPLINETYPE
 70
     6
  9
$SPLINESEGS
 70
     8
  9
$ATTDIA
 70
     0
  9
$ATTREQ
 70
     1
  9
$HANDLING
 70
     1
  9
$HANDSEED
  5
348
  9
$SURFTAB1
 70
     6
  9
$SURFTAB2
 70
     6
  9
$SURFTYPE
 70
     6
  9
$SURFU
 70
     6
  9
$SURFV
 70
     6
  9
$UCSNAME
  2

  9
$UCSORG
 10
0.0
 20
0.0
 30
0.0
  9
$UCSXDIR
 10
1.0
 20
0.0
 30
0.0
  9
$UCSYDIR
 10
0.0
 20
1.0
 30
0.0
  9
$PUCSNAME
  2

  9
$PUCSORG
 10
0.0
 20
0.0
 30
0.0
  9
$PUCSXDIR
 10
1.0
 20
0.0
 30
0.0
  9
$PUCSYDIR
 10
0.0
 20
1.0
 30
0.0
  9
$USERI1
 70
     0
  9
$USERI2
 70
     1
  9
$USERI3
 70
     1
  9
$USERI4
 70
     0
  9
$USERI5
 70
     0
  9
$USERR1
 40
0.0
  9
$USERR2
 40
0.0
  9
$USERR3
 40
0.0
  9
$USERR4
 40
0.0
  9
$USERR5
 40
0.0
  9
$WORLDVIEW
 70
     1
  9
$SHADEDGE
 70
     3
  9
$SHADEDIF
 70
    70
  9
$TILEMODE
 70
     1
  9
$MAXACTVP
 70
    16
  9
$PLIMCHECK
 70
     0
  9
$PEXTMIN
 10
1.0000000000000000E+020
 20
1.0000000000000000E+020
 30
1.0000000000000000E+020
  9
$PEXTMAX
 10
-1.0000000000000000E+020
 20
-1.0000000000000000E+020
 30
-1.0000000000000000E+020
  9
$PLIMMIN
 10
0.0
 20
0.0
  9
$PLIMMAX
 10
12.0
 20
9.0
  9
$UNITMODE
 70
     0
  9
$VISRETAIN
 70
     0
  9
$PLINEGEN
 70
     0
  9
$PSLTSCALE
 70
     0
  0
ENDSEC
  0
SECTION
  2
TABLES
  0
TABLE
  2
VPORT
 70
     1
  0
VPORT
  2
*ACTIVE
 70
     0
 10
0.0
 20
0.0
 11
1.0
 21
1.0
 12
187.4942783906524
 22
197.0509055860143
 13
0.0
 23
0.0
 14
5.0
 24
5.0
 15
10.0
 25
10.0
 16
0.0
 26
0.0
 36
1.0
 17
0.0
 27
0.0
 37
0.0
 40
403.57315882993248
 41
1.7807262569832401
 42
50.0
 43
0.0
 44
0.0
 50
0.0
 51
0.0
 71
     0
 72
   100
 73
     1
 74
     0
 75
     0
 76
     0
 77
     0
 78
     0
  0
ENDTAB
  0
TABLE
  2
LTYPE
 70
     4
  0
LTYPE
  2
CONTINUOUS
 70
     0
  3
Solid Line
 72
    65
 73
     0
 40
0.0
  0
LTYPE
  2
CENTER
 70
     0
  3
____ _ ____ _ ____ _ ____ _ ____ _ ____ _ ____
 72
    65
 73
     4
 40
2.0
 49
1.25
 49
-0.25
 49
0.25
 49
-0.25
  0
LTYPE
  2
HIDDEN
 70
     0
  3
_ _ _ _ _ _ _ _ _ _ _ _ _ _ _ _ _ _ _ _ _ _ _
 72
    65
 73
     2
 40
0.375
 49
0.25
 49
-0.125
  0
LTYPE
  2
PHANTOM2
 70
     0
  3
___ _ _ ___ _ _ ___ _ _ ___ _ _
 72
    65
 73
     6
 40
1.25
 49
0.625
 49
-0.125
 49
0.125
 49
-0.125
 49
0.125
 49
-0.125
  0
ENDTAB
  0
TABLE
  2
LAYER
 70
     4
  0
LAYER
  2
0
 70
     0
 62
     7
  6
CONTINUOUS
  0
LAYER
  2
1
 70
     0
 62
     1
  6
CENTER
  0
LAYER
  2
2
 70
     0
 62
     2
  6
HIDDEN
  0
LAYER
  2
3
 70
     0
 62
     3
  6
CONTINUOUS
  0
ENDTAB
  0
TABLE
  2
STYLE
 70
     2
  0
STYLE
  2
STANDARD
 70
     0
 40
0.0
 41
1.0
 50
0.0
 71
     0
 42
0.2
  3
TXT
  4
BIGFONT
  0
STYLE
  2
STANDARD1
 70
     0
 40
0.0
 41
1.0
 50
0.0
 71
     0
 42
3.0
  3
txt
  4

  0
ENDTAB
  0
TABLE
  2
VIEW
 70
     1
  0
VIEW
  2
ALL
 70
     0
 40
270.0
 10
220.99159700000001
 20
135.0
 41
0.0
 11
0.0
 21
0.0
 31
1.0
 12
0.0
 22
0.0
 32
0.0
 42
0.0
 43
0.0
 44
0.0
 50
0.0
 71
     0
  0
ENDTAB
  0
TABLE
  2
UCS
 70
     0
  0
ENDTAB
  0
TABLE
  2
APPID
 70
     3
  0
APPID
  2
ACAD
 70
     0
  0
APPID
  2
ACAD_MLEADERVER
 70
     0
  0
APPID
  2
ACAD_NAV_VCDISPLAY
 70
     0
  0
ENDTAB
  0
TABLE
  2
DIMSTYLE
 70
     1
  0
DIMSTYLE
  2
STANDARD
 70
     0
  3

  4

  5

  6

  7

 40
1.0
 41
0.18
 42
0.0625
 43
0.38
 44
0.18
 45
0.0
 46
0.0
 47
0.0
 48
0.0
140
0.18
141
0.09
142
0.0
143
25.399999999999999
144
1.0
145
0.0
146
1.0
147
0.09
 71
     0
 72
     0
 73
     1
 74
     1
 75
     0
 76
     0
 77
     0
 78
     0
170
     0
171
     2
172
     0
173
     0
174
     0
175
     0
176
     0
177
     0
178
     0
  0
ENDTAB
  0
ENDSEC
  0
SECTION
  2
BLOCKS
  0
BLOCK
  8
0
  2
$MODEL_SPACE
 70
     0
 10
0.0
 20
0.0
 30
0.0
  3
$MODEL_SPACE
  1

  0
ENDBLK
  5
18E
  8
0
  0
BLOCK
 67
     1
  8
0
  2
$PAPER_SPACE
 70
     0
 10
0.0
 20
0.0
 30
0.0
  3
$PAPER_SPACE
  1

  0
ENDBLK
  5
18C
 67
     1
  8
0
  0
ENDSEC
  0
SECTION
  2
ENTITIES
  0
LINE
  5
36
  8
1
 10
205.0
 20
130.0
 30
0.0
 11
172.0
 21
130.0
 31
0.0
  0
LINE
  5
37
  8
0
 10
200.0
 20
139.19999999999999
 30
0.0
 11
199.19999999999999
 21
140.0
 31
0.0
  0
LINE
  5
38
  8
0
 10
177.0
 20
147.19999999999999
 30
0.0
 11
177.80000000000001
 21
148.0
 31
0.0
  0
LINE
  5
39
  8
0
 10
177.80000000000001
 20
148.0
 30
0.0
 11
184.19999999999999
 21
148.0
 31
0.0
  0
LINE
  5
3A
  8
0
 10
184.19999999999999
 20
148.0
 30
0.0
 11
185.0
 21
147.19999999999999
 31
0.0
  0
LINE
  5
3B
  8
0
 10
187.0
 20
140.0
 30
0.0
 11
199.19999999999999
 21
140.0
 31
0.0
  0
ARC
  5
3C
  8
0
 10
187.0
 20
142.0
 30
0.0
 40
2.0
 50
180.0
 51
270.0
  0
LINE
  5
3D
  8
3
 10
184.19999999999999
 20
146.038117
 30
0.0
 11
177.80000000000001
 21
146.038117
 31
0.0
  0
LINE
  5
3E
  8
3
 10
184.19999999999999
 20
145.58845700000001
 30
0.0
 11
177.80000000000001
 21
145.58845700000001
 31
0.0
  0
LINE
  5
3F
  8
3
 10
184.19999999999999
 20
145.09607
 30
0.0
 11
177.80000000000001
 21
145.09607
 31
0.0
  0
LINE
  5
40
  8
3
 10
184.19999999999999
 20
144.56230600000001
 30
0.0
 11
177.80000000000001
 21
144.56230600000001
 31
0.0
  0
LINE
  5
41
  8
3
 10
184.19999999999999
 20
143.98862700000001
 30
0.0
 11
177.80000000000001
 21
143.98862700000001
 31
0.0
  0
LINE
  5
42
  8
3
 10
184.19999999999999
 20
143.37660700000001
 30
0.0
 11
177.80000000000001
 21
143.37660700000001
 31
0.0
  0
LINE
  5
43
  8
3
 10
184.19999999999999
 20
142.72792200000001
 30
0.0
 11
177.80000000000001
 21
142.72792200000001
 31
0.0
  0
LINE
  5
44
  8
3
 10
184.19999999999999
 20
142.04435100000001
 30
0.0
 11
177.80000000000001
 21
142.04435100000001
 31
0.0
  0
LINE
  5
45
  8
3
 10
184.19999999999999
 20
141.32776699999999
 30
0.0
 11
177.80000000000001
 21
141.32776699999999
 31
0.0
  0
LINE
  5
46
  8
3
 10
184.19999999999999
 20
140.58013500000001
 30
0.0
 11
177.80000000000001
 21
140.58013500000001
 31
0.0
  0
LINE
  5
47
  8
3
 10
184.19999999999999
 20
139.80350300000001
 30
0.0
 11
177.80000000000001
 21
139.80350300000001
 31
0.0
  0
LINE
  5
48
  8
3
 10
184.19999999999999
 20
139.0
 30
0.0
 11
177.80000000000001
 21
139.0
 31
0.0
  0
LINE
  5
49
  8
3
 10
184.19999999999999
 20
138.171829
 30
0.0
 11
177.80000000000001
 21
138.171829
 31
0.0
  0
LINE
  5
4A
  8
3
 10
184.19999999999999
 20
137.32126
 30
0.0
 11
177.80000000000001
 21
137.32126
 31
0.0
  0
LINE
  5
4B
  8
3
 10
184.19999999999999
 20
136.45062300000001
 30
0.0
 11
177.80000000000001
 21
136.45062300000001
 31
0.0
  0
LINE
  5
4C
  8
3
 10
184.19999999999999
 20
135.56230600000001
 30
0.0
 11
177.80000000000001
 21
135.56230600000001
 31
0.0
  0
LINE
  5
4D
  8
3
 10
184.19999999999999
 20
134.65874299999999
 30
0.0
 11
177.80000000000001
 21
134.65874299999999
 31
0.0
  0
LINE
  5
4E
  8
3
 10
184.19999999999999
 20
133.74241000000001
 30
0.0
 11
177.80000000000001
 21
133.74241000000001
 31
0.0
  0
LINE
  5
4F
  8
3
 10
184.19999999999999
 20
132.81582
 30
0.0
 11
177.80000000000001
 21
132.81582
 31
0.0
  0
LINE
  5
50
  8
3
 10
184.19999999999999
 20
131.88151199999999
 30
0.0
 11
177.80000000000001
 21
131.88151199999999
 31
0.0
  0
LINE
  5
51
  8
3
 10
184.19999999999999
 20
130.942047
 30
0.0
 11
177.80000000000001
 21
130.942047
 31
0.0
  0
LINE
  5
52
  8
3
 10
184.19999999999999
 20
146.44381799999999
 30
0.0
 11
177.80000000000001
 21
146.44381799999999
 31
0.0
  0
LINE
  5
53
  8
3
 10
184.19999999999999
 20
146.80444800000001
 30
0.0
 11
177.80000000000001
 21
146.80444800000001
 31
0.0
  0
LINE
  5
54
  8
3
 10
184.19999999999999
 20
147.11901700000001
 30
0.0
 11
177.80000000000001
 21
147.11901700000001
 31
0.0
  0
LINE
  5
55
  8
3
 10
184.19999999999999
 20
147.38666499999999
 30
0.0
 11
177.80000000000001
 21
147.38666499999999
 31
0.0
  0
LINE
  5
56
  8
3
 10
184.19999999999999
 20
147.60665700000001
 30
0.0
 11
177.80000000000001
 21
147.60665700000001
 31
0.0
  0
LINE
  5
57
  8
3
 10
184.19999999999999
 20
147.77839
 30
0.0
 11
177.80000000000001
 21
147.77839
 31
0.0
  0
LINE
  5
58
  8
3
 10
184.19999999999999
 20
147.9013939999999
 30
0.0
 11
177.80000000000001
 21
147.9013939999999
 31
0.0
  0
LINE
  5
59
  8
3
 10
184.19999999999999
 20
147.97533200000001
 30
0.0
 11
177.80000000000001
 21
147.97533200000001
 31
0.0
  0
ARC
  5
5A
  8
0
 10
187.0
 20
118.0
 30
0.0
 40
2.0
 50
90.0
 51
180.0
  0
LINE
  5
5B
  8
0
 10
187.0
 20
120.0
 30
0.0
 11
199.19999999999999
 21
120.0
 31
0.0
  0
LINE
  5
5C
  8
0
 10
184.19999999999999
 20
112.0
 30
0.0
 11
185.0
 21
112.8
 31
0.0
  0
LINE
  5
5D
  8
0
 10
177.0
 20
112.8
 30
0.0
 11
177.80000000000001
 21
112.0
 31
0.0
  0
LINE
  5
5E
  8
0
 10
200.0
 20
120.8
 30
0.0
 11
199.19999999999999
 21
120.0
 31
0.0
  0
LINE
  5
5F
  8
0
 10
200.0
 20
139.19999999999999
 30
0.0
 11
200.0
 21
120.8
 31
0.0
  0
LINE
  5
60
  8
0
 10
199.19999999999999
 20
140.0
 30
0.0
 11
199.19999999999999
 21
120.0
 31
0.0
  0
LINE
  5
61
  8
0
 10
185.0
 20
147.19999999999999
 30
0.0
 11
185.0
 21
112.8
 31
0.0
  0
LINE
  5
62
  8
0
 10
177.0
 20
147.19999999999999
 30
0.0
 11
177.0
 21
112.8
 31
0.0
  0
LINE
  5
63
  8
0
 10
184.19999999999999
 20
148.0
 30
0.0
 11
184.19999999999999
 21
112.0
 31
0.0
  0
LINE
  5
64
  8
0
 10
177.80000000000001
 20
148.0
 30
0.0
 11
177.80000000000001
 21
112.0
 31
0.0
  0
LINE
  5
65
  8
2
 10
198.5
 20
125.812
 30
0.0
 11
178.5
 21
125.812
 31
0.0
  0
LINE
  5
66
  8
2
 10
199.31200000000001
 20
125.0
 30
0.0
 11
177.68799999999999
 21
125.0
 31
0.0
  0
LINE
  5
67
  8
2
 10
178.5
 20
125.812
 30
0.0
 11
177.0
 21
124.312
 31
0.0
  0
LINE
  5
68
  8
2
 10
198.5
 20
125.812
 30
0.0
 11
200.0
 21
124.312
 31
0.0
  0
LINE
  5
69
  8
2
 10
178.5
 20
125.812
 30
0.0
 11
178.5
 21
130.0
 31
0.0
  0
LINE
  5
6A
  8
2
 10
198.5
 20
125.812
 30
0.0
 11
198.5
 21
130.0
 31
0.0
  0
LINE
  5
6B
  8
2
 10
198.5
 20
134.18799999999999
 30
0.0
 11
198.5
 21
130.0
 31
0.0
  0
LINE
  5
6C
  8
2
 10
178.5
 20
134.18799999999999
 30
0.0
 11
178.5
 21
130.0
 31
0.0
  0
LINE
  5
6D
  8
2
 10
198.5
 20
134.18799999999999
 30
0.0
 11
200.0
 21
135.68799999999999
 31
0.0
  0
LINE
  5
6E
  8
2
 10
178.5
 20
134.18799999999999
 30
0.0
 11
177.0
 21
135.68799999999999
 31
0.0
  0
LINE
  5
6F
  8
2
 10
199.31200000000001
 20
135.0
 30
0.0
 11
177.68799999999999
 21
135.0
 31
0.0
  0
LINE
  5
70
  8
2
 10
198.5
 20
134.18799999999999
 30
0.0
 11
178.5
 21
134.18799999999999
 31
0.0
  0
LINE
  5
71
  8
3
 10
184.19999999999999
 20
112.02466800000001
 30
0.0
 11
177.80000000000001
 21
112.02466800000001
 31
0.0
  0
LINE
  5
72
  8
3
 10
184.19999999999999
 20
112.098606
 30
0.0
 11
177.80000000000001
 21
112.098606
 31
0.0
  0
LINE
  5
73
  8
3
 10
184.19999999999999
 20
112.22161
 30
0.0
 11
177.80000000000001
 21
112.22161
 31
0.0
  0
LINE
  5
74
  8
3
 10
184.19999999999999
 20
112.393343
 30
0.0
 11
177.80000000000001
 21
112.393343
 31
0.0
  0
LINE
  5
75
  8
3
 10
184.19999999999999
 20
112.61333500000001
 30
0.0
 11
177.80000000000001
 21
112.61333500000001
 31
0.0
  0
LINE
  5
76
  8
3
 10
184.19999999999999
 20
112.880983
 30
0.0
 11
177.80000000000001
 21
112.880983
 31
0.0
  0
LINE
  5
77
  8
3
 10
184.19999999999999
 20
113.19555200000001
 30
0.0
 11
177.80000000000001
 21
113.19555200000001
 31
0.0
  0
LINE
  5
78
  8
3
 10
184.19999999999999
 20
113.55618200000001
 30
0.0
 11
177.80000000000001
 21
113.55618200000001
 31
0.0
  0
LINE
  5
79
  8
3
 10
184.19999999999999
 20
129.057953
 30
0.0
 11
177.80000000000001
 21
129.057953
 31
0.0
  0
LINE
  5
7A
  8
3
 10
184.19999999999999
 20
128.11848800000001
 30
0.0
 11
177.80000000000001
 21
128.11848800000001
 31
0.0
  0
LINE
  5
7B
  8
3
 10
184.19999999999999
 20
127.18418
 30
0.0
 11
177.80000000000001
 21
127.18418
 31
0.0
  0
LINE
  5
7C
  8
3
 10
184.19999999999999
 20
126.25758999999999
 30
0.0
 11
177.80000000000001
 21
126.25758999999999
 31
0.0
  0
LINE
  5
7D
  8
3
 10
184.19999999999999
 20
125.341257
 30
0.0
 11
177.80000000000001
 21
125.341257
 31
0.0
  0
LINE
  5
7E
  8
3
 10
184.19999999999999
 20
124.43769399999999
 30
0.0
 11
177.80000000000001
 21
124.43769399999999
 31
0.0
  0
LINE
  5
7F
  8
3
 10
184.19999999999999
 20
123.54937700000001
 30
0.0
 11
177.80000000000001
 21
123.54937700000001
 31
0.0
  0
LINE
  5
80
  8
3
 10
184.19999999999999
 20
122.67874
 30
0.0
 11
177.80000000000001
 21
122.67874
 31
0.0
  0
LINE
  5
81
  8
3
 10
184.19999999999999
 20
121.828171
 30
0.0
 11
177.80000000000001
 21
121.828171
 31
0.0
  0
LINE
  5
82
  8
3
 10
184.19999999999999
 20
121.0
 30
0.0
 11
177.80000000000001
 21
121.0
 31
0.0
  0
LINE
  5
83
  8
3
 10
184.19999999999999
 20
120.19649699999999
 30
0.0
 11
177.80000000000001
 21
120.19649699999999
 31
0.0
  0
LINE
  5
84
  8
3
 10
184.19999999999999
 20
119.419865
 30
0.0
 11
177.80000000000001
 21
119.419865
 31
0.0
  0
LINE
  5
85
  8
3
 10
184.19999999999999
 20
118.67223300000001
 30
0.0
 11
177.80000000000001
 21
118.67223300000001
 31
0.0
  0
LINE
  5
86
  8
3
 10
184.19999999999999
 20
117.95564899999999
 30
0.0
 11
177.80000000000001
 21
117.95564899999999
 31
0.0
  0
LINE
  5
87
  8
3
 10
184.19999999999999
 20
117.27207799999999
 30
0.0
 11
177.80000000000001
 21
117.27207799999999
 31
0.0
  0
LINE
  5
88
  8
3
 10
184.19999999999999
 20
116.62339299999999
 30
0.0
 11
177.80000000000001
 21
116.62339299999999
 31
0.0
  0
LINE
  5
89
  8
3
 10
184.19999999999999
 20
116.01137300000001
 30
0.0
 11
177.80000000000001
 21
116.01137300000001
 31
0.0
  0
LINE
  5
8A
  8
3
 10
184.19999999999999
 20
115.43769399999999
 30
0.0
 11
177.80000000000001
 21
115.43769399999999
 31
0.0
  0
LINE
  5
8B
  8
3
 10
184.19999999999999
 20
114.90393
 30
0.0
 11
177.80000000000001
 21
114.90393
 31
0.0
  0
LINE
  5
8C
  8
3
 10
184.19999999999999
 20
114.41154299999999
 30
0.0
 11
177.80000000000001
 21
114.41154299999999
 31
0.0
  0
LINE
  5
8D
  8
3
 10
184.19999999999999
 20
113.961883
 30
0.0
 11
177.80000000000001
 21
113.961883
 31
0.0
  0
LINE
  5
8E
  8
0
 10
177.80000000000001
 20
112.0
 30
0.0
 11
184.19999999999999
 21
112.0
 31
0.0
  0
LINE
  5
8F
  8
3
 10
184.19999999999999
 20
130.0
 30
0.0
 11
177.80000000000001
 21
130.0
 31
0.0
  0
CIRCLE
  5
90
  8
0
 10
95.0
 20
130.0
 30
0.0
 40
18.0
  0
LINE
  5
91
  8
1
 10
118.0
 20
130.0
 30
0.0
 11
72.0
 21
130.0
 31
0.0
  0
LINE
  5
92
  8
1
 10
95.0
 20
153.0
 30
0.0
 11
95.0
 21
107.0
 31
0.0
  0
LINE
  5
93
  8
3
 10
184.19999999999999
 20
205.0
 30
0.0
 11
177.80000000000001
 21
205.0
 31
0.0
  0
LINE
  5
94
  8
0
 10
177.80000000000001
 20
187.0
 30
0.0
 11
184.19999999999999
 21
187.0
 31
0.0
  0
LINE
  5
95
  8
3
 10
184.19999999999999
 20
188.961883
 30
0.0
 11
177.80000000000001
 21
188.961883
 31
0.0
  0
LINE
  5
96
  8
3
 10
184.19999999999999
 20
189.41154299999999
 30
0.0
 11
177.80000000000001
 21
189.41154299999999
 31
0.0
  0
LINE
  5
97
  8
3
 10
184.19999999999999
 20
189.90393
 30
0.0
 11
177.80000000000001
 21
189.90393
 31
0.0
  0
LINE
  5
98
  8
3
 10
184.19999999999999
 20
190.43769399999999
 30
0.0
 11
177.80000000000001
 21
190.43769399999999
 31
0.0
  0
LINE
  5
99
  8
3
 10
184.19999999999999
 20
191.01137299999999
 30
0.0
 11
177.80000000000001
 21
191.01137299999999
 31
0.0
  0
LINE
  5
9A
  8
3
 10
184.19999999999999
 20
191.62339299999999
 30
0.0
 11
177.80000000000001
 21
191.62339299999999
 31
0.0
  0
LINE
  5
9B
  8
3
 10
184.19999999999999
 20
192.27207799999999
 30
0.0
 11
177.80000000000001
 21
192.27207799999999
 31
0.0
  0
LINE
  5
9C
  8
3
 10
184.19999999999999
 20
192.95564899999999
 30
0.0
 11
177.80000000000001
 21
192.95564899999999
 31
0.0
  0
LINE
  5
9D
  8
3
 10
184.19999999999999
 20
193.67223300000001
 30
0.0
 11
177.80000000000001
 21
193.67223300000001
 31
0.0
  0
LINE
  5
9E
  8
3
 10
184.19999999999999
 20
194.41986499999999
 30
0.0
 11
177.80000000000001
 21
194.41986499999999
 31
0.0
  0
LINE
  5
9F
  8
3
 10
184.19999999999999
 20
195.19649699999999
 30
0.0
 11
177.80000000000001
 21
195.19649699999999
 31
0.0
  0
LINE
  5
A0
  8
3
 10
184.19999999999999
 20
196.0
 30
0.0
 11
177.80000000000001
 21
196.0
 31
0.0
  0
LINE
  5
A1
  8
3
 10
184.19999999999999
 20
196.828171
 30
0.0
 11
177.80000000000001
 21
196.828171
 31
0.0
  0
LINE
  5
A2
  8
3
 10
184.19999999999999
 20
197.67874
 30
0.0
 11
177.80000000000001
 21
197.67874
 31
0.0
  0
LINE
  5
A3
  8
3
 10
184.19999999999999
 20
198.54937699999999
 30
0.0
 11
177.80000000000001
 21
198.54937699999999
 31
0.0
  0
LINE
  5
A4
  8
3
 10
184.19999999999999
 20
199.43769399999999
 30
0.0
 11
177.80000000000001
 21
199.43769399999999
 31
0.0
  0
LINE
  5
A5
  8
3
 10
184.19999999999999
 20
200.34125700000001
 30
0.0
 11
177.80000000000001
 21
200.34125700000001
 31
0.0
  0
LINE
  5
A6
  8
3
 10
184.19999999999999
 20
201.25758999999999
 30
0.0
 11
177.80000000000001
 21
201.25758999999999
 31
0.0
  0
LINE
  5
A7
  8
3
 10
184.19999999999999
 20
202.18418
 30
0.0
 11
177.80000000000001
 21
202.18418
 31
0.0
  0
LINE
  5
A8
  8
3
 10
184.19999999999999
 20
203.11848800000001
 30
0.0
 11
177.80000000000001
 21
203.11848800000001
 31
0.0
  0
LINE
  5
A9
  8
3
 10
184.19999999999999
 20
204.057953
 30
0.0
 11
177.80000000000001
 21
204.057953
 31
0.0
  0
LINE
  5
AA
  8
3
 10
184.19999999999999
 20
188.55618200000001
 30
0.0
 11
177.80000000000001
 21
188.55618200000001
 31
0.0
  0
LINE
  5
AB
  8
3
 10
184.19999999999999
 20
188.19555199999999
 30
0.0
 11
177.80000000000001
 21
188.19555199999999
 31
0.0
  0
LINE
  5
AC
  8
3
 10
184.19999999999999
 20
187.88098299999999
 30
0.0
 11
177.80000000000001
 21
187.88098299999999
 31
0.0
  0
LINE
  5
AD
  8
3
 10
184.19999999999999
 20
187.61333500000001
 30
0.0
 11
177.80000000000001
 21
187.61333500000001
 31
0.0
  0
LINE
  5
AE
  8
3
 10
184.19999999999999
 20
187.39334299999999
 30
0.0
 11
177.80000000000001
 21
187.39334299999999
 31
0.0
  0
LINE
  5
AF
  8
3
 10
184.19999999999999
 20
187.22161
 30
0.0
 11
177.80000000000001
 21
187.22161
 31
0.0
  0
LINE
  5
B0
  8
3
 10
184.19999999999999
 20
187.09860599999999
 30
0.0
 11
177.80000000000001
 21
187.09860599999999
 31
0.0
  0
LINE
  5
B1
  8
3
 10
184.19999999999999
 20
187.02466799999999
 30
0.0
 11
177.80000000000001
 21
187.02466799999999
 31
0.0
  0
LINE
  5
B2
  8
2
 10
198.5
 20
209.18799999999999
 30
0.0
 11
178.5
 21
209.18799999999999
 31
0.0
  0
LINE
  5
B3
  8
2
 10
199.31200000000001
 20
210.0
 30
0.0
 11
177.68799999999999
 21
210.0
 31
0.0
  0
LINE
  5
B4
  8
2
 10
178.5
 20
209.18799999999999
 30
0.0
 11
177.0
 21
210.68799999999999
 31
0.0
  0
LINE
  5
B5
  8
2
 10
198.5
 20
209.18799999999999
 30
0.0
 11
200.0
 21
210.68799999999999
 31
0.0
  0
LINE
  5
B6
  8
2
 10
178.5
 20
209.18799999999999
 30
0.0
 11
178.5
 21
205.0
 31
0.0
  0
LINE
  5
B7
  8
2
 10
198.5
 20
209.18799999999999
 30
0.0
 11
198.5
 21
205.0
 31
0.0
  0
LINE
  5
B8
  8
2
 10
198.5
 20
200.81200000000001
 30
0.0
 11
198.5
 21
205.0
 31
0.0
  0
LINE
  5
B9
  8
2
 10
178.5
 20
200.81200000000001
 30
0.0
 11
178.5
 21
205.0
 31
0.0
  0
LINE
  5
BA
  8
2
 10
198.5
 20
200.81200000000001
 30
0.0
 11
200.0
 21
199.31200000000001
 31
0.0
  0
LINE
  5
BB
  8
2
 10
178.5
 20
200.81200000000001
 30
0.0
 11
177.0
 21
199.31200000000001
 31
0.0
  0
LINE
  5
BC
  8
2
 10
199.31200000000001
 20
200.0
 30
0.0
 11
177.68799999999999
 21
200.0
 31
0.0
  0
LINE
  5
BD
  8
2
 10
198.5
 20
200.81200000000001
 30
0.0
 11
178.5
 21
200.81200000000001
 31
0.0
  0
LINE
  5
BE
  8
0
 10
177.80000000000001
 20
223.0
 30
0.0
 11
177.80000000000001
 21
187.0
 31
0.0
  0
LINE
  5
BF
  8
0
 10
184.19999999999999
 20
223.0
 30
0.0
 11
184.19999999999999
 21
187.0
 31
0.0
  0
LINE
  5
C0
  8
0
 10
177.0
 20
222.19999999999999
 30
0.0
 11
177.0
 21
187.80000000000001
 31
0.0
  0
LINE
  5
C1
  8
0
 10
185.0
 20
222.19999999999999
 30
0.0
 11
185.0
 21
187.80000000000001
 31
0.0
  0
LINE
  5
C2
  8
0
 10
199.19999999999999
 20
215.0
 30
0.0
 11
199.19999999999999
 21
195.0
 31
0.0
  0
LINE
  5
C3
  8
0
 10
200.0
 20
214.19999999999999
 30
0.0
 11
200.0
 21
195.80000000000001
 31
0.0
  0
LINE
  5
C4
  8
0
 10
200.0
 20
195.80000000000001
 30
0.0
 11
199.19999999999999
 21
195.0
 31
0.0
  0
LINE
  5
C5
  8
0
 10
177.0
 20
187.80000000000001
 30
0.0
 11
177.80000000000001
 21
187.0
 31
0.0
  0
LINE
  5
C6
  8
0
 10
184.19999999999999
 20
187.0
 30
0.0
 11
185.0
 21
187.80000000000001
 31
0.0
  0
LINE
  5
C7
  8
0
 10
187.0
 20
195.0
 30
0.0
 11
199.19999999999999
 21
195.0
 31
0.0
  0
ARC
  5
C8
  8
0
 10
187.0
 20
193.0
 30
0.0
 40
2.0
 50
90.0
 51
180.0
  0
LINE
  5
C9
  8
3
 10
184.19999999999999
 20
222.97533200000001
 30
0.0
 11
177.80000000000001
 21
222.97533200000001
 31
0.0
  0
LINE
  5
CA
  8
3
 10
184.19999999999999
 20
222.90139400000001
 30
0.0
 11
177.80000000000001
 21
222.90139400000001
 31
0.0
  0
LINE
  5
CB
  8
3
 10
184.19999999999999
 20
222.77839
 30
0.0
 11
177.80000000000001
 21
222.77839
 31
0.0
  0
LINE
  5
CC
  8
3
 10
184.19999999999999
 20
222.60665700000001
 30
0.0
 11
177.80000000000001
 21
222.60665700000001
 31
0.0
  0
LINE
  5
CD
  8
3
 10
184.19999999999999
 20
222.38666499999999
 30
0.0
 11
177.80000000000001
 21
222.38666499999999
 31
0.0
  0
LINE
  5
CE
  8
3
 10
184.19999999999999
 20
222.11901700000001
 30
0.0
 11
177.80000000000001
 21
222.11901700000001
 31
0.0
  0
LINE
  5
CF
  8
3
 10
184.19999999999999
 20
221.80444800000001
 30
0.0
 11
177.80000000000001
 21
221.80444800000001
 31
0.0
  0
LINE
  5
D0
  8
3
 10
184.19999999999999
 20
221.44381799999999
 30
0.0
 11
177.80000000000001
 21
221.44381799999999
 31
0.0
  0
LINE
  5
D1
  8
3
 10
184.19999999999999
 20
205.942047
 30
0.0
 11
177.80000000000001
 21
205.942047
 31
0.0
  0
LINE
  5
D2
  8
3
 10
184.19999999999999
 20
206.88151199999999
 30
0.0
 11
177.80000000000001
 21
206.88151199999999
 31
0.0
  0
LINE
  5
D3
  8
3
 10
184.19999999999999
 20
207.81582
 30
0.0
 11
177.80000000000001
 21
207.81582
 31
0.0
  0
LINE
  5
D4
  8
3
 10
184.19999999999999
 20
208.74241000000001
 30
0.0
 11
177.80000000000001
 21
208.74241000000001
 31
0.0
  0
LINE
  5
D5
  8
3
 10
184.19999999999999
 20
209.65874299999999
 30
0.0
 11
177.80000000000001
 21
209.65874299999999
 31
0.0
  0
LINE
  5
D6
  8
3
 10
184.19999999999999
 20
210.56230600000001
 30
0.0
 11
177.80000000000001
 21
210.56230600000001
 31
0.0
  0
LINE
  5
D7
  8
3
 10
184.19999999999999
 20
211.45062300000001
 30
0.0
 11
177.80000000000001
 21
211.45062300000001
 31
0.0
  0
LINE
  5
D8
  8
3
 10
184.19999999999999
 20
212.32126
 30
0.0
 11
177.80000000000001
 21
212.32126
 31
0.0
  0
LINE
  5
D9
  8
3
 10
184.19999999999999
 20
213.171829
 30
0.0
 11
177.80000000000001
 21
213.171829
 31
0.0
  0
LINE
  5
DA
  8
3
 10
184.19999999999999
 20
214.0
 30
0.0
 11
177.80000000000001
 21
214.0
 31
0.0
  0
LINE
  5
DB
  8
3
 10
184.19999999999999
 20
214.80350300000001
 30
0.0
 11
177.80000000000001
 21
214.80350300000001
 31
0.0
  0
LINE
  5
DC
  8
3
 10
184.19999999999999
 20
215.58013500000001
 30
0.0
 11
177.80000000000001
 21
215.58013500000001
 31
0.0
  0
LINE
  5
DD
  8
3
 10
184.19999999999999
 20
216.32776699999999
 30
0.0
 11
177.80000000000001
 21
216.32776699999999
 31
0.0
  0
LINE
  5
DE
  8
3
 10
184.19999999999999
 20
217.04435100000001
 30
0.0
 11
177.80000000000001
 21
217.04435100000001
 31
0.0
  0
LINE
  5
DF
  8
3
 10
184.19999999999999
 20
217.72792200000001
 30
0.0
 11
177.80000000000001
 21
217.72792200000001
 31
0.0
  0
LINE
  5
E0
  8
3
 10
184.19999999999999
 20
218.37660700000001
 30
0.0
 11
177.80000000000001
 21
218.37660700000001
 31
0.0
  0
LINE
  5
E1
  8
3
 10
184.19999999999999
 20
218.98862700000001
 30
0.0
 11
177.80000000000001
 21
218.98862700000001
 31
0.0
  0
LINE
  5
E2
  8
3
 10
184.19999999999999
 20
219.56230600000001
 30
0.0
 11
177.80000000000001
 21
219.56230600000001
 31
0.0
  0
LINE
  5
E3
  8
3
 10
184.19999999999999
 20
220.09607
 30
0.0
 11
177.80000000000001
 21
220.09607
 31
0.0
  0
LINE
  5
E4
  8
3
 10
184.19999999999999
 20
220.58845700000001
 30
0.0
 11
177.80000000000001
 21
220.58845700000001
 31
0.0
  0
LINE
  5
E5
  8
3
 10
184.19999999999999
 20
221.038117
 30
0.0
 11
177.80000000000001
 21
221.038117
 31
0.0
  0
ARC
  5
E6
  8
0
 10
187.0
 20
217.0
 30
0.0
 40
2.0
 50
180.0
 51
270.0
  0
LINE
  5
E7
  8
0
 10
187.0
 20
215.0
 30
0.0
 11
199.19999999999999
 21
215.0
 31
0.0
  0
LINE
  5
E8
  8
0
 10
184.19999999999999
 20
223.0
 30
0.0
 11
185.0
 21
222.19999999999999
 31
0.0
  0
LINE
  5
E9
  8
0
 10
177.80000000000001
 20
223.0
 30
0.0
 11
184.19999999999999
 21
223.0
 31
0.0
  0
LINE
  5
EA
  8
0
 10
177.0
 20
222.19999999999999
 30
0.0
 11
177.80000000000001
 21
223.0
 31
0.0
  0
LINE
  5
EB
  8
0
 10
200.0
 20
214.19999999999999
 30
0.0
 11
199.19999999999999
 21
215.0
 31
0.0
  0
LINE
  5
EC
  8
1
 10
205.0
 20
205.0
 30
0.0
 11
172.0
 21
205.0
 31
0.0
  0
LINE
  5
ED
  8
3
 10
184.19999999999999
 20
60.0
 30
0.0
 11
177.80000000000001
 21
60.0
 31
0.0
  0
LINE
  5
EE
  8
0
 10
177.80000000000001
 20
42.0
 30
0.0
 11
184.19999999999999
 21
42.0
 31
0.0
  0
LINE
  5
EF
  8
3
 10
184.19999999999999
 20
43.961883
 30
0.0
 11
177.80000000000001
 21
43.961883
 31
0.0
  0
LINE
  5
F0
  8
3
 10
184.19999999999999
 20
44.411542999999988
 30
0.0
 11
177.80000000000001
 21
44.411542999999988
 31
0.0
  0
LINE
  5
F1
  8
3
 10
184.19999999999999
 20
44.903930000000003
 30
0.0
 11
177.80000000000001
 21
44.903930000000003
 31
0.0
  0
LINE
  5
F2
  8
3
 10
184.19999999999999
 20
45.437694
 30
0.0
 11
177.80000000000001
 21
45.437694
 31
0.0
  0
LINE
  5
F3
  8
3
 10
184.19999999999999
 20
46.011372999999999
 30
0.0
 11
177.80000000000001
 21
46.011372999999999
 31
0.0
  0
LINE
  5
F4
  8
3
 10
184.19999999999999
 20
46.623393
 30
0.0
 11
177.80000000000001
 21
46.623393
 31
0.0
  0
LINE
  5
F5
  8
3
 10
184.19999999999999
 20
47.272078
 30
0.0
 11
177.80000000000001
 21
47.272078
 31
0.0
  0
LINE
  5
F6
  8
3
 10
184.19999999999999
 20
47.955649000000001
 30
0.0
 11
177.80000000000001
 21
47.955649000000001
 31
0.0
  0
LINE
  5
F7
  8
3
 10
184.19999999999999
 20
48.672232999999999
 30
0.0
 11
177.80000000000001
 21
48.672232999999999
 31
0.0
  0
LINE
  5
F8
  8
3
 10
184.19999999999999
 20
49.419865000000001
 30
0.0
 11
177.80000000000001
 21
49.419865000000001
 31
0.0
  0
LINE
  5
F9
  8
3
 10
184.19999999999999
 20
50.196496999999987
 30
0.0
 11
177.80000000000001
 21
50.196496999999987
 31
0.0
  0
LINE
  5
FA
  8
3
 10
184.19999999999999
 20
51.0
 30
0.0
 11
177.80000000000001
 21
51.0
 31
0.0
  0
LINE
  5
FB
  8
3
 10
184.19999999999999
 20
51.828171000000012
 30
0.0
 11
177.80000000000001
 21
51.828171000000012
 31
0.0
  0
LINE
  5
FC
  8
3
 10
184.19999999999999
 20
52.678739999999998
 30
0.0
 11
177.80000000000001
 21
52.678739999999998
 31
0.0
  0
LINE
  5
FD
  8
3
 10
184.19999999999999
 20
53.549377
 30
0.0
 11
177.80000000000001
 21
53.549377
 31
0.0
  0
LINE
  5
FE
  8
3
 10
184.19999999999999
 20
54.437693999999993
 30
0.0
 11
177.80000000000001
 21
54.437693999999993
 31
0.0
  0
LINE
  5
FF
  8
3
 10
184.19999999999999
 20
55.341256999999992
 30
0.0
 11
177.80000000000001
 21
55.341256999999992
 31
0.0
  0
LINE
  5
100
  8
3
 10
184.19999999999999
 20
56.25759
 30
0.0
 11
177.80000000000001
 21
56.25759
 31
0.0
  0
LINE
  5
101
  8
3
 10
184.19999999999999
 20
57.184179999999998
 30
0.0
 11
177.80000000000001
 21
57.184179999999998
 31
0.0
  0
LINE
  5
102
  8
3
 10
184.19999999999999
 20
58.118487999999992
 30
0.0
 11
177.80000000000001
 21
58.118487999999992
 31
0.0
  0
LINE
  5
103
  8
3
 10
184.19999999999999
 20
59.057953000000012
 30
0.0
 11
177.80000000000001
 21
59.057953000000012
 31
0.0
  0
LINE
  5
104
  8
3
 10
184.19999999999999
 20
43.556182
 30
0.0
 11
177.80000000000001
 21
43.556182
 31
0.0
  0
LINE
  5
105
  8
3
 10
184.19999999999999
 20
43.195551999999992
 30
0.0
 11
177.80000000000001
 21
43.195551999999992
 31
0.0
  0
LINE
  5
106
  8
3
 10
184.19999999999999
 20
42.880983000000001
 30
0.0
 11
177.80000000000001
 21
42.880983000000001
 31
0.0
  0
LINE
  5
107
  8
3
 10
184.19999999999999
 20
42.613334999999999
 30
0.0
 11
177.80000000000001
 21
42.613334999999999
 31
0.0
  0
LINE
  5
108
  8
3
 10
184.19999999999999
 20
42.393343000000002
 30
0.0
 11
177.80000000000001
 21
42.393343000000002
 31
0.0
  0
LINE
  5
109
  8
3
 10
184.19999999999999
 20
42.221609999999991
 30
0.0
 11
177.80000000000001
 21
42.221609999999991
 31
0.0
  0
LINE
  5
10A
  8
3
 10
184.19999999999999
 20
42.09860599999999
 30
0.0
 11
177.80000000000001
 21
42.09860599999999
 31
0.0
  0
LINE
  5
10B
  8
3
 10
184.19999999999999
 20
42.024667999999991
 30
0.0
 11
177.80000000000001
 21
42.024667999999991
 31
0.0
  0
LINE
  5
10C
  8
2
 10
198.5
 20
64.188000000000002
 30
0.0
 11
178.5
 21
64.188000000000002
 31
0.0
  0
LINE
  5
10D
  8
2
 10
199.31200000000001
 20
65.0
 30
0.0
 11
177.68799999999999
 21
65.0
 31
0.0
  0
LINE
  5
10E
  8
2
 10
178.5
 20
64.188000000000002
 30
0.0
 11
177.0
 21
65.688000000000002
 31
0.0
  0
LINE
  5
10F
  8
2
 10
198.5
 20
64.188000000000002
 30
0.0
 11
200.0
 21
65.688000000000002
 31
0.0
  0
LINE
  5
110
  8
2
 10
178.5
 20
64.188000000000002
 30
0.0
 11
178.5
 21
60.0
 31
0.0
  0
LINE
  5
111
  8
2
 10
198.5
 20
64.188000000000002
 30
0.0
 11
198.5
 21
60.0
 31
0.0
  0
LINE
  5
112
  8
2
 10
198.5
 20
55.811999999999991
 30
0.0
 11
198.5
 21
60.0
 31
0.0
  0
LINE
  5
113
  8
2
 10
178.5
 20
55.811999999999991
 30
0.0
 11
178.5
 21
60.0
 31
0.0
  0
LINE
  5
114
  8
2
 10
198.5
 20
55.811999999999991
 30
0.0
 11
200.0
 21
54.311999999999998
 31
0.0
  0
LINE
  5
115
  8
2
 10
178.5
 20
55.811999999999991
 30
0.0
 11
177.0
 21
54.311999999999998
 31
0.0
  0
LINE
  5
116
  8
2
 10
199.31200000000001
 20
55.0
 30
0.0
 11
177.68799999999999
 21
55.0
 31
0.0
  0
LINE
  5
117
  8
2
 10
198.5
 20
55.811999999999991
 30
0.0
 11
178.5
 21
55.811999999999991
 31
0.0
  0
LINE
  5
118
  8
0
 10
177.80000000000001
 20
78.0
 30
0.0
 11
177.80000000000001
 21
42.0
 31
0.0
  0
LINE
  5
119
  8
0
 10
184.19999999999999
 20
78.0
 30
0.0
 11
184.19999999999999
 21
42.0
 31
0.0
  0
LINE
  5
11A
  8
0
 10
177.0
 20
77.200000000000003
 30
0.0
 11
177.0
 21
42.799999999999997
 31
0.0
  0
LINE
  5
11B
  8
0
 10
185.0
 20
77.200000000000003
 30
0.0
 11
185.0
 21
42.799999999999997
 31
0.0
  0
LINE
  5
11C
  8
0
 10
199.19999999999999
 20
70.0
 30
0.0
 11
199.19999999999999
 21
50.0
 31
0.0
  0
LINE
  5
11D
  8
0
 10
200.0
 20
69.200000000000003
 30
0.0
 11
200.0
 21
50.799999999999997
 31
0.0
  0
LINE
  5
11E
  8
0
 10
200.0
 20
50.799999999999997
 30
0.0
 11
199.19999999999999
 21
50.0
 31
0.0
  0
LINE
  5
11F
  8
0
 10
177.0
 20
42.799999999999997
 30
0.0
 11
177.80000000000001
 21
42.0
 31
0.0
  0
LINE
  5
120
  8
0
 10
184.19999999999999
 20
42.0
 30
0.0
 11
185.0
 21
42.799999999999997
 31
0.0
  0
LINE
  5
121
  8
0
 10
187.0
 20
50.0
 30
0.0
 11
199.19999999999999
 21
50.0
 31
0.0
  0
ARC
  5
122
  8
0
 10
187.0
 20
48.0
 30
0.0
 40
2.0
 50
90.0
 51
180.0
  0
LINE
  5
123
  8
3
 10
184.19999999999999
 20
77.975331999999995
 30
0.0
 11
177.80000000000001
 21
77.975331999999995
 31
0.0
  0
LINE
  5
124
  8
3
 10
184.19999999999999
 20
77.901393999999996
 30
0.0
 11
177.80000000000001
 21
77.901393999999996
 31
0.0
  0
LINE
  5
125
  8
3
 10
184.19999999999999
 20
77.778390000000002
 30
0.0
 11
177.80000000000001
 21
77.778390000000002
 31
0.0
  0
LINE
  5
126
  8
3
 10
184.19999999999999
 20
77.606656999999998
 30
0.0
 11
177.80000000000001
 21
77.606656999999998
 31
0.0
  0
LINE
  5
127
  8
3
 10
184.19999999999999
 20
77.386664999999994
 30
0.0
 11
177.80000000000001
 21
77.386664999999994
 31
0.0
  0
LINE
  5
128
  8
3
 10
184.19999999999999
 20
77.119016999999999
 30
0.0
 11
177.80000000000001
 21
77.119016999999999
 31
0.0
  0
LINE
  5
129
  8
3
 10
184.19999999999999
 20
76.804447999999994
 30
0.0
 11
177.80000000000001
 21
76.804447999999994
 31
0.0
  0
LINE
  5
12A
  8
3
 10
184.19999999999999
 20
76.443818000000007
 30
0.0
 11
177.80000000000001
 21
76.443818000000007
 31
0.0
  0
LINE
  5
12B
  8
3
 10
184.19999999999999
 20
60.942046999999988
 30
0.0
 11
177.80000000000001
 21
60.942046999999988
 31
0.0
  0
LINE
  5
12C
  8
3
 10
184.19999999999999
 20
61.881512000000001
 30
0.0
 11
177.80000000000001
 21
61.881512000000001
 31
0.0
  0
LINE
  5
12D
  8
3
 10
184.19999999999999
 20
62.815820000000002
 30
0.0
 11
177.80000000000001
 21
62.815820000000002
 31
0.0
  0
LINE
  5
12E
  8
3
 10
184.19999999999999
 20
63.74241
 30
0.0
 11
177.80000000000001
 21
63.74241
 31
0.0
  0
LINE
  5
12F
  8
3
 10
184.19999999999999
 20
64.658743000000001
 30
0.0
 11
177.80000000000001
 21
64.658743000000001
 31
0.0
  0
LINE
  5
130
  8
3
 10
184.19999999999999
 20
65.562306000000007
 30
0.0
 11
177.80000000000001
 21
65.562306000000007
 31
0.0
  0
LINE
  5
131
  8
3
 10
184.19999999999999
 20
66.450622999999993
 30
0.0
 11
177.80000000000001
 21
66.450622999999993
 31
0.0
  0
LINE
  5
132
  8
3
 10
184.19999999999999
 20
67.321259999999995
 30
0.0
 11
177.80000000000001
 21
67.321259999999995
 31
0.0
  0
LINE
  5
133
  8
3
 10
184.19999999999999
 20
68.171829000000002
 30
0.0
 11
177.80000000000001
 21
68.171829000000002
 31
0.0
  0
LINE
  5
134
  8
3
 10
184.19999999999999
 20
69.0
 30
0.0
 11
177.80000000000001
 21
69.0
 31
0.0
  0
LINE
  5
135
  8
3
 10
184.19999999999999
 20
69.803503000000006
 30
0.0
 11
177.80000000000001
 21
69.803503000000006
 31
0.0
  0
LINE
  5
136
  8
3
 10
184.19999999999999
 20
70.580134999999999
 30
0.0
 11
177.80000000000001
 21
70.580134999999999
 31
0.0
  0
LINE
  5
137
  8
3
 10
184.19999999999999
 20
71.327766999999994
 30
0.0
 11
177.80000000000001
 21
71.327766999999994
 31
0.0
  0
LINE
  5
138
  8
3
 10
184.19999999999999
 20
72.044351000000006
 30
0.0
 11
177.80000000000001
 21
72.044351000000006
 31
0.0
  0
LINE
  5
139
  8
3
 10
184.19999999999999
 20
72.727921999999992
 30
0.0
 11
177.80000000000001
 21
72.727921999999992
 31
0.0
  0
LINE
  5
13A
  8
3
 10
184.19999999999999
 20
73.376606999999993
 30
0.0
 11
177.80000000000001
 21
73.376606999999993
 31
0.0
  0
LINE
  5
13B
  8
3
 10
184.19999999999999
 20
73.988627000000008
 30
0.0
 11
177.80000000000001
 21
73.988627000000008
 31
0.0
  0
LINE
  5
13C
  8
3
 10
184.19999999999999
 20
74.562306000000007
 30
0.0
 11
177.80000000000001
 21
74.562306000000007
 31
0.0
  0
LINE
  5
13D
  8
3
 10
184.19999999999999
 20
75.096069999999983
 30
0.0
 11
177.80000000000001
 21
75.096069999999983
 31
0.0
  0
LINE
  5
13E
  8
3
 10
184.19999999999999
 20
75.588456999999991
 30
0.0
 11
177.80000000000001
 21
75.588456999999991
 31
0.0
  0
LINE
  5
13F
  8
3
 10
184.19999999999999
 20
76.038117
 30
0.0
 11
177.80000000000001
 21
76.038117
 31
0.0
  0
ARC
  5
140
  8
0
 10
187.0
 20
72.0
 30
0.0
 40
2.0
 50
180.0
 51
270.0
  0
LINE
  5
141
  8
0
 10
187.0
 20
70.0
 30
0.0
 11
199.19999999999999
 21
70.0
 31
0.0
  0
LINE
  5
142
  8
0
 10
184.19999999999999
 20
78.0
 30
0.0
 11
185.0
 21
77.200000000000003
 31
0.0
  0
LINE
  5
143
  8
0
 10
177.80000000000001
 20
78.0
 30
0.0
 11
184.19999999999999
 21
78.0
 31
0.0
  0
LINE
  5
144
  8
0
 10
177.0
 20
77.200000000000003
 30
0.0
 11
177.80000000000001
 21
78.0
 31
0.0
  0
LINE
  5
145
  8
0
 10
200.0
 20
69.200000000000003
 30
0.0
 11
199.19999999999999
 21
70.0
 31
0.0
  0
LINE
  5
146
  8
1
 10
205.0
 20
60.0
 30
0.0
 11
172.0
 21
60.0
 31
0.0
  0
CIRCLE
  5
147
  8
0
 10
95.0
 20
130.0
 30
0.0
 40
17.199999999999999
  0
CIRCLE
  5
148
  8
3
 10
95.0
 20
130.0
 30
0.0
 40
5.0
  0
CIRCLE
  5
149
  8
0
 10
95.0
 20
130.0
 30
0.0
 40
4.1879999999999988
  0
CIRCLE
  5
14A
  8
0
 10
285.0
 20
130.0
 30
0.0
 40
18.0
  0
CIRCLE
  5
14B
  8
0
 10
285.0
 20
130.0
 30
0.0
 40
10.0
  0
LINE
  5
14C
  8
1
 10
308.0
 20
130.0
 30
0.0
 11
262.0
 21
130.0
 31
0.0
  0
LINE
  5
14D
  8
1
 10
285.0
 20
153.0
 30
0.0
 11
285.0
 21
107.0
 31
0.0
  0
CIRCLE
  5
14E
  8
0
 10
285.0
 20
130.0
 30
0.0
 40
17.199999999999999
  0
CIRCLE
  5
14F
  8
0
 10
285.0
 20
130.0
 30
0.0
 40
9.1999999999999993
  0
CIRCLE
  5
150
  8
3
 10
285.0
 20
130.0
 30
0.0
 40
5.0
  0
CIRCLE
  5
151
  8
0
 10
285.0
 20
130.0
 30
0.0
 40
4.1879999999999988
  0
TEXT
  5
2B1
  8
0
 62
     3
 10
0.0
 20
0.0
 30
0.0
 40
10.0
  1
TKN10-SUS
  7
STANDARD1
  0
ENDSEC
  0
EOF
