  0
SECTION
  2
HEADER
  9
$ACADVER
  1
AC1009
  9
$INSBASE
 10
0.0
 20
0.0
 30
0.0
  9
$EXTMIN
 10
0.0
 20
-2.960436562073669
 30
0.0
  9
$EXTMAX
 10
528.19802673808772
 20
590.20640198428464
 30
0.0
  9
$LIMMIN
 10
0.0
 20
0.0
  9
$LIMMAX
 10
420.0
 20
297.0
  9
$ORTHOMODE
 70
     1
  9
$REGENMODE
 70
     1
  9
$FILLMODE
 70
     1
  9
$QTEXTMODE
 70
     0
  9
$MIRRTEXT
 70
     0
  9
$DRAGMODE
 70
     2
  9
$LTSCALE
 40
10.0
  9
$OSMODE
 70
    55
  9
$ATTMODE
 70
     1
  9
$TEXTSIZE
 40
2.5
  9
$TRACEWID
 40
1.0
  9
$TEXTSTYLE
  7
STANDARD
  9
$CLAYER
  8
0
  9
$CELTYPE
  6
BYLAYER
  9
$CECOLOR
 62
   256
  9
$DIMSCALE
 40
1.0
  9
$DIMASZ
 40
2.5
  9
$DIMEXO
 40
0.625
  9
$DIMDLI
 40
3.75
  9
$DIMRND
 40
0.0
  9
$DIMDLE
 40
0.0
  9
$DIMEXE
 40
1.25
  9
$DIMTP
 40
0.0
  9
$DIMTM
 40
0.0
  9
$DIMTXT
 40
2.5
  9
$DIMCEN
 40
2.5
  9
$DIMTSZ
 40
0.0
  9
$DIMTOL
 70
     0
  9
$DIMLIM
 70
     0
  9
$DIMTIH
 70
     0
  9
$DIMTOH
 70
     0
  9
$DIMSE1
 70
     0
  9
$DIMSE2
 70
     0
  9
$DIMTAD
 70
     1
  9
$DIMZIN
 70
     8
  9
$DIMBLK
  1

  9
$DIMASO
 70
     1
  9
$DIMSHO
 70
     1
  9
$DIMPOST
  1

  9
$DIMAPOST
  1

  9
$DIMALT
 70
     0
  9
$DIMALTD
 70
     3
  9
$DIMALTF
 40
0.03937007874016
  9
$DIMLFAC
 40
1.0
  9
$DIMTOFL
 70
     1
  9
$DIMTVP
 40
0.0
  9
$DIMTIX
 70
     0
  9
$DIMSOXD
 70
     0
  9
$DIMSAH
 70
     0
  9
$DIMBLK1
  1

  9
$DIMBLK2
  1

  9
$DIMSTYLE
  2
ISO-25
  9
$DIMCLRD
 70
     0
  9
$DIMCLRE
 70
     0
  9
$DIMCLRT
 70
     0
  9
$DIMTFAC
 40
1.0
  9
$DIMGAP
 40
0.625
  9
$LUNITS
 70
     2
  9
$LUPREC
 70
     4
  9
$SKETCHINC
 40
1.0
  9
$FILLETRAD
 40
0.0
  9
$AUNITS
 70
     0
  9
$AUPREC
 70
     2
  9
$MENU
  1
.
  9
$ELEVATION
 40
0.0
  9
$PELEVATION
 40
0.0
  9
$THICKNESS
 40
0.0
  9
$LIMCHECK
 70
     0
  9
$BLIPMODE
 70
     0
  9
$CHAMFERA
 40
0.0
  9
$CHAMFERB
 40
0.0
  9
$SKPOLY
 70
     0
  9
$TDCREATE
 40
2454083.4444627082
  9
$TDUPDATE
 40
2456598.437392836
  9
$TDINDWG
 40
2.2466930440000001
  9
$TDUSRTIMER
 40
2.2466930440000001
  9
$USRTIMER
 70
     1
  9
$ANGBASE
 50
0.0
  9
$ANGDIR
 70
     0
  9
$PDMODE
 70
     0
  9
$PDSIZE
 40
0.0
  9
$PLINEWID
 40
0.0
  9
$COORDS
 70
     1
  9
$SPLFRAME
 70
     0
  9
$SPLINETYPE
 70
     6
  9
$SPLINESEGS
 70
     8
  9
$ATTDIA
 70
     0
  9
$ATTREQ
 70
     1
  9
$HANDLING
 70
     1
  9
$HANDSEED
  5
13475
  9
$SURFTAB1
 70
     6
  9
$SURFTAB2
 70
     6
  9
$SURFTYPE
 70
     6
  9
$SURFU
 70
     6
  9
$SURFV
 70
     6
  9
$UCSNAME
  2

  9
$UCSORG
 10
0.0
 20
0.0
 30
0.0
  9
$UCSXDIR
 10
1.0
 20
0.0
 30
0.0
  9
$UCSYDIR
 10
0.0
 20
1.0
 30
0.0
  9
$PUCSNAME
  2

  9
$PUCSORG
 10
0.0
 20
0.0
 30
0.0
  9
$PUCSXDIR
 10
1.0
 20
0.0
 30
0.0
  9
$PUCSYDIR
 10
0.0
 20
1.0
 30
0.0
  9
$USERI1
 70
     0
  9
$USERI2
 70
     0
  9
$USERI3
 70
     0
  9
$USERI4
 70
     0
  9
$USERI5
 70
     0
  9
$USERR1
 40
0.0
  9
$USERR2
 40
0.0
  9
$USERR3
 40
0.0
  9
$USERR4
 40
0.0
  9
$USERR5
 40
0.0
  9
$WORLDVIEW
 70
     1
  9
$SHADEDGE
 70
     3
  9
$SHADEDIF
 70
    70
  9
$TILEMODE
 70
     1
  9
$MAXACTVP
 70
    64
  9
$PLIMCHECK
 70
     0
  9
$PEXTMIN
 10
0.0
 20
0.0
 30
0.0
  9
$PEXTMAX
 10
0.0
 20
0.0
 30
0.0
  9
$PLIMMIN
 10
0.0
 20
0.0
  9
$PLIMMAX
 10
12.0
 20
9.0
  9
$UNITMODE
 70
     0
  9
$VISRETAIN
 70
     1
  9
$PLINEGEN
 70
     0
  9
$PSLTSCALE
 70
     1
  0
ENDSEC
  0
SECTION
  2
TABLES
  0
TABLE
  2
VPORT
 70
     1
  0
VPORT
  2
*ACTIVE
 70
     0
 10
0.0
 20
0.0
 11
1.0
 21
1.0
 12
264.09901459885077
 22
431.69516733122651
 13
0.0
 23
0.0
 14
10.0
 24
10.0
 15
10.0
 25
10.0
 16
0.0
 26
0.0
 36
1.0
 17
0.0
 27
0.0
 37
0.0
 40
877.02458507618451
 41
1.7807262569832401
 42
50.0
 43
0.0
 44
0.0
 50
0.0
 51
0.0
 71
     0
 72
  1000
 73
     1
 74
     3
 75
     0
 76
     0
 77
     0
 78
     0
  0
ENDTAB
  0
TABLE
  2
LTYPE
 70
     2
  0
LTYPE
  2
CONTINUOUS
 70
     0
  3
Solid line
 72
    65
 73
     0
 40
0.0
  0
LTYPE
  2
CENTER
 70
     0
  3
____ _ ____ _ ____ _ ____ _ ____ _ ____ _ ____
 72
    65
 73
     4
 40
2.0
 49
1.25
 49
-0.25
 49
0.25
 49
-0.25
  0
ENDTAB
  0
TABLE
  2
LAYER
 70
     4
  0
LAYER
  2
0
 70
     0
 62
     7
  6
CONTINUOUS
  0
LAYER
  2
DEFPOINTS
 70
     0
 62
     7
  6
CONTINUOUS
  0
LAYER
  2
1
 70
     0
 62
     1
  6
CENTER
  0
LAYER
  2
3
 70
     0
 62
     3
  6
CONTINUOUS
  0
ENDTAB
  0
TABLE
  2
STYLE
 70
     2
  0
STYLE
  2
STANDARD
 70
     0
 40
0.0
 41
1.0
 50
0.0
 71
     0
 42
2.5
  3
txt
  4

  0
STYLE
  2
STANDARD1
 70
     0
 40
0.0
 41
1.0
 50
0.0
 71
     0
 42
3.0
  3
txt
  4

  0
ENDTAB
  0
TABLE
  2
VIEW
 70
     2
  0
VIEW
  2
OLE1
 70
     0
 40
17.336203194614189
 10
1078.262703908531
 20
377.67444865954309
 41
31.074911629702001
 11
0.0
 21
0.0
 31
1.0
 12
0.0
 22
0.0
 32
0.0
 42
50.0
 43
0.0
 44
0.0
 50
0.0
 71
     0
  0
VIEW
  2
OLE2
 70
     0
 40
50.523198253338478
 10
1031.767738941523
 20
579.92835671582054
 41
90.562155008667546
 11
0.0
 21
0.0
 31
1.0
 12
0.0
 22
0.0
 32
0.0
 42
50.0
 43
0.0
 44
0.0
 50
0.0
 71
     0
  0
ENDTAB
  0
TABLE
  2
UCS
 70
     0
  0
ENDTAB
  0
TABLE
  2
APPID
 70
    42
  0
APPID
  2
ACAD
 70
     0
  0
APPID
  2
_FTCNV
 70
     0
  0
APPID
  2
DCO15
 70
     0
  0
APPID
  2
GENIUS_GENOREF_13
 70
     0
  0
APPID
  2
GENIUS_GENOENT_13
 70
     0
  0
APPID
  2
GENIUS_GENBH_13
 70
     0
  0
APPID
  2
GENIUS_GENOBJ_13
 70
     0
  0
APPID
  2
GENIUS_GENODEF_13
 70
     0
  0
APPID
  2
GENIUS_GENOLIS_13
 70
     0
  0
APPID
  2
GENIUS_GENOBJ-NBEHI-BHF_13
 70
     0
  0
APPID
  2
GENIUS_GENOBJ-NBEHI-BHB_13
 70
     0
  0
APPID
  2
GENIUS_GENOBJ-F-PART_13
 70
     0
  0
APPID
  2
GENIUS_GEFSTDP_13
 70
     0
  0
APPID
  2
GENIUS_GENOBJ-N-RSSYM_13
 70
     0
  0
APPID
  2
GENIUS_GENSYMENT_13
 70
     0
  0
APPID
  2
GENIUS_GENOBJ-N-TIT_13
 70
     0
  0
APPID
  2
GENIUS_GENTITLE_13
 70
     0
  0
APPID
  2
GENIUS_GENZVEED_13
 70
     0
  0
APPID
  2
GENIUS_GENOBJ-N-LEADER_13
 70
     0
  0
APPID
  2
GENIUS_GENOBJ-N-FIL_13
 70
     0
  0
APPID
  2
GENIUS_GENOBJ-N-SEC_13
 70
     0
  0
APPID
  2
GENIUS_GENOBJ-N-CRS_13
 70
     0
  0
APPID
  2
GENIUS_GENOBJ-N-ZOO_13
 70
     0
  0
APPID
  2
GENIUS_GENZOO_13
 70
     0
  0
APPID
  2
GENIUS_GENOBJ-F-TOL_13
 70
     0
  0
APPID
  2
GENIUS_GENFIL_13
 70
     0
  0
APPID
  2
GENIUS_GENOBJ-N-CHA_13
 70
     0
  0
APPID
  2
_CALL_MAC$
 70
     0
  0
APPID
  2
ASM_BASE
 70
     0
  0
APPID
  2
ASM_EXPLO_VER_2_00
 70
     0
  0
APPID
  2
ASM_CADM_VER_12_00
 70
     0
  0
APPID
  2
ASM_BASEFORO
 70
     0
  0
APPID
  2
ASM_BASETRAVI
 70
     0
  0
APPID
  2
ASM_BASETRAVI1
 70
     0
  0
APPID
  2
ASM_GRUPPI
 70
     0
  0
APPID
  2
ASM_CADM_ALBERO
 70
     0
  0
APPID
  2
ASM_GOLE
 70
     0
  0
APPID
  2
ACAD_MLEADERVER
 70
     0
  0
APPID
  2
ACAD_EXEMPT_FROM_CAD_STANDARDS
 70
     0
  0
APPID
  2
ACAD_DSTYLE_DIMJAG
 70
     0
  0
APPID
  2
ACAD_DSTYLE_DIMTALN
 70
     0
  0
APPID
  2
ACAD_NAV_VCDISPLAY
 70
     0
  0
ENDTAB
  0
TABLE
  2
DIMSTYLE
 70
     2
  0
DIMSTYLE
  2
ISO-25
 70
     0
  3

  4

  5

  6

  7

 40
1.0
 41
2.5
 42
0.625
 43
3.75
 44
1.25
 45
0.0
 46
0.0
 47
0.0
 48
0.0
140
2.5
141
2.5
142
0.0
143
0.03937007874016
144
1.0
145
0.0
146
1.0
147
0.625
 71
     0
 72
     0
 73
     0
 74
     0
 75
     0
 76
     0
 77
     1
 78
     8
170
     0
171
     3
172
     1
173
     0
174
     0
175
     0
176
     0
177
     0
178
     0
  0
DIMSTYLE
  2
STANDARD
 70
     0
  3

  4

  5

  6

  7

 40
1.0
 41
0.18
 42
0.0625
 43
0.38
 44
0.18
 45
0.0
 46
0.0
 47
0.0
 48
0.0
140
0.18
141
0.09
142
0.0
143
25.399999999999999
144
1.0
145
0.0
146
1.0
147
0.09
 71
     0
 72
     0
 73
     1
 74
     1
 75
     0
 76
     0
 77
     0
 78
     0
170
     0
171
     2
172
     0
173
     0
174
     0
175
     0
176
     0
177
     0
178
     0
  0
ENDTAB
  0
ENDSEC
  0
SECTION
  2
BLOCKS
  0
BLOCK
  8
0
  2
$MODEL_SPACE
 70
     0
 10
0.0
 20
0.0
 30
0.0
  3
$MODEL_SPACE
  1

  0
ENDBLK
  5
21
  8
0
  0
BLOCK
 67
     1
  8
0
  2
$PAPER_SPACE
 70
     0
 10
0.0
 20
0.0
 30
0.0
  3
$PAPER_SPACE
  1

  0
ENDBLK
  5
53
 67
     1
  8
0
  0
ENDSEC
  0
SECTION
  2
ENTITIES
  0
LINE
  5
121D0
  8
0
 10
204.44802991501521
 20
264.40069843370702
 30
0.0
 11
204.44802991501521
 21
259.9558459623554
 31
0.0
  0
ARC
  5
121D1
  8
0
 10
215.94802794806179
 20
253.27639795143421
 30
0.0
 40
15.999999999999719
 50
112.33164768311509
 51
135.95137432591491
  0
ARC
  5
121D2
  8
0
 10
215.9480279480656
 20
253.27639795144029
 30
0.0
 40
15.99999999999261
 50
57.72806861398454
 51
67.668352316886143
  0
LINE
  5
121D3
  8
0
 10
207.64802447907161
 20
206.77639749188211
 30
0.0
 11
207.64802447907161
 21
206.2763983412483
 31
0.0
  0
LINE
  5
121D4
  8
0
 10
224.24802980772691
 20
206.2763983412483
 30
0.0
 11
224.24802980772691
 21
206.77639749188211
 31
0.0
  0
LINE
  5
121D5
  8
0
 10
209.94802615992259
 20
275.7029013736942
 30
0.0
 11
209.94802615992259
 21
268.07639766771592
 31
0.0
  0
LINE
  5
121D6
  8
0
 10
209.94802615992259
 20
241.7763995035389
 30
0.0
 11
209.94802615992259
 21
206.77639749188211
 31
0.0
  0
LINE
  5
121D7
  8
0
 10
221.9480281268759
 20
206.77639749188211
 30
0.0
 11
221.9480281268759
 21
241.7763995035389
 31
0.0
  0
LINE
  5
121D8
  8
0
 10
221.9480281268759
 20
268.07639766771592
 30
0.0
 11
221.9480281268759
 21
275.7029013736942
 31
0.0
  0
LINE
  5
121D9
  8
0
 10
221.9480281268759
 20
275.7029013736942
 30
0.0
 11
220.87452612272929
 21
276.77639592726018
 31
0.0
  0
LINE
  5
121DA
  8
0
 10
211.0215281640692
 20
276.77639592726018
 30
0.0
 11
209.94802615992259
 21
275.7029013736942
 31
0.0
  0
LINE
  5
121DB
  8
0
 10
225.448027769248
 20
199.27639719385891
 30
0.0
 11
226.91768459431361
 21
199.6701901807287
 31
0.0
  0
LINE
  5
121DC
  8
0
 10
204.9783696924849
 20
199.6701901807287
 30
0.0
 11
206.44802651755049
 21
199.27639719385891
 31
0.0
  0
LINE
  5
121DD
  8
0
 10
225.448027769248
 20
241.7763995035389
 30
0.0
 11
226.91768459431361
 21
242.62490142423891
 31
0.0
  0
LINE
  5
121DE
  8
0
 10
226.91768459431361
 20
246.92789484102511
 30
0.0
 11
225.448027769248
 21
247.77639676172521
 31
0.0
  0
LINE
  5
121DF
  8
0
 10
206.44802651755049
 20
247.77639676172521
 30
0.0
 11
204.9783696924849
 21
246.92789484102511
 31
0.0
  0
LINE
  5
121E0
  8
0
 10
204.9783696924849
 20
242.62490142423891
 30
0.0
 11
206.44802651755049
 21
241.7763995035389
 31
0.0
  0
CIRCLE
  5
121E1
  8
0
 10
326.94802794806202
 20
230.27639795143389
 30
0.0
 40
5.50000000000054
  0
LINE
  5
121E2
  8
0
 10
327.84802797637423
 20
399.69301242668422
 30
0.0
 11
319.84802806205579
 21
399.69301242668422
 31
0.0
  0
LINE
  5
121E3
  8
0
 10
327.84802797637423
 20
397.81978745300557
 30
0.0
 11
327.84802797637423
 21
399.69301242668422
 31
0.0
  0
LINE
  5
121E4
  8
0
 10
319.84802806205579
 20
397.81978745300557
 30
0.0
 11
327.84802797637423
 21
397.81978745300557
 31
0.0
  0
LINE
  5
121E5
  8
0
 10
319.84802806205579
 20
399.69301242668422
 30
0.0
 11
319.84802806205579
 21
397.81978745300557
 31
0.0
  0
LINE
  5
121E6
  8
0
 10
327.84802797637423
 20
394.63035781223562
 30
0.0
 11
319.84802806205579
 21
394.63035781223562
 31
0.0
  0
LINE
  5
121E7
  8
0
 10
319.84802806205579
 20
392.76048559982559
 30
0.0
 11
327.84802797637423
 21
392.76048559982559
 31
0.0
  0
LINE
  5
121E8
  8
0
 10
319.84802806205579
 20
392.76048559982559
 30
0.0
 11
319.84802806205579
 21
394.63035781223562
 31
0.0
  0
LINE
  5
121E9
  8
0
 10
327.84802797637423
 20
392.76048559982559
 30
0.0
 11
327.84802797637423
 21
394.63035781223562
 31
0.0
  0
LINE
  5
121EA
  8
0
 10
327.84802797637423
 20
404.7522993787029
 30
0.0
 11
319.84802806205579
 21
404.7522993787029
 31
0.0
  0
LINE
  5
121EB
  8
0
 10
319.84802806205579
 20
402.88242716629293
 30
0.0
 11
327.84802797637423
 21
402.88242716629293
 31
0.0
  0
LINE
  5
121EC
  8
0
 10
327.84802797637423
 20
402.88242716629293
 30
0.0
 11
327.84802797637423
 21
404.7522993787029
 31
0.0
  0
LINE
  5
121ED
  8
0
 10
319.84802806205579
 20
402.88242716629293
 30
0.0
 11
319.84802806205579
 21
404.7522993787029
 31
0.0
  0
LINE
  5
121EE
  8
0
 10
327.84802797637423
 20
409.7976388438442
 30
0.0
 11
319.84802806205579
 21
409.7976388438442
 31
0.0
  0
LINE
  5
121EF
  8
0
 10
327.84802797637423
 20
407.93781001407888
 30
0.0
 11
327.84802797637423
 21
409.7976388438442
 31
0.0
  0
LINE
  5
121F0
  8
0
 10
319.84802806205579
 20
407.93781001407888
 30
0.0
 11
327.84802797637423
 21
407.93781001407888
 31
0.0
  0
LINE
  5
121F1
  8
0
 10
319.84802806205579
 20
407.93781001407888
 30
0.0
 11
319.84802806205579
 21
409.7976388438442
 31
0.0
  0
LINE
  5
121F2
  8
0
 10
327.84802797637423
 20
389.5749898656108
 30
0.0
 11
319.84802806205579
 21
389.5749898656108
 31
0.0
  0
LINE
  5
121F3
  8
0
 10
319.84802806205579
 20
387.71516103584548
 30
0.0
 11
327.84802797637423
 21
387.71516103584548
 31
0.0
  0
LINE
  5
121F4
  8
0
 10
319.84802806205579
 20
387.71516103584548
 30
0.0
 11
319.84802806205579
 21
389.5749898656108
 31
0.0
  0
LINE
  5
121F5
  8
0
 10
327.84802797637423
 20
387.71516103584548
 30
0.0
 11
327.84802797637423
 21
389.5749898656108
 31
0.0
  0
ARC
  5
1220A
  8
0
 10
433.24837145475362
 20
398.24127693125928
 30
0.0
 40
125.3914015190653
 50
179.76462136173171
 51
190.09786769710391
  0
ARC
  5
1220B
  8
0
 10
433.24776684519082
 20
399.27156055391993
 30
0.0
 40
125.3907970690987
 50
169.9021074852698
 51
180.23539695643441
  0
ARC
  5
1220D
  8
0
 10
238.6738818111119
 20
399.23822674486092
 30
0.0
 40
101.6752880172056
 50
359.72848126373862
 51
12.506699379748939
  0
ARC
  5
1220E
  8
0
 10
238.67407317222001
 20
398.27453804276189
 30
0.0
 40
101.6750968245495
 50
347.49328837602218
 51
0.2715390220844218
  0
LINE
  5
12218
  8
0
 10
327.84802797637423
 20
414.8468377097347
 30
0.0
 11
319.84802806205579
 21
414.8468377097347
 31
0.0
  0
LINE
  5
12219
  8
0
 10
319.84802806205579
 20
413.00389189560201
 30
0.0
 11
327.84802797637423
 21
413.00389189560201
 31
0.0
  0
LINE
  5
1221A
  8
0
 10
319.84802806205579
 20
413.00389189560201
 30
0.0
 11
319.84802806205579
 21
414.8468377097347
 31
0.0
  0
LINE
  5
1221B
  8
0
 10
327.84802797637423
 20
413.00389189560201
 30
0.0
 11
327.84802797637423
 21
414.8468377097347
 31
0.0
  0
ARC
  5
12225
  8
0
 10
365.1428093660536
 20
412.52526414561453
 30
0.0
 40
56.027979365658439
 50
153.2681261709258
 51
171.0347638916696
  0
ARC
  5
12226
  8
0
 10
302.30723934335788
 20
416.55796205338839
 30
0.0
 40
35.937702389963192
 50
7.512253439161924
 51
36.090559947932853
  0
ARC
  5
12228
  8
0
 10
365.13717763517872
 20
384.98573021439671
 30
0.0
 40
56.022137402980718
 50
188.96432472806009
 51
206.7328154548099
  0
ARC
  5
12229
  8
0
 10
302.30246687963358
 20
380.95675106384812
 30
0.0
 40
35.942685995760691
 50
323.91145692414511
 51
352.48569394081812
  0
POLYLINE
  5
1222A
  8
0
 66
     1
 10
0.0
 20
0.0
 30
0.0
 70
   128
  0
VERTEX
  5
12D38
  8
0
 10
331.3480276187463
 20
359.78525895912429
 30
0.0
  0
VERTEX
  5
12D39
  8
0
 10
330.23793395064308
 20
358.10050387222549
 30
0.0
  0
VERTEX
  5
12D3A
  8
0
 10
328.90605978123381
 20
356.68054241974141
 30
0.0
  0
SEQEND
  5
12D3B
  8
0
  0
LINE
  5
1222B
  8
0
 10
319.84802806205579
 20
356.68054241974141
 30
0.0
 11
328.90605978123381
 21
356.68054241974141
 31
0.0
  0
LINE
  5
1222C
  8
0
 10
319.84802806205579
 20
354.69512660343429
 30
0.0
 11
319.84802806205579
 21
356.68054241974141
 31
0.0
  0
LINE
  5
1222D
  8
0
 10
319.94802789218261
 20
354.69512660343429
 30
0.0
 11
319.84802806205579
 21
354.69512660343429
 31
0.0
  0
ARC
  5
1222E
  8
0
 10
323.41274006467779
 20
362.60963346132348
 30
0.0
 40
8.7765827970551964
 50
198.77229997905511
 51
246.74850764909809
  0
ARC
  5
1222F
  8
0
 10
321.1262532736805
 20
432.2003960122575
 30
0.0
 40
11.620413142348919
 50
28.401093573127412
 51
83.964745098537776
  0
ARC
  5
12230
  8
0
 10
323.96762273579589
 20
434.44244353512551
 30
0.0
 40
9.4537243616752438
 50
99.864468915599403
 51
159.66598429899969
  0
CIRCLE
  5
12231
  8
0
 10
326.94802794806202
 20
311.27639795143398
 30
0.0
 40
5.5000000000006821
  0
LINE
  5
12236
  8
0
 10
317.44802794806191
 20
230.2763985498645
 30
0.0
 11
317.44802794806168
 21
329.50639743644899
 31
0.0
  0
ARC
  5
12237
  8
0
 10
326.94802794806202
 20
230.27639795143389
 30
0.0
 40
9.5000000000000284
 50
180.0
 51
0.0
  0
LINE
  5
12238
  8
0
 10
336.4480273371143
 20
329.50639743645149
 30
0.0
 11
336.4480273371143
 21
230.2763985498645
 31
0.0
  0
LINE
  5
12239
  8
0
 10
317.44802794806168
 20
329.50639743644979
 30
0.0
 11
318.76681831586637
 21
336.910039375613
 31
0.0
  0
LINE
  5
1223B
  8
0
 10
335.12923731855579
 20
336.910039375613
 30
0.0
 11
336.4480273371143
 21
329.50639743644979
 31
0.0
  0
POLYLINE
  5
1223F
  8
0
 66
     1
 10
0.0
 20
0.0
 30
0.0
 70
   128
  0
VERTEX
  5
12D3C
  8
0
 10
335.06219885698988
 20
337.28639800388601
 30
0.0
  0
VERTEX
  5
12D3D
  8
0
 10
335.08504606239029
 20
337.15812880832942
 30
0.0
  0
VERTEX
  5
12D3E
  8
0
 10
335.10751701347073
 20
337.03199047882339
 30
0.0
  0
VERTEX
  5
12D3F
  8
0
 10
335.12923731855579
 20
336.910039375613
 30
0.0
  0
SEQEND
  5
12D40
  8
0
  0
POLYLINE
  5
12240
  8
0
 66
     1
 10
0.0
 20
0.0
 30
0.0
 70
   128
  0
VERTEX
  5
12D41
  8
0
 10
318.76681831586637
 20
336.910039375613
 30
0.0
  0
VERTEX
  5
12D42
  8
0
 10
318.78853966868951
 20
337.03199047882339
 30
0.0
  0
VERTEX
  5
12D43
  8
0
 10
318.81100957203188
 20
337.15812880832942
 30
0.0
  0
VERTEX
  5
12D44
  8
0
 10
318.83385701026299
 20
337.28639800388601
 30
0.0
  0
SEQEND
  5
12D45
  8
0
  0
LINE
  5
12241
  8
0
 10
319.94802789218261
 20
343.54132432777669
 30
0.0
 11
319.94802789218261
 21
356.68054241974141
 31
0.0
  0
LINE
  5
12242
  8
0
 10
333.948027858655
 20
363.91459313379443
 30
0.0
 11
333.948027858655
 21
343.54132432777669
 31
0.0
  0
LINE
  5
12243
  8
0
 10
333.948027858655
 20
343.54132432777669
 30
0.0
 11
335.06219885698988
 21
337.28639800388601
 31
0.0
  0
LINE
  5
12244
  8
0
 10
318.83385701026299
 20
337.28639800388601
 30
0.0
 11
319.94802789218261
 21
343.54132432777669
 31
0.0
  0
LINE
  5
12245
  8
0
 10
318.44802799555941
 20
340.97640235264089
 30
0.0
 11
318.44802799555941
 21
345.97639758426931
 31
0.0
  0
LINE
  5
12246
  8
0
 10
319.94802789218261
 20
345.97639758426931
 30
0.0
 11
318.44802799555941
 21
345.97639758426931
 31
0.0
  0
LINE
  5
12247
  8
0
 10
318.44802799555941
 20
340.97640235264089
 30
0.0
 11
319.49114618278583
 21
340.97640235264089
 31
0.0
  0
CIRCLE
  5
12248
  8
0
 10
360.94802794806168
 20
264.27639795143381
 30
0.0
 40
5.4999999999998996
  0
CIRCLE
  5
12249
  8
0
 10
360.94802794806168
 20
264.27639795143381
 30
0.0
 40
2.750000000000056
  0
LINE
  5
1224A
  8
0
 10
210.26911638132759
 20
263.25885225374492
 30
0.0
 11
210.26911638132759
 21
264.40069843370702
 31
0.0
  0
ARC
  5
1224B
  8
0
 10
215.94802794806199
 20
253.27639795143401
 30
0.0
 40
12.48999599679682
 50
76.312053894664771
 51
117.0441251102435
  0
LINE
  5
1224C
  8
0
 10
204.44802991501521
 20
264.40069843370702
 30
0.0
 11
210.26911638132759
 21
264.40069843370702
 31
0.0
  0
LINE
  5
1224E
  8
0
 10
209.86855359594409
 20
268.07639766771581
 30
0.0
 11
222.02750230017961
 21
268.07639766771581
 31
0.0
  0
LINE
  5
1224F
  8
0
 10
221.4328577315016
 20
199.6701901807287
 30
0.0
 11
221.4328577315016
 21
206.2763983412483
 31
0.0
  0
POLYLINE
  5
12250
  8
0
 66
     1
 10
0.0
 20
0.0
 30
0.0
 70
   128
  0
VERTEX
  5
12D46
  8
0
 10
221.4328577315016
 20
199.6701901807287
 30
0.0
  0
VERTEX
  5
12D47
  8
0
 10
218.70277128569319
 20
199.38125666517999
 30
0.0
  0
VERTEX
  5
12D48
  8
0
 10
215.9480308686895
 20
199.27639719385891
 30
0.0
  0
SEQEND
  5
12D49
  8
0
  0
POLYLINE
  5
12251
  8
0
 66
     1
 10
0.0
 20
0.0
 30
0.0
 70
   128
  0
VERTEX
  5
12D4A
  8
0
 10
215.9480308686895
 20
199.27639719385891
 30
0.0
  0
VERTEX
  5
12D4B
  8
0
 10
213.20561371199321
 20
199.38033838112139
 30
0.0
  0
VERTEX
  5
12D4C
  8
0
 10
210.46320400587749
 20
199.6701901807287
 30
0.0
  0
SEQEND
  5
12D4D
  8
0
  0
LINE
  5
12252
  8
0
 10
210.46320400587749
 20
199.6701901807287
 30
0.0
 11
210.46320400587749
 21
206.2763983412483
 31
0.0
  0
LINE
  5
12254
  8
0
 10
226.91768459431361
 20
199.6701901807287
 30
0.0
 11
226.91768459431361
 21
206.2763983412483
 31
0.0
  0
POLYLINE
  5
12255
  8
0
 66
     1
 10
0.0
 20
0.0
 30
0.0
 70
   128
  0
VERTEX
  5
12D4E
  8
0
 10
226.91768459431361
 20
199.6701901807287
 30
0.0
  0
VERTEX
  5
12D4F
  8
0
 10
225.55264137140941
 20
199.38125666517999
 30
0.0
  0
VERTEX
  5
12D50
  8
0
 10
224.17526743761729
 20
199.27639719385891
 30
0.0
  0
SEQEND
  5
12D51
  8
0
  0
POLYLINE
  5
12256
  8
0
 66
     1
 10
0.0
 20
0.0
 30
0.0
 70
   128
  0
VERTEX
  5
12D52
  8
0
 10
224.17526743761729
 20
199.27639719385891
 30
0.0
  0
VERTEX
  5
12D53
  8
0
 10
222.8040625845594
 20
199.38033838112139
 30
0.0
  0
VERTEX
  5
12D54
  8
0
 10
221.4328577315016
 20
199.6701901807287
 30
0.0
  0
SEQEND
  5
12D55
  8
0
  0
POLYLINE
  5
12258
  8
0
 66
     1
 10
0.0
 20
0.0
 30
0.0
 70
   128
  0
VERTEX
  5
12D56
  8
0
 10
210.46320400587749
 20
199.6701901807287
 30
0.0
  0
VERTEX
  5
12D57
  8
0
 10
209.09816078297331
 20
199.38125666517999
 30
0.0
  0
VERTEX
  5
12D58
  8
0
 10
207.7207868491812
 20
199.27639719385891
 30
0.0
  0
SEQEND
  5
12D59
  8
0
  0
POLYLINE
  5
12259
  8
0
 66
     1
 10
0.0
 20
0.0
 30
0.0
 70
   128
  0
VERTEX
  5
12D5A
  8
0
 10
207.7207868491812
 20
199.27639719385891
 30
0.0
  0
VERTEX
  5
12D5B
  8
0
 10
206.34958199612331
 20
199.38033838112139
 30
0.0
  0
VERTEX
  5
12D5C
  8
0
 10
204.9783696924849
 20
199.6701901807287
 30
0.0
  0
SEQEND
  5
12D5D
  8
0
  0
LINE
  5
1225A
  8
0
 10
204.9783696924849
 20
199.6701901807287
 30
0.0
 11
204.9783696924849
 21
206.2763983412483
 31
0.0
  0
LINE
  5
1225B
  8
0
 10
204.9783696924849
 20
206.2763983412483
 30
0.0
 11
226.91768459431361
 21
206.2763983412483
 31
0.0
  0
LINE
  5
1225E
  8
0
 10
207.64802447907161
 20
206.77639749188211
 30
0.0
 11
224.24802980772691
 21
206.77639749188211
 31
0.0
  0
LINE
  5
1225F
  8
0
 10
221.9480281268759
 20
275.7029013736942
 30
0.0
 11
209.94802615992259
 21
275.7029013736942
 31
0.0
  0
LINE
  5
12260
  8
0
 10
220.87452612272929
 20
276.77639592726018
 30
0.0
 11
211.0215281640692
 21
276.77639592726018
 31
0.0
  0
LINE
  5
12261
  8
0
 10
206.44802651755001
 20
199.27639719385891
 30
0.0
 11
225.448027769248
 21
199.27639719385891
 31
0.0
  0
POLYLINE
  5
12263
  8
0
 66
     1
 10
0.0
 20
0.0
 30
0.0
 70
   128
  0
VERTEX
  5
12D5E
  8
0
 10
226.91768459431361
 20
242.62490142423891
 30
0.0
  0
VERTEX
  5
12D5F
  8
0
 10
225.57409904352861
 20
242.00928975183751
 30
0.0
  0
VERTEX
  5
12D60
  8
0
 10
224.17526743761729
 20
241.7763995035389
 30
0.0
  0
SEQEND
  5
12D61
  8
0
  0
POLYLINE
  5
12264
  8
0
 66
     1
 10
0.0
 20
0.0
 30
0.0
 70
   128
  0
VERTEX
  5
12D62
  8
0
 10
224.17526743761729
 20
241.7763995035389
 30
0.0
  0
VERTEX
  5
12D63
  8
0
 10
222.8040625845594
 20
242.0003565057018
 30
0.0
  0
VERTEX
  5
12D64
  8
0
 10
221.4328577315016
 20
242.62490142423891
 30
0.0
  0
SEQEND
  5
12D65
  8
0
  0
LINE
  5
12265
  8
0
 10
221.4328577315016
 20
246.92789484102511
 30
0.0
 11
221.4328577315016
 21
242.62490142423891
 31
0.0
  0
POLYLINE
  5
12266
  8
0
 66
     1
 10
0.0
 20
0.0
 30
0.0
 70
   128
  0
VERTEX
  5
12D66
  8
0
 10
221.4328577315016
 20
246.92789484102511
 30
0.0
  0
VERTEX
  5
12D67
  8
0
 10
222.77644328228661
 20
247.54350651342659
 30
0.0
  0
VERTEX
  5
12D68
  8
0
 10
224.17526743761729
 20
247.77639676172521
 30
0.0
  0
SEQEND
  5
12D69
  8
0
  0
POLYLINE
  5
12267
  8
0
 66
     1
 10
0.0
 20
0.0
 30
0.0
 70
   128
  0
VERTEX
  5
12D6A
  8
0
 10
224.17526743761729
 20
247.77639676172521
 30
0.0
  0
VERTEX
  5
12D6B
  8
0
 10
225.54647974125581
 20
247.55243230898171
 30
0.0
  0
VERTEX
  5
12D6C
  8
0
 10
226.91768459431361
 20
246.92789484102511
 30
0.0
  0
SEQEND
  5
12D6D
  8
0
  0
LINE
  5
12268
  8
0
 10
226.91768459431361
 20
242.62490142423891
 30
0.0
 11
226.91768459431361
 21
246.92789484102511
 31
0.0
  0
POLYLINE
  5
12269
  8
0
 66
     1
 10
0.0
 20
0.0
 30
0.0
 70
   128
  0
VERTEX
  5
12D6E
  8
0
 10
215.9480308686895
 20
247.77639676172521
 30
0.0
  0
VERTEX
  5
12D6F
  8
0
 10
218.69044057480531
 20
247.55243230898171
 30
0.0
  0
VERTEX
  5
12D70
  8
0
 10
221.4328577315016
 20
246.92789484102511
 30
0.0
  0
SEQEND
  5
12D71
  8
0
  0
POLYLINE
  5
1226A
  8
0
 66
     1
 10
0.0
 20
0.0
 30
0.0
 70
   128
  0
VERTEX
  5
12D72
  8
0
 10
215.9480308686895
 20
241.7763995035389
 30
0.0
  0
VERTEX
  5
12D73
  8
0
 10
213.20561371199321
 20
242.0003565057018
 30
0.0
  0
VERTEX
  5
12D74
  8
0
 10
210.46320400587749
 20
242.62490142423891
 30
0.0
  0
SEQEND
  5
12D75
  8
0
  0
LINE
  5
1226B
  8
0
 10
210.46320400587749
 20
242.62490142423891
 30
0.0
 11
210.46320400587749
 21
246.92789484102511
 31
0.0
  0
POLYLINE
  5
1226C
  8
0
 66
     1
 10
0.0
 20
0.0
 30
0.0
 70
   128
  0
VERTEX
  5
12D76
  8
0
 10
210.46320400587749
 20
246.92789484102511
 30
0.0
  0
VERTEX
  5
12D77
  8
0
 10
213.15037510744759
 20
247.54350651342659
 30
0.0
  0
VERTEX
  5
12D78
  8
0
 10
215.9480308686895
 20
247.77639676172521
 30
0.0
  0
SEQEND
  5
12D79
  8
0
  0
POLYLINE
  5
1226D
  8
0
 66
     1
 10
0.0
 20
0.0
 30
0.0
 70
   128
  0
VERTEX
  5
12D7A
  8
0
 10
221.4328577315016
 20
242.62490142423891
 30
0.0
  0
VERTEX
  5
12D7B
  8
0
 10
218.7456866299315
 20
242.00928975183751
 30
0.0
  0
VERTEX
  5
12D7C
  8
0
 10
215.9480308686895
 20
241.7763995035389
 30
0.0
  0
SEQEND
  5
12D7D
  8
0
  0
POLYLINE
  5
1226E
  8
0
 66
     1
 10
0.0
 20
0.0
 30
0.0
 70
   128
  0
VERTEX
  5
12D7E
  8
0
 10
207.7207868491812
 20
241.7763995035389
 30
0.0
  0
VERTEX
  5
12D7F
  8
0
 10
206.34958199612331
 20
242.0003565057018
 30
0.0
  0
VERTEX
  5
12D80
  8
0
 10
204.9783696924849
 20
242.62490142423891
 30
0.0
  0
SEQEND
  5
12D81
  8
0
  0
LINE
  5
1226F
  8
0
 10
204.9783696924849
 20
242.62490142423891
 30
0.0
 11
204.9783696924849
 21
246.92789484102511
 31
0.0
  0
POLYLINE
  5
12270
  8
0
 66
     1
 10
0.0
 20
0.0
 30
0.0
 70
   128
  0
VERTEX
  5
12D82
  8
0
 10
204.9783696924849
 20
246.92789484102511
 30
0.0
  0
VERTEX
  5
12D83
  8
0
 10
206.32195524326991
 20
247.54350651342659
 30
0.0
  0
VERTEX
  5
12D84
  8
0
 10
207.7207868491812
 20
247.77639676172521
 30
0.0
  0
SEQEND
  5
12D85
  8
0
  0
POLYLINE
  5
12271
  8
0
 66
     1
 10
0.0
 20
0.0
 30
0.0
 70
   128
  0
VERTEX
  5
12D86
  8
0
 10
207.7207868491812
 20
247.77639676172521
 30
0.0
  0
VERTEX
  5
12D87
  8
0
 10
209.091991702239
 20
247.55243230898171
 30
0.0
  0
VERTEX
  5
12D88
  8
0
 10
210.46320400587749
 20
246.92789484102511
 30
0.0
  0
SEQEND
  5
12D89
  8
0
  0
POLYLINE
  5
12272
  8
0
 66
     1
 10
0.0
 20
0.0
 30
0.0
 70
   128
  0
VERTEX
  5
12D8A
  8
0
 10
210.46320400587749
 20
242.62490142423891
 30
0.0
  0
VERTEX
  5
12D8B
  8
0
 10
209.1196110045118
 20
242.00928975183751
 30
0.0
  0
VERTEX
  5
12D8C
  8
0
 10
207.7207868491812
 20
241.7763995035389
 30
0.0
  0
SEQEND
  5
12D8D
  8
0
  0
LINE
  5
12275
  8
0
 10
206.4480265175502
 20
241.7763995035389
 30
0.0
 11
225.448027769248
 21
241.7763995035389
 31
0.0
  0
ARC
  5
12277
  8
0
 10
256.94802794806242
 20
311.27639795143398
 30
0.0
 40
79.999999999999602
 50
0.0
 51
6.4092039782159116
  0
LINE
  5
12278
  8
0
 10
315.94802793502339
 20
303.47639341194417
 30
0.0
 11
315.94802793502339
 21
303.27640492756149
 31
0.0
  0
LINE
  5
12279
  8
0
 10
308.97044535181948
 20
311.4763947232463
 30
0.0
 11
311.88220722056462
 21
303.47639341194417
 31
0.0
  0
ARC
  5
1227A
  8
0
 10
330.14802794806178
 20
319.07639795143399
 30
0.0
 40
22.499999999999929
 50
119.4677038875984
 51
199.74154198848419
  0
ARC
  5
1227B
  8
0
 10
317.94802794806179
 20
326.27639795143398
 30
0.0
 40
2.5
 50
101.5369590328181
 51
180.0
  0
ARC
  5
1227C
  8
0
 10
317.94802794806179
 20
326.27639795143398
 30
0.0
 40
2.5
 50
180.0
 51
258.46304096718188
  0
LINE
  5
1227D
  8
0
 10
311.88220722056462
 20
303.47639341194417
 30
0.0
 11
315.94802793502339
 21
303.47639341194417
 31
0.0
  0
LINE
  5
1227E
  8
0
 10
311.94802797786429
 20
303.27640492756149
 30
0.0
 11
311.94802797786429
 21
284.07640029032018
 31
0.0
  0
LINE
  5
1227F
  8
0
 10
311.94802797786429
 20
303.27640492756149
 30
0.0
 11
316.94802792431318
 21
303.27640492756149
 31
0.0
  0
POLYLINE
  5
12282
  8
0
 66
     1
 10
0.0
 20
0.0
 30
0.0
 70
   128
  0
VERTEX
  5
12D8E
  8
0
 10
317.44802794806191
 20
303.33991367656972
 30
0.0
  0
VERTEX
  5
12D8F
  8
0
 10
317.33820859467841
 20
303.31482012111928
 30
0.0
  0
VERTEX
  5
12D90
  8
0
 10
316.94802792431318
 20
303.27640492756149
 30
0.0
  0
SEQEND
  5
12D91
  8
0
  0
POLYLINE
  5
12284
  8
0
 66
     1
 10
0.0
 20
0.0
 30
0.0
 70
   128
  0
VERTEX
  5
12D92
  8
0
 10
316.94802792431318
 20
284.07640029032018
 30
0.0
  0
VERTEX
  5
12D93
  8
0
 10
317.33820859467841
 20
284.03797019560119
 30
0.0
  0
VERTEX
  5
12D94
  8
0
 10
317.44802794806191
 20
284.012891541312
 30
0.0
  0
SEQEND
  5
12D95
  8
0
  0
ARC
  5
12285
  8
0
 10
327.94802794806168
 20
311.27639795143398
 30
0.0
 40
9.0000000000000888
 50
0.0
 51
19.188136453721679
  0
LINE
  5
12286
  8
0
 10
311.94802797786429
 20
284.07640029032018
 30
0.0
 11
316.94802792431318
 21
284.07640029032018
 31
0.0
  0
ARC
  5
12287
  8
0
 10
327.94802794806168
 20
268.27639795143398
 30
0.0
 40
9.0000000000000888
 50
340.81186354627829
 51
0.0
  0
LINE
  5
12288
  8
0
 10
336.94802835039332
 20
311.27639133770248
 30
0.0
 11
336.94802835039332
 21
268.27640105325958
 31
0.0
  0
LINE
  5
12289
  8
0
 10
203.94802890173631
 20
257.77639467556259
 30
0.0
 11
203.94802890173631
 21
247.77639676172521
 31
0.0
  0
ARC
  5
1228A
  8
0
 10
208.94802794806191
 20
257.77639795143381
 30
0.0
 40
4.9999999999999361
 50
104.0000000000028
 51
180.0
  0
LINE
  5
1228B
  8
0
 10
283.94802711359688
 20
281.62906337816497
 30
0.0
 11
207.73841492287349
 21
262.62787748415258
 31
0.0
  0
ARC
  5
1228D
  8
0
 10
285.44802794806168
 20
249.77639795143401
 30
0.0
 40
3.5000000000000848
 50
115.3769335251595
 51
180.0
  0
LINE
  5
1228E
  8
0
 10
281.94802678577139
 20
247.77639676172521
 30
0.0
 11
281.94802678577139
 21
249.776400814841
 31
0.0
  0
LINE
  5
1228F
  8
0
 10
203.94802890173631
 20
247.77639676172521
 30
0.0
 11
281.94802678577139
 21
247.77639676172521
 31
0.0
  0
LINE
  5
12290
  8
0
 10
287.28007018021771
 20
282.4297176702716
 30
0.0
 11
285.78962064735128
 21
282.08822775919219
 31
0.0
  0
LINE
  5
12292
  8
0
 10
285.44802642814352
 20
253.27640045721321
 30
0.0
 11
287.28007018021771
 21
253.27640045721321
 31
0.0
  0
POLYLINE
  5
12293
  8
0
 66
     1
 10
0.0
 20
0.0
 30
0.0
 70
   128
  0
VERTEX
  5
12D96
  8
0
 10
283.94802711359688
 20
252.9386730893352
 30
0.0
  0
VERTEX
  5
12D97
  8
0
 10
285.02256102315619
 20
253.2504426344135
 30
0.0
  0
VERTEX
  5
12D98
  8
0
 10
285.44802642814352
 20
253.27640045721321
 30
0.0
  0
SEQEND
  5
12D99
  8
0
  0
POLYLINE
  5
12294
  8
0
 66
     1
 10
0.0
 20
0.0
 30
0.0
 70
   128
  0
VERTEX
  5
12D9A
  8
0
 10
283.94802711359688
 20
281.62906337816497
 30
0.0
  0
VERTEX
  5
12D9B
  8
0
 10
284.56502459398939
 20
281.78290296633031
 30
0.0
  0
VERTEX
  5
12D9C
  8
0
 10
285.17966769091322
 20
281.93614650804778
 30
0.0
  0
VERTEX
  5
12D9D
  8
0
 10
285.78962064735128
 20
282.08822775919219
 30
0.0
  0
SEQEND
  5
12D9E
  8
0
  0
LINE
  5
12295
  8
0
 10
295.46649619392588
 20
283.27640164930608
 30
0.0
 11
317.44802794806191
 21
283.27640164930602
 31
0.0
  0
ARC
  5
12297
  8
0
 10
295.46649671714817
 20
243.27639795143409
 30
0.0
 40
39.999999999999929
 50
90.0
 51
101.8096361000993
  0
LINE
  5
12298
  8
0
 10
317.44802794806191
 20
253.27640045721321
 30
0.0
 11
287.28007018021771
 21
253.27640045721321
 31
0.0
  0
ARC
  5
1229C
  8
0
 10
351.26819723825929
 20
263.27639795143358
 30
0.0
 40
20.000000000000352
 50
65.000000000006551
 51
90.0
  0
LINE
  5
1229D
  8
0
 10
359.72056216947271
 20
281.40255082685729
 30
0.0
 11
365.17421207777687
 21
278.85947395403173
 31
0.0
  0
ARC
  5
1229E
  8
0
 10
360.94802794806168
 20
263.27639795143398
 30
0.0
 40
10.000000000000041
 50
341.80512766123559
 51
0.0
  0
LINE
  5
1229F
  8
0
 10
370.9480283354921
 20
269.7964014514186
 30
0.0
 11
370.9480283354921
 21
263.27639837105062
 31
0.0
  0
ARC
  5
122A0
  8
0
 10
360.94802794806168
 20
269.7963979514339
 30
0.0
 40
10.0
 50
0.0
 51
64.999999999994742
  0
LINE
  5
122A2
  8
0
 10
336.94802835039332
 20
283.27640164930608
 30
0.0
 11
351.2681988572283
 21
283.27640164930608
 31
0.0
  0
LINE
  5
122A4
  8
0
 10
377.4480266069574
 20
211.27639729816701
 30
0.0
 11
372.9480286633177
 21
211.27639729816701
 31
0.0
  0
LINE
  5
122A5
  8
0
 10
372.44802765003868
 20
211.2258860870102
 30
0.0
 11
372.9480286633177
 21
211.27639729816701
 31
0.0
  0
LINE
  5
122A7
  8
0
 10
372.9480286633177
 20
243.2763950927951
 30
0.0
 11
372.44802765003868
 21
243.3269100292423
 31
0.0
  0
LINE
  5
122A8
  8
0
 10
372.9480286633177
 20
243.2763950927951
 30
0.0
 11
377.4480266069574
 21
243.2763950927951
 31
0.0
  0
LINE
  5
122A9
  8
0
 10
377.4480266069574
 20
243.2763950927951
 30
0.0
 11
377.4480266069574
 21
211.27639729816701
 31
0.0
  0
CIRCLE
  5
122AA
  8
0
 10
359.94802794806202
 20
187.21639795143389
 30
0.0
 40
4.3999999999998352
  0
CIRCLE
  5
122AB
  8
0
 10
327.94802794806168
 20
187.21639795143389
 30
0.0
 40
4.3999999999999773
  0
CIRCLE
  5
122AC
  8
0
 10
349.589315354745
 20
249.9581688211492
 30
0.0
 40
3.0000000000001128
  0
CIRCLE
  5
122AD
  8
0
 10
354.56317355163492
 20
241.99833180611219
 30
0.0
 40
3.0000000000001128
  0
CIRCLE
  5
122AE
  8
0
 10
356.8338688908143
 20
232.8910702338637
 30
0.0
 40
3.0000000000001128
  0
ARC
  5
122AF
  8
0
 10
372.94802794806168
 20
208.77639795143401
 30
0.0
 40
2.5
 50
101.5369590328181
 51
180.0
  0
LINE
  5
122B0
  8
0
 10
370.44802732221319
 20
186.2163983314135
 30
0.0
 11
370.44802732221319
 21
208.7763978197076
 31
0.0
  0
ARC
  5
122B1
  8
0
 10
362.44802794806202
 20
186.216397951434
 30
0.0
 40
8.0000000000000426
 50
270.0
 51
0.0
  0
LINE
  5
122B2
  8
0
 10
325.44802832804157
 20
178.21639795143389
 30
0.0
 11
362.44802973620131
 21
178.21639795143389
 31
0.0
  0
ARC
  5
122B3
  8
0
 10
325.44802794806168
 20
186.216397951434
 30
0.0
 40
8.0000000000000426
 50
180.0
 51
270.0
  0
LINE
  5
122B4
  8
0
 10
317.44802794806191
 20
216.42901767332339
 30
0.0
 11
317.44802794806191
 21
186.2163983314135
 31
0.0
  0
ARC
  5
122B5
  8
0
 10
309.44802794806202
 20
216.42901889834511
 30
0.0
 40
8.0000000000000515
 50
0.0
 51
35.659087696137583
  0
ARC
  5
122B6
  8
0
 10
322.44802794806202
 20
225.756397951434
 30
0.0
 40
7.9999999999999778
 50
180.0
 51
215.6590876961402
  0
LINE
  5
122B7
  8
0
 10
314.44802792198487
 20
230.9463994606235
 30
0.0
 11
314.44802792198487
 21
225.7563995226123
 31
0.0
  0
ARC
  5
122B8
  8
0
 10
322.44802794806202
 20
230.94639795143391
 30
0.0
 40
7.9999999999999716
 50
137.3581362955359
 51
180.0
  0
LINE
  5
122B9
  8
0
 10
351.53441555253698
 20
274.34088308651229
 30
0.0
 11
336.4480273371143
 21
257.95859862406041
 31
0.0
  0
LINE
  5
122BA
  8
0
 10
317.44802794806191
 20
237.32652906615519
 30
0.0
 11
316.5632093363954
 21
236.36570591766619
 31
0.0
  0
ARC
  5
122BB
  8
0
 10
355.94802794806168
 20
270.27639795143409
 30
0.0
 40
5.9999999999999432
 50
90.0
 51
137.35813629553351
  0
LINE
  5
122BC
  8
0
 10
364.4480263387365
 20
276.27639491398122
 30
0.0
 11
355.94802773944571
 21
276.27639491398122
 31
0.0
  0
ARC
  5
122BD
  8
0
 10
364.44802794806202
 20
270.27639795143398
 30
0.0
 40
6.0000000000000142
 50
0.0
 51
90.0
  0
LINE
  5
122BE
  8
0
 10
370.44802732221319
 20
270.27639765579488
 30
0.0
 11
370.44802732221319
 21
245.77640015918999
 31
0.0
  0
ARC
  5
122BF
  8
0
 10
372.94802794806168
 20
245.77639795143401
 30
0.0
 40
2.5000000000000431
 50
180.0
 51
258.46304096718188
  0
LINE
  5
122C0
  8
0
 10
319.84802806205579
 20
589.25640080411245
 30
0.0
 11
307.85694304309322
 21
589.25640080411245
 31
0.0
  0
LINE
  5
122C1
  8
0
 10
340.34920349172779
 20
589.25640080411245
 30
0.0
 11
327.84802797637423
 21
589.25640080411245
 31
0.0
  0
LINE
  5
122C2
  8
0
 10
307.85694304309322
 20
589.25640080411245
 30
0.0
 11
307.85694304309322
 21
543.75640172798444
 31
0.0
  0
LINE
  5
122C3
  8
0
 10
340.34920349172779
 20
543.75640172798444
 30
0.0
 11
340.34920349172779
 21
589.25640080411245
 31
0.0
  0
LINE
  5
122C4
  8
0
 10
327.84802797637423
 20
543.75640172798444
 30
0.0
 11
340.34920349172779
 21
543.75640172798444
 31
0.0
  0
LINE
  5
122C5
  8
0
 10
307.85694304309322
 20
543.75640172798444
 30
0.0
 11
319.84802806205579
 21
543.75640172798444
 31
0.0
  0
LINE
  5
122C6
  8
0
 10
327.84802797637423
 20
588.84010520119466
 30
0.0
 11
319.84802806205579
 21
588.84010520119466
 31
0.0
  0
LINE
  5
122C7
  8
0
 10
319.84802806205579
 20
544.172697330902
 30
0.0
 11
327.84802797637423
 21
544.172697330902
 31
0.0
  0
LINE
  5
122C8
  8
0
 10
327.84802797637423
 20
589.60206117768087
 30
0.0
 11
319.84802806205579
 21
589.60206117768087
 31
0.0
  0
LINE
  5
122C9
  8
0
 10
319.84802806205579
 20
543.41074135441579
 30
0.0
 11
327.84802797637423
 21
543.41074135441579
 31
0.0
  0
LINE
  5
122CA
  8
0
 10
327.84802797637423
 20
590.05540479261686
 30
0.0
 11
319.84802806205579
 21
590.05540479261686
 31
0.0
  0
LINE
  5
122CB
  8
0
 10
319.84802806205579
 20
542.95739773948003
 30
0.0
 11
327.84802797637423
 21
542.95739773948003
 31
0.0
  0
LINE
  5
122CC
  8
0
 10
327.84802797637423
 20
590.20640198428464
 30
0.0
 11
319.84802806205579
 21
590.20640198428464
 31
0.0
  0
LINE
  5
122CD
  8
0
 10
319.84802806205579
 20
542.80640054781236
 30
0.0
 11
327.84802797637423
 21
542.80640054781236
 31
0.0
  0
ARC
  5
122CE
  8
0
 10
360.94802794806168
 20
515.00640126604412
 30
0.0
 40
60.000000000005002
 50
84.740503535583699
 51
90.0
  0
ARC
  5
122CF
  8
0
 10
360.94802794806168
 20
515.00640126604412
 30
0.0
 40
60.000000000004981
 50
90.0
 51
95.259496464416316
  0
LINE
  5
122D0
  8
0
 10
366.4480266665621
 20
573.556401397179
 30
0.0
 11
366.4480266665621
 21
574.75378606755578
 31
0.0
  0
LINE
  5
122D1
  8
0
 10
355.44802672616669
 20
574.75378606755578
 30
0.0
 11
355.44802672616669
 21
573.556401397179
 31
0.0
  0
ARC
  5
122D2
  8
0
 10
360.94802794806168
 20
618.00640126608209
 30
0.0
 40
60.000000000033388
 50
272.62697685498631
 51
275.25949646441632
  0
ARC
  5
122D3
  8
0
 10
360.94802794806168
 20
618.00640126608209
 30
0.0
 40
60.00000000003336
 50
264.74050353558368
 51
267.3730231450138
  0
LINE
  5
122D4
  8
0
 10
366.4480266665621
 20
558.25901646454179
 30
0.0
 11
366.4480266665621
 21
559.45640113491856
 31
0.0
  0
LINE
  5
122D5
  8
0
 10
355.44802672616669
 20
559.45640113491856
 30
0.0
 11
355.44802672616669
 21
558.25901646454179
 31
0.0
  0
LINE
  5
122D7
  8
0
 10
307.64802783183291
 20
570.0064013740822
 30
0.0
 11
307.64802783183291
 21
563.00640115801525
 31
0.0
  0
LINE
  5
122D8
  8
0
 10
355.44802672616669
 20
566.55640126478568
 30
0.0
 11
355.44802672616669
 21
566.45640126731189
 31
0.0
  0
LINE
  5
122D9
  8
0
 10
366.4480266665621
 20
566.45640126731189
 30
0.0
 11
366.4480266665621
 21
566.55640126478568
 31
0.0
  0
POLYLINE
  5
122DA
  8
0
 66
     1
 10
0.0
 20
0.0
 30
0.0
 70
   128
  0
VERTEX
  5
12D9F
  8
0
 10
322.34802800617649
 20
566.50640126605003
 30
0.0
  0
VERTEX
  5
12DA0
  8
0
 10
322.73738976023628
 20
565.72830331566047
 30
0.0
  0
VERTEX
  5
12DA1
  8
0
 10
323.24436637959911
 20
565.01520830493655
 30
0.0
  0
VERTEX
  5
12DA2
  8
0
 10
324.36469667978122
 20
563.60618756439783
 30
0.0
  0
VERTEX
  5
12DA3
  8
0
 10
326.49665750018789
 20
561.0732497676114
 30
0.0
  0
VERTEX
  5
12DA4
  8
0
 10
328.56802042029329
 20
558.61599613268174
 30
0.0
  0
VERTEX
  5
12DA5
  8
0
 10
330.05286245993813
 20
556.80423192966975
 30
0.0
  0
VERTEX
  5
12DA6
  8
0
 10
331.3480276187463
 20
555.13140149701644
 30
0.0
  0
SEQEND
  5
12DA7
  8
0
  0
POLYLINE
  5
122DB
  8
0
 66
     1
 10
0.0
 20
0.0
 30
0.0
 70
   128
  0
VERTEX
  5
12DA8
  8
0
 10
322.34802800617649
 20
566.50640126604776
 30
0.0
  0
VERTEX
  5
12DA9
  8
0
 10
322.73738976023628
 20
567.28449921643596
 30
0.0
  0
VERTEX
  5
12DAA
  8
0
 10
323.24436637959911
 20
567.99759422715999
 30
0.0
  0
VERTEX
  5
12DAB
  8
0
 10
324.36469667978122
 20
569.40661496769883
 30
0.0
  0
VERTEX
  5
12DAC
  8
0
 10
326.49665750018789
 20
571.93955276448526
 30
0.0
  0
VERTEX
  5
12DAD
  8
0
 10
328.56802042029329
 20
574.39680639941491
 30
0.0
  0
VERTEX
  5
12DAE
  8
0
 10
330.05286245993813
 20
576.2085706024269
 30
0.0
  0
VERTEX
  5
12DAF
  8
0
 10
331.3480276187463
 20
577.88140103508033
 30
0.0
  0
SEQEND
  5
12DB0
  8
0
  0
POLYLINE
  5
122DD
  8
0
 66
     1
 10
0.0
 20
0.0
 30
0.0
 70
   128
  0
VERTEX
  5
12DB1
  8
0
 10
315.10302802003463
 20
577.88140103508033
 30
0.0
  0
VERTEX
  5
12DB2
  8
0
 10
315.9444670231594
 20
576.4095947175125
 30
0.0
  0
VERTEX
  5
12DB3
  8
0
 10
317.02122763768313
 20
574.77306630749501
 30
0.0
  0
VERTEX
  5
12DB4
  8
0
 10
318.67805559109428
 20
572.43616609189905
 30
0.0
  0
VERTEX
  5
12DB5
  8
0
 10
320.4569377043797
 20
569.94728450950481
 30
0.0
  0
VERTEX
  5
12DB6
  8
0
 10
321.28803669861981
 20
568.72839094426729
 30
0.0
  0
VERTEX
  5
12DB7
  8
0
 10
322.01989931441381
 20
567.43349784806605
 30
0.0
  0
VERTEX
  5
12DB8
  8
0
 10
322.34802800617649
 20
566.50640126604901
 30
0.0
  0
SEQEND
  5
12DB9
  8
0
  0
POLYLINE
  5
122DE
  8
0
 66
     1
 10
0.0
 20
0.0
 30
0.0
 70
   128
  0
VERTEX
  5
12DBA
  8
0
 10
315.10302802003463
 20
555.13140149701644
 30
0.0
  0
VERTEX
  5
12DBB
  8
0
 10
315.9444670231594
 20
556.60320781458415
 30
0.0
  0
VERTEX
  5
12DBC
  8
0
 10
317.02122763768313
 20
558.23973622460164
 30
0.0
  0
VERTEX
  5
12DBD
  8
0
 10
318.67805559109428
 20
560.5766364401976
 30
0.0
  0
VERTEX
  5
12DBE
  8
0
 10
320.4569377043797
 20
563.06551802259185
 30
0.0
  0
VERTEX
  5
12DBF
  8
0
 10
321.28803669861981
 20
564.28441158782925
 30
0.0
  0
VERTEX
  5
12DC0
  8
0
 10
322.01989931441381
 20
565.57930468403049
 30
0.0
  0
VERTEX
  5
12DC1
  8
0
 10
322.34802800617649
 20
566.50640126604856
 30
0.0
  0
SEQEND
  5
12DC2
  8
0
  0
POLYLINE
  5
122E3
  8
0
 66
     1
 10
0.0
 20
0.0
 30
0.0
 70
   128
  0
VERTEX
  5
12DC3
  8
0
 10
309.79931964925959
 20
586.20848004061975
 30
0.0
  0
VERTEX
  5
12DC4
  8
0
 10
310.41124747521712
 20
585.22238452274598
 30
0.0
  0
VERTEX
  5
12DC5
  8
0
 10
311.19217169858052
 20
584.00129583020009
 30
0.0
  0
VERTEX
  5
12DC6
  8
0
 10
312.15535435281231
 20
582.51071591217317
 30
0.0
  0
VERTEX
  5
12DC7
  8
0
 10
313.25437087021299
 20
580.80469221163776
 30
0.0
  0
VERTEX
  5
12DC8
  8
0
 10
315.10302802003463
 20
577.88140103508033
 30
0.0
  0
SEQEND
  5
12DC9
  8
0
  0
POLYLINE
  5
122E4
  8
0
 66
     1
 10
0.0
 20
0.0
 30
0.0
 70
   128
  0
VERTEX
  5
12DCA
  8
0
 10
309.79931964925959
 20
546.80432249147702
 30
0.0
  0
VERTEX
  5
12DCB
  8
0
 10
310.41124747521712
 20
547.79041800935067
 30
0.0
  0
VERTEX
  5
12DCC
  8
0
 10
311.19217169858052
 20
549.01150670189645
 30
0.0
  0
VERTEX
  5
12DCD
  8
0
 10
312.15535435281231
 20
550.50208661992349
 30
0.0
  0
VERTEX
  5
12DCE
  8
0
 10
313.25437087021299
 20
552.20811032045879
 30
0.0
  0
VERTEX
  5
12DCF
  8
0
 10
315.10302802003463
 20
555.13140149701644
 30
0.0
  0
SEQEND
  5
12DD0
  8
0
  0
ARC
  5
122E5
  8
0
 10
291.40351720995039
 20
516.75699137958725
 30
0.0
 40
55.390967347204302
 50
32.851193937203291
 51
43.851515436410253
  0
ARC
  5
122E8
  8
0
 10
291.40351720995909
 20
616.25581115250202
 30
0.0
 40
55.390967347192863
 50
316.14848456359209
 51
327.14880606279951
  0
LINE
  5
122EA
  8
0
 10
327.84802797637423
 20
587.68016714889814
 30
0.0
 11
319.84802806205579
 21
587.68016714889814
 31
0.0
  0
ARC
  5
122EC
  8
0
 10
273.73572474448468
 20
639.48267994402738
 30
0.0
 40
83.425883770643154
 50
320.31389661799358
 51
322.9833762373529
  0
ARC
  5
122ED
  8
0
 10
379.64811871863748
 20
632.83899181028733
 30
0.0
 40
83.983685078325934
 50
211.26125341099311
 51
213.72676338963959
  0
ARC
  5
122EF
  8
0
 10
382.35448973276903
 20
498.42523358680052
 30
0.0
 40
87.205441052113201
 50
146.30502579059959
 51
148.6797942580308
  0
ARC
  5
122F0
  8
0
 10
271.75313306861767
 20
491.9376345319356
 30
0.0
 40
85.968538509655801
 50
37.068134698654831
 51
39.659084892844469
  0
LINE
  5
122F1
  8
0
 10
319.84802806205579
 20
545.33263538319875
 30
0.0
 11
327.84802797637423
 21
545.33263538319875
 31
0.0
  0
LINE
  5
122F2
  8
0
 10
327.84802797637423
 20
587.68016714889814
 30
0.0
 11
327.8480279763744
 21
590.20640198428464
 31
0.0
  0
LINE
  5
122F3
  8
0
 10
319.84802806205579
 20
587.68016714889814
 30
0.0
 11
319.84802806205562
 21
590.20640198428464
 31
0.0
  0
LINE
  5
122F4
  8
0
 10
319.84802806205579
 20
587.87881639141835
 30
0.0
 11
327.84802797637423
 21
587.87881639141835
 31
0.0
  0
LINE
  5
122F5
  8
0
 10
327.84802797637423
 20
545.13398614067842
 30
0.0
 11
319.84802806205579
 21
545.13398614067842
 31
0.0
  0
LINE
  5
12306
  8
0
 10
319.84802806205607
 20
545.33263538319875
 30
0.0
 11
319.84802806205579
 21
542.80640054781236
 31
0.0
  0
LINE
  5
12307
  8
0
 10
327.84802797637423
 20
542.80640054781236
 30
0.0
 11
327.84802797637423
 21
545.33263538319875
 31
0.0
  0
LINE
  5
12308
  8
0
 10
366.4480266665621
 20
574.75378606755578
 30
0.0
 11
355.44802672616669
 21
574.75378606755578
 31
0.0
  0
LINE
  5
1230A
  8
0
 10
358.19802857391068
 20
558.06945506770455
 30
0.0
 11
363.69802794806418
 21
558.06945523106958
 31
0.0
  0
LINE
  5
1230B
  8
0
 10
355.44802672616669
 20
558.25901646454179
 30
0.0
 11
366.4480266665621
 21
558.25901646454179
 31
0.0
  0
ARC
  5
1230E
  8
0
 10
215.94802794806199
 20
566.50640126604878
 30
0.0
 40
11.499999999999989
 50
299.59184579395469
 51
60.408154206045317
  0
LINE
  5
1230F
  8
0
 10
210.26911638132759
 20
556.5064014895662
 30
0.0
 11
221.62693790547081
 21
556.5064014895662
 31
0.0
  0
ARC
  5
12310
  8
0
 10
215.94802794806199
 20
566.50640126604878
 30
0.0
 40
11.50000000000008
 50
119.5918457939546
 51
240.40815420604531
  0
LINE
  5
12311
  8
0
 10
221.62693790547081
 20
576.50640104253137
 30
0.0
 11
210.26911638132759
 21
576.50640104253137
 31
0.0
  0
LINE
  5
12314
  8
0
 10
307.85694304309322
 20
570.0064013740822
 30
0.0
 11
307.64802783183291
 21
570.0064013740822
 31
0.0
  0
LINE
  5
12316
  8
0
 10
307.85694304309322
 20
563.00640115801525
 30
0.0
 11
307.64802783183291
 21
563.00640115801525
 31
0.0
  0
LINE
  5
12319
  8
0
 10
307.85694304309322
 20
572.66309587572073
 30
0.0
 11
295.46649619392588
 21
577.04187054474198
 31
0.0
  0
LINE
  5
1231D
  8
0
 10
295.46649619392588
 20
573.32973983425939
 30
0.0
 11
307.64802783183291
 21
569.02479552951013
 31
0.0
  0
LINE
  5
1231E
  8
0
 10
285.78962064735128
 20
580.3353652386769
 30
0.0
 11
287.28007018021771
 21
579.93494868565654
 31
0.0
  0
LINE
  5
1231F
  8
0
 10
285.78962064735128
 20
576.74006242592179
 30
0.0
 11
286.11385501376822
 21
576.63495708544099
 31
0.0
  0
POLYLINE
  5
12321
  8
0
 66
     1
 10
0.0
 20
0.0
 30
0.0
 70
   128
  0
VERTEX
  5
12DD1
  8
0
 10
286.11385501376822
 20
576.63495708544099
 30
0.0
  0
VERTEX
  5
12DD2
  8
0
 10
289.1990771090193
 20
575.5446409835323
 30
0.0
  0
VERTEX
  5
12DD3
  8
0
 10
292.32306643776133
 20
574.4406260578736
 30
0.0
  0
VERTEX
  5
12DD4
  8
0
 10
295.46649619392588
 20
573.32973983425939
 30
0.0
  0
SEQEND
  5
12DD5
  8
0
  0
POLYLINE
  5
12322
  8
0
 66
     1
 10
0.0
 20
0.0
 30
0.0
 70
   128
  0
VERTEX
  5
12DD6
  8
0
 10
295.46649619392588
 20
577.04187054474198
 30
0.0
  0
VERTEX
  5
12DD7
  8
0
 10
292.72043197802731
 20
578.01232822526538
 30
0.0
  0
VERTEX
  5
12DD8
  8
0
 10
289.9873243217869
 20
578.97820659268939
 30
0.0
  0
VERTEX
  5
12DD9
  8
0
 10
287.28007018021771
 20
579.93494868565654
 30
0.0
  0
SEQEND
  5
12DDA
  8
0
  0
LINE
  5
12326
  8
0
 10
295.46649619392588
 20
555.97093198735558
 30
0.0
 11
307.85694304309322
 21
560.34970665637695
 31
0.0
  0
LINE
  5
1232B
  8
0
 10
307.64802783183291
 20
563.98800700258755
 30
0.0
 11
295.46649619392588
 21
559.68306269783818
 31
0.0
  0
LINE
  5
1232F
  8
0
 10
287.28007018021771
 20
553.07785384644114
 30
0.0
 11
285.78962064735128
 21
552.67743729342067
 31
0.0
  0
LINE
  5
12331
  8
0
 10
286.11385501376822
 20
556.37784544665658
 30
0.0
 11
285.78962064735128
 21
556.27274010617577
 31
0.0
  0
POLYLINE
  5
12332
  8
0
 66
     1
 10
0.0
 20
0.0
 30
0.0
 70
   128
  0
VERTEX
  5
12DDB
  8
0
 10
287.28007018021771
 20
553.07785384644114
 30
0.0
  0
VERTEX
  5
12DDC
  8
0
 10
289.9873243217869
 20
554.03459593940818
 30
0.0
  0
VERTEX
  5
12DDD
  8
0
 10
292.72043197802731
 20
555.00047430683219
 30
0.0
  0
VERTEX
  5
12DDE
  8
0
 10
295.46649619392588
 20
555.97093198735558
 30
0.0
  0
SEQEND
  5
12DDF
  8
0
  0
POLYLINE
  5
12333
  8
0
 66
     1
 10
0.0
 20
0.0
 30
0.0
 70
   128
  0
VERTEX
  5
12DE0
  8
0
 10
295.46649619392588
 20
559.68306269783818
 30
0.0
  0
VERTEX
  5
12DE1
  8
0
 10
292.32306643776133
 20
558.57217647422397
 30
0.0
  0
VERTEX
  5
12DE2
  8
0
 10
289.1990771090193
 20
557.46816154856526
 30
0.0
  0
VERTEX
  5
12DE3
  8
0
 10
286.11385501376822
 20
556.37784544665658
 30
0.0
  0
SEQEND
  5
12DE4
  8
0
  0
LINE
  5
12334
  8
0
 10
283.94802711359688
 20
580.50640169818246
 30
0.0
 11
203.94802890173631
 21
580.50640169818269
 31
0.0
  0
LINE
  5
12335
  8
0
 10
203.94802890173631
 20
577.00640112448775
 30
0.0
 11
283.94802711359688
 21
577.00640112448775
 31
0.0
  0
ARC
  5
12337
  8
0
 10
283.94802794806191
 20
570.50640126604867
 30
0.0
 40
6.5000000000001039
 50
73.541427973829045
 51
90.0
  0
ARC
  5
12338
  8
0
 10
283.94802794806191
 20
570.50640126604912
 30
0.0
 40
9.9999999999999147
 50
79.387878609057793
 51
90.0
  0
LINE
  5
12339
  8
0
 10
283.94802711359688
 20
552.50640083391522
 30
0.0
 11
203.94802890173651
 21
552.50640083391545
 31
0.0
  0
LINE
  5
1233B
  8
0
 10
283.94802711359688
 20
556.00640140760993
 30
0.0
 11
203.94802890173651
 21
556.00640140761016
 31
0.0
  0
ARC
  5
1233C
  8
0
 10
283.94802794806191
 20
562.50640126604901
 30
0.0
 40
6.5000000000001981
 50
270.0
 51
286.458572026171
  0
ARC
  5
1233D
  8
0
 10
283.94802794806191
 20
562.50640126604878
 30
0.0
 40
9.9999999999999147
 50
270.0
 51
280.61212139094221
  0
LINE
  5
12344
  8
0
 10
370.9480283354921
 20
570.05640128914558
 30
0.0
 11
370.9480283354921
 21
566.55640126478568
 31
0.0
  0
LINE
  5
12345
  8
0
 10
340.34920349172779
 20
566.55640126478568
 30
0.0
 11
370.9480283354921
 21
566.55640126478568
 31
0.0
  0
LINE
  5
12347
  8
0
 10
370.9480283354921
 20
566.45640126731189
 30
0.0
 11
370.9480283354921
 21
562.95640124295221
 31
0.0
  0
LINE
  5
12349
  8
0
 10
370.9480283354921
 20
566.45640126731189
 30
0.0
 11
340.34920349172779
 21
566.45640126731189
 31
0.0
  0
LINE
  5
1234A
  8
0
 10
203.94802890173651
 20
552.50640083391534
 30
0.0
 11
203.94802890173631
 21
580.50640169818269
 31
0.0
  0
LINE
  5
12350
  8
0
 10
269.94802854410841
 20
560.45640129883145
 30
0.0
 11
225.72798333517741
 21
560.45640129883145
 31
0.0
  0
ARC
  5
12351
  8
0
 10
269.94802794806202
 20
566.50640126604878
 30
0.0
 40
6.050000000000181
 50
270.0
 51
90.0
  0
LINE
  5
12352
  8
0
 10
225.72798333517741
 20
572.55640123326646
 30
0.0
 11
269.94802854410841
 21
572.55640123326646
 31
0.0
  0
LINE
  5
12353
  8
0
 10
281.94802678577139
 20
577.00640112448798
 30
0.0
 11
281.94802678577139
 21
556.00640140761004
 31
0.0
  0
LINE
  5
1235A
  8
0
 10
370.44802732221319
 20
570.05640128914558
 30
0.0
 11
370.44802732221319
 21
573.556401397179
 31
0.0
  0
LINE
  5
12361
  8
0
 10
370.44802732221319
 20
562.95640124295221
 30
0.0
 11
370.44802732221319
 21
559.45640113491856
 31
0.0
  0
LINE
  5
12365
  8
0
 10
372.44802765003868
 20
573.55640139717923
 30
0.0
 11
372.9480286633177
 21
573.53133857537375
 31
0.0
  0
LINE
  5
12367
  8
0
 10
372.44802765003868
 20
570.05640128914581
 30
0.0
 11
372.9480286633177
 21
569.97061483849154
 31
0.0
  0
LINE
  5
12368
  8
0
 10
372.44802765003868
 20
570.05640128914581
 30
0.0
 11
340.34920349172762
 21
570.05640128914547
 31
0.0
  0
LINE
  5
12369
  8
0
 10
372.44802765003868
 20
573.55640139717923
 30
0.0
 11
340.34920349172762
 21
573.55640139717923
 31
0.0
  0
LINE
  5
1236A
  8
0
 10
372.9480286633177
 20
559.48146395672427
 30
0.0
 11
372.44802765003868
 21
559.45640113491879
 31
0.0
  0
LINE
  5
1236B
  8
0
 10
372.44802765003868
 20
562.95640124295221
 30
0.0
 11
372.9480286633177
 21
563.04218769360648
 31
0.0
  0
LINE
  5
1236D
  8
0
 10
372.44802765003868
 20
559.45640113491879
 30
0.0
 11
340.34920349172762
 21
559.45640113491856
 31
0.0
  0
LINE
  5
1236E
  8
0
 10
340.34920349172762
 20
562.95640124295221
 30
0.0
 11
372.44802765003868
 21
562.95640124295221
 31
0.0
  0
LINE
  5
1236F
  8
0
 10
373.94802696458532
 20
568.55640127610729
 30
0.0
 11
373.94802696458532
 21
564.45640125599073
 31
0.0
  0
LINE
  5
12370
  8
0
 10
377.4480266069574
 20
564.45640125599073
 30
0.0
 11
377.4480266069574
 21
568.55640127610729
 31
0.0
  0
ARC
  5
12371
  8
0
 10
372.44802794806202
 20
564.45640126604894
 30
0.0
 40
5.0
 50
275.73917047727468
 51
0.0
  0
ARC
  5
12372
  8
0
 10
372.44802794806202
 20
568.55640126604897
 30
0.0
 40
5.0000000000000462
 50
0.0
 51
84.260829522725331
  0
ARC
  5
12373
  8
0
 10
372.44802794806202
 20
564.45640126604894
 30
0.0
 40
1.500000000000056
 50
289.47122063448683
 51
0.0
  0
ARC
  5
12374
  8
0
 10
372.44802794806202
 20
568.55640126604897
 30
0.0
 40
1.500000000000056
 50
0.0
 51
70.528779365513174
  0
LINE
  5
12375
  8
0
 10
69.648028979222318
 20
237.27639783460879
 30
0.0
 11
67.648028651396771
 21
237.27639783460879
 31
0.0
  0
LINE
  5
12376
  8
0
 10
67.648028651396771
 20
223.27639926512029
 30
0.0
 11
69.648028979222318
 21
223.27639926512029
 31
0.0
  0
LINE
  5
12377
  8
0
 10
69.648028979222318
 20
223.27639926512029
 30
0.0
 11
69.848028639475842
 21
223.47639892537379
 31
0.0
  0
LINE
  5
12378
  8
0
 10
69.848028639475842
 20
237.07639817435529
 30
0.0
 11
69.648028979222318
 21
237.27639783460879
 31
0.0
  0
LINE
  5
12379
  8
0
 10
67.648028651396771
 20
237.27639783460879
 30
0.0
 11
67.448028991143246
 21
237.07639817435529
 31
0.0
  0
LINE
  5
1237A
  8
0
 10
67.448028991143246
 20
223.47639892537379
 30
0.0
 11
67.648028651396771
 21
223.27639926512029
 31
0.0
  0
LINE
  5
1237B
  8
0
 10
84.198028942714458
 20
223.27639926512029
 30
0.0
 11
85.698028722922345
 21
223.27639926512029
 31
0.0
  0
LINE
  5
1237C
  8
0
 10
85.698028722922345
 20
237.27639783460879
 30
0.0
 11
84.198028942714458
 21
237.27639783460879
 31
0.0
  0
LINE
  5
1237D
  8
0
 10
85.698028722922345
 20
223.27639926512029
 30
0.0
 11
85.948029229561826
 21
223.5263997717598
 31
0.0
  0
LINE
  5
1237E
  8
0
 10
85.948029229561826
 20
237.02639732796931
 30
0.0
 11
85.698028722922345
 21
237.27639783460879
 31
0.0
  0
LINE
  5
1237F
  8
0
 10
84.198028942714458
 20
237.27639783460879
 30
0.0
 11
83.948028901736265
 21
237.02639732796931
 31
0.0
  0
LINE
  5
12380
  8
0
 10
83.948028901736265
 20
223.5263997717598
 30
0.0
 11
84.198028942714458
 21
223.27639926512029
 31
0.0
  0
LINE
  5
12381
  8
0
 10
67.398029076079865
 20
235.7763985200622
 30
0.0
 11
67.283028433243771
 21
235.66139880854871
 31
0.0
  0
LINE
  5
12382
  8
0
 10
67.283028433243771
 20
224.89139829118039
 30
0.0
 11
67.398029076079865
 21
224.7763985796669
 31
0.0
  0
LINE
  5
12383
  8
0
 10
67.398029076079865
 20
224.7763985796669
 30
0.0
 11
67.448028991143246
 21
224.7763985796669
 31
0.0
  0
LINE
  5
12384
  8
0
 10
67.448028991143246
 20
235.7763985200622
 30
0.0
 11
67.398029076079865
 21
235.7763985200622
 31
0.0
  0
ARC
  5
12385
  8
0
 10
31.898028770601289
 20
230.27639795143389
 30
0.0
 40
60.000000000004903
 50
354.7405035355867
 51
0.0
  0
ARC
  5
12386
  8
0
 10
31.898028770601289
 20
230.27639795143389
 30
0.0
 40
60.000000000004903
 50
0.0
 51
5.259496464416614
  0
ARC
  5
12387
  8
0
 10
121.8980287706392
 20
230.27639795143389
 30
0.0
 40
60.00000000003331
 50
182.62697685498659
 51
185.2594964644133
  0
ARC
  5
12388
  8
0
 10
121.8980287706392
 20
230.27639795143389
 30
0.0
 40
60.000000000033317
 50
174.74050353558661
 51
177.37302314501659
  0
LINE
  5
12389
  8
0
 10
62.150643834988607
 20
224.7763985796669
 30
0.0
 11
63.398028420428773
 21
224.7763985796669
 31
0.0
  0
LINE
  5
1238A
  8
0
 10
63.398028420428773
 20
235.7763985200622
 30
0.0
 11
62.150643834988607
 21
235.7763985200622
 31
0.0
  0
LINE
  5
1238B
  8
0
 10
90.398029120783335
 20
224.7763985796669
 30
0.0
 11
91.645413706223493
 21
224.7763985796669
 31
0.0
  0
LINE
  5
1238C
  8
0
 10
91.645413706223493
 20
235.7763985200622
 30
0.0
 11
90.398029120783335
 21
235.7763985200622
 31
0.0
  0
LINE
  5
1238D
  8
0
 10
63.398028420428773
 20
226.2763978942134
 30
0.0
 11
63.78302879087164
 21
226.2763978942134
 31
0.0
  0
LINE
  5
1238E
  8
0
 10
85.948029229561826
 20
226.2763978942134
 30
0.0
 11
86.513029107968336
 21
226.2763978942134
 31
0.0
  0
LINE
  5
1238F
  8
0
 10
90.013028750340467
 20
226.2763978942134
 30
0.0
 11
90.398029120783335
 21
226.2763978942134
 31
0.0
  0
LINE
  5
12390
  8
0
 10
90.398029120783335
 20
234.27639920551559
 30
0.0
 11
90.013028750340467
 21
234.27639920551559
 31
0.0
  0
LINE
  5
12391
  8
0
 10
86.513029107968336
 20
234.27639920551559
 30
0.0
 11
85.948029229561826
 21
234.27639920551559
 31
0.0
  0
LINE
  5
12392
  8
0
 10
63.78302879087164
 20
234.27639920551559
 30
0.0
 11
63.398028420428773
 21
234.27639920551559
 31
0.0
  0
ARC
  5
12393
  8
0
 10
31.898028770601289
 20
311.27639795143398
 30
0.0
 40
60.000000000004903
 50
354.7405035355867
 51
0.0
  0
ARC
  5
12394
  8
0
 10
31.898028770601289
 20
311.27639795143398
 30
0.0
 40
60.000000000004903
 50
0.0
 51
5.259496464416614
  0
ARC
  5
12395
  8
0
 10
121.8980287706392
 20
311.27639795143398
 30
0.0
 40
60.00000000003331
 50
182.62697685498659
 51
185.2594964644133
  0
ARC
  5
12396
  8
0
 10
121.8980287706392
 20
311.27639795143398
 30
0.0
 40
60.00000000003331
 50
174.74050353558661
 51
177.37302314501659
  0
LINE
  5
12397
  8
0
 10
62.150643834988607
 20
305.7764025433757
 30
0.0
 11
63.398028420428773
 21
305.7764025433757
 31
0.0
  0
LINE
  5
12398
  8
0
 10
63.398028420428773
 20
316.77639503319051
 30
0.0
 11
62.150643834988607
 21
316.77639503319051
 31
0.0
  0
LINE
  5
12399
  8
0
 10
90.398029120783335
 20
305.7764025433757
 30
0.0
 11
91.645413706223493
 21
305.7764025433757
 31
0.0
  0
LINE
  5
1239A
  8
0
 10
91.645413706223493
 20
316.77639503319051
 30
0.0
 11
90.398029120783335
 21
316.77639503319051
 31
0.0
  0
LINE
  5
1239B
  8
0
 10
63.398028420428773
 20
307.27639813263198
 30
0.0
 11
63.78302879087164
 21
307.27639813263198
 31
0.0
  0
LINE
  5
1239C
  8
0
 10
85.898028383175856
 20
307.27639813263198
 30
0.0
 11
86.513029107968336
 21
307.27639813263198
 31
0.0
  0
LINE
  5
1239D
  8
0
 10
90.013028750340467
 20
307.27639813263198
 30
0.0
 11
90.398029120783335
 21
307.27639813263198
 31
0.0
  0
LINE
  5
1239E
  8
0
 10
90.398029120783335
 20
315.27639944393422
 30
0.0
 11
90.013028750340467
 21
315.27639944393422
 31
0.0
  0
LINE
  5
1239F
  8
0
 10
86.513029107968336
 20
315.27639944393422
 30
0.0
 11
85.898028383175856
 21
315.27639944393422
 31
0.0
  0
LINE
  5
123A0
  8
0
 10
63.78302879087164
 20
315.27639944393422
 30
0.0
 11
63.398028420428773
 21
315.27639944393422
 31
0.0
  0
LINE
  5
123A1
  8
0
 10
63.78302879087164
 20
220.77639792401581
 30
0.0
 11
67.283028433243771
 21
220.77639792401581
 31
0.0
  0
LINE
  5
123A2
  8
0
 10
86.513029107968336
 20
220.77639792401581
 30
0.0
 11
90.013028750340467
 21
220.77639792401581
 31
0.0
  0
ARC
  5
123A3
  8
0
 10
76.898028770606516
 20
253.27639795143401
 30
0.0
 40
16.000000000000039
 50
112.3241262243385
 51
128.68218745348889
  0
ARC
  5
123A4
  8
0
 10
76.898028770606516
 20
253.27639795143401
 30
0.0
 40
15.99999999999998
 50
51.317812546511028
 51
67.666586809157906
  0
LINE
  5
123A5
  8
0
 10
66.898028994123706
 20
253.67832202751421
 30
0.0
 11
67.130079189460034
 21
253.27640045721321
 31
0.0
  0
LINE
  5
123A6
  8
0
 10
86.665978351752756
 20
253.27640045721321
 30
0.0
 11
86.89802854708887
 21
253.67832202751421
 31
0.0
  0
LINE
  5
123A7
  8
0
 10
68.598028900246391
 20
206.77639749188211
 30
0.0
 11
68.598028900246391
 21
206.2763983412483
 31
0.0
  0
LINE
  5
123A8
  8
0
 10
85.198028640966186
 20
206.2763983412483
 30
0.0
 11
85.198028640966186
 21
206.77639749188211
 31
0.0
  0
LINE
  5
123A9
  8
0
 10
70.898028718452224
 20
275.7029013736942
 30
0.0
 11
70.898028718452224
 21
268.07639766771581
 31
0.0
  0
LINE
  5
123AA
  8
0
 10
70.898028718452224
 20
241.7763995035389
 30
0.0
 11
70.898028718452224
 21
206.77639749188211
 31
0.0
  0
LINE
  5
123AB
  8
0
 10
82.89802882276058
 20
206.77639749188211
 30
0.0
 11
82.89802882276058
 21
241.7763995035389
 31
0.0
  0
LINE
  5
123AC
  8
0
 10
82.89802882276058
 20
268.07639766771581
 30
0.0
 11
82.89802882276058
 21
275.7029013736942
 31
0.0
  0
LINE
  5
123AD
  8
0
 10
82.89802882276058
 20
275.7029013736942
 30
0.0
 11
81.824528681258926
 21
276.77639592726018
 31
0.0
  0
LINE
  5
123AE
  8
0
 10
71.971528859953878
 20
276.77639592726018
 30
0.0
 11
70.898028718452224
 21
275.7029013736942
 31
0.0
  0
LINE
  5
123AF
  8
0
 10
69.698028894285699
 20
318.2763906224468
 30
0.0
 11
67.698028566460152
 21
318.2763906224468
 31
0.0
  0
LINE
  5
123B0
  8
0
 10
67.698028566460152
 20
304.27639205295827
 30
0.0
 11
69.698028894285699
 21
304.27639205295827
 31
0.0
  0
LINE
  5
123B1
  8
0
 10
69.698028894285699
 20
304.27639205295827
 30
0.0
 11
69.898028554539223
 21
304.4763954385021
 31
0.0
  0
LINE
  5
123B2
  8
0
 10
69.898028554539223
 20
318.07640213806422
 30
0.0
 11
69.698028894285699
 21
318.2763906224468
 31
0.0
  0
LINE
  5
123B3
  8
0
 10
67.698028566460152
 20
318.2763906224468
 30
0.0
 11
67.498028906206628
 21
318.07640213806422
 31
0.0
  0
LINE
  5
123B4
  8
0
 10
67.498028906206628
 20
304.4763954385021
 30
0.0
 11
67.698028566460152
 21
304.27639205295827
 31
0.0
  0
LINE
  5
123B5
  8
0
 10
84.148028561989804
 20
318.2763906224468
 30
0.0
 11
83.898028986672884
 21
318.02639384109762
 31
0.0
  0
LINE
  5
123B6
  8
0
 10
83.898028986672884
 20
304.52640373546859
 30
0.0
 11
84.148028561989804
 21
304.27639205295827
 31
0.0
  0
LINE
  5
123B7
  8
0
 10
84.148028561989804
 20
304.27639205295827
 30
0.0
 11
85.648028807858964
 21
304.27639205295827
 31
0.0
  0
LINE
  5
123B8
  8
0
 10
85.648028807858964
 20
318.2763906224468
 30
0.0
 11
84.148028561989804
 21
318.2763906224468
 31
0.0
  0
LINE
  5
123B9
  8
0
 10
85.648028807858964
 20
304.27639205295827
 30
0.0
 11
85.898028383175856
 21
304.52640373546859
 31
0.0
  0
LINE
  5
123BA
  8
0
 10
85.898028383175856
 20
318.02639384109762
 30
0.0
 11
85.648028807858964
 21
318.2763906224468
 31
0.0
  0
LINE
  5
123BB
  8
0
 10
67.348029161016484
 20
316.77639503319051
 30
0.0
 11
67.283028433243771
 21
316.71139616806289
 31
0.0
  0
LINE
  5
123BC
  8
0
 10
67.283028433243771
 20
305.84140140850332
 30
0.0
 11
67.348029161016484
 21
305.7764025433757
 31
0.0
  0
LINE
  5
123BD
  8
0
 10
67.348029161016484
 20
305.7764025433757
 30
0.0
 11
67.498028906206628
 21
305.7764025433757
 31
0.0
  0
LINE
  5
123BE
  8
0
 10
67.498028906206628
 20
316.77639503319051
 30
0.0
 11
67.348029161016484
 21
316.77639503319051
 31
0.0
  0
LINE
  5
123BF
  8
0
 10
80.398028878639465
 20
340.0821687682369
 30
0.0
 11
73.398028662572642
 21
340.0821687682369
 31
0.0
  0
LINE
  5
123C1
  8
0
 10
73.398028662572642
 20
320.27639467556259
 30
0.0
 11
69.898028554539223
 21
320.27639467556259
 31
0.0
  0
LINE
  5
123C2
  8
0
 10
83.898028986672884
 20
320.27639467556259
 30
0.0
 11
80.398028878639465
 21
320.27639467556259
 31
0.0
  0
LINE
  5
123C5
  8
0
 10
67.448028991143246
 20
223.47639892537379
 30
0.0
 11
67.448028991143246
 21
237.07639817435529
 31
0.0
  0
LINE
  5
123C9
  8
0
 10
85.948029229561826
 20
237.02639732796931
 30
0.0
 11
85.948029229561826
 21
223.5263997717598
 31
0.0
  0
LINE
  5
123CD
  8
0
 10
91.645413706223493
 20
224.7763985796669
 30
0.0
 11
91.645413706223493
 21
235.7763985200622
 31
0.0
  0
LINE
  5
123CE
  8
0
 10
61.961082438151379
 20
233.02639667231821
 30
0.0
 11
61.961082438151379
 21
227.52639670212059
 31
0.0
  0
LINE
  5
123D0
  8
0
 10
62.150643834988607
 20
235.7763985200622
 30
0.0
 11
62.150643834988607
 21
224.7763985796669
 31
0.0
  0
LINE
  5
123D1
  8
0
 10
63.398028420428773
 20
235.77639852006209
 30
0.0
 11
63.398028420428773
 21
224.7763985796669
 31
0.0
  0
LINE
  5
123D3
  8
0
 10
90.398029120783335
 20
224.7763985796669
 30
0.0
 11
90.398029120783335
 21
235.7763985200622
 31
0.0
  0
ARC
  5
123D6
  8
0
 10
138.757894060448
 20
398.75131545674168
 30
0.0
 40
84.609864980677486
 50
164.5744237341658
 51
179.99655690949359
  0
ARC
  5
123D8
  8
0
 10
15.038163480764069
 20
398.75131545674168
 30
0.0
 40
84.609864980677557
 50
0.0034430905064104
 51
15.42557626583419
  0
ARC
  5
123D9
  8
0
 10
15.037827999844239
 20
398.76151496370829
 30
0.0
 40
84.610200463437621
 50
344.57445449708757
 51
359.9965362417546
  0
ARC
  5
123DB
  8
0
 10
138.75822954136791
 20
398.76151496370829
 30
0.0
 40
84.610200463437621
 50
180.00346375824861
 51
195.4255455029155
  0
ARC
  5
123DC
  8
0
 10
54.263956310471031
 20
387.31921602920312
 30
0.0
 40
43.757694018602493
 50
321.00615293589942
 51
345.3555460474758
  0
ARC
  5
123DE
  8
0
 10
99.532101230743365
 20
387.31921602920397
 30
0.0
 40
43.75769401860483
 50
194.6444539525242
 51
218.99384706410061
  0
ARC
  5
123E0
  8
0
 10
54.259942533147068
 20
410.1915646716779
 30
0.0
 40
43.762084133005409
 50
14.645664231201311
 51
38.992595043599167
  0
ARC
  5
123E1
  8
0
 10
99.536115008063916
 20
410.19156467167858
 30
0.0
 40
43.762084133004308
 50
141.00740495640079
 51
165.35433576879859
  0
ARC
  5
123E2
  8
0
 10
76.041415246039833
 20
369.11797747362709
 30
0.0
 40
15.385447625437109
 50
279.0226700799808
 51
322.65637562125602
  0
ARC
  5
123E3
  8
0
 10
76.898028770606061
 20
345.3056593737644
 30
0.0
 40
8.7566374567034249
 50
79.763125235687383
 51
100.2368747643126
  0
ARC
  5
123E4
  8
0
 10
77.754642295172971
 20
369.11797747362817
 30
0.0
 40
15.385447625438401
 50
217.3436243787466
 51
260.97732992001909
  0
ARC
  5
123E5
  8
0
 10
76.359844564307863
 20
428.99561370262728
 30
0.0
 40
14.77059597204641
 50
36.240050108423382
 51
87.911898027244945
  0
ARC
  5
123E6
  8
0
 10
77.436212976904471
 20
428.99561370262637
 30
0.0
 40
14.770595972047261
 50
92.088101972768087
 51
143.759949891574
  0
ARC
  5
123E7
  8
0
 10
53.955611036471282
 20
399.89018603374501
 30
0.0
 40
0.200000000000042
 50
279.63202115755212
 51
359.2336745044488
  0
ARC
  5
123E8
  8
0
 10
53.955611036471282
 20
397.62260986912293
 30
0.0
 40
0.2000000000000524
 50
0.7663102059442557
 51
80.367978842447911
  0
ARC
  5
123E9
  8
0
 10
54.148028770606061
 20
398.75639795143388
 30
0.0
 40
0.9500000000000213
 50
99.632021157525855
 51
260.3679788424613
  0
ARC
  5
123EA
  8
0
 10
54.29927777411649
 20
393.70494064752251
 30
0.0
 40
0.9500000000002211
 50
103.05631570676491
 51
263.79227339159621
  0
ARC
  5
123EB
  8
0
 10
54.29927777411649
 20
403.80785525534498
 30
0.0
 40
0.9500000000002916
 50
96.207726608403831
 51
256.94368429323509
  0
ARC
  5
123EC
  8
0
 10
54.75272292076761
 20
388.6640866774876
 30
0.0
 40
0.9500000000005071
 50
106.4856872770918
 51
267.22164793634681
  0
ARC
  5
123ED
  8
0
 10
54.752722920773287
 20
408.84870922537931
 30
0.0
 40
0.9500000000005071
 50
92.778352063653287
 51
253.5143097485788
  0
ARC
  5
123EE
  8
0
 10
55.514586072749353
 20
413.89686043328493
 30
0.0
 40
0.9500000000002826
 50
89.319086793326207
 51
250.05504447825149
  0
LINE
  5
123F7
  8
0
 10
91.645413706223493
 20
305.7764025433757
 30
0.0
 11
91.645413706223493
 21
316.77639503319051
 31
0.0
  0
LINE
  5
123F8
  8
0
 10
61.961082438151379
 20
314.02640063602712
 30
0.0
 11
61.961082438151379
 21
308.52639694053909
 31
0.0
  0
LINE
  5
123F9
  8
0
 10
62.150643834988607
 20
316.77639503319051
 30
0.0
 11
62.150643834988607
 21
305.7764025433757
 31
0.0
  0
LINE
  5
123FB
  8
0
 10
63.398028420428773
 20
316.77639503319051
 30
0.0
 11
63.398028420428773
 21
305.7764025433757
 31
0.0
  0
LINE
  5
123FE
  8
0
 10
90.398029120783335
 20
305.7764025433757
 30
0.0
 11
90.398029120783335
 21
316.77639503319051
 31
0.0
  0
ARC
  5
12400
  8
0
 10
85.998028770605956
 20
337.28639795143403
 30
0.0
 40
0.9999999999998721
 50
180.0
 51
202.10796921585981
  0
LINE
  5
12401
  8
0
 10
88.079061055700308
 20
329.50639743644979
 30
0.0
 11
85.071552241365438
 21
336.910039375613
 31
0.0
  0
LINE
  5
12403
  8
0
 10
81.828885408262735
 20
335.59280652839919
 30
0.0
 11
84.301307028303867
 21
329.50639743644979
 31
0.0
  0
ARC
  5
12404
  8
0
 10
85.998028770605515
 20
337.28639795143403
 30
0.0
 40
4.499999999999436
 50
180.0
 51
202.10796921586279
  0
LINE
  5
12405
  8
0
 10
81.498028872679015
 20
340.97640235264089
 30
0.0
 11
81.498028872679015
 21
337.28639800388601
 31
0.0
  0
LINE
  5
12406
  8
0
 10
84.998028980712434
 20
337.28639800388601
 30
0.0
 11
84.998028980712434
 21
356.60833842835711
 31
0.0
  0
LINE
  5
12407
  8
0
 10
89.682171749095446
 20
325.55998880703243
 30
0.0
 11
88.079061055700308
 21
329.50639743644979
 31
0.0
  0
ARC
  5
12408
  8
0
 10
85.513028770606525
 20
323.86639795143401
 30
0.0
 40
4.4999999999995683
 50
0.0
 51
22.107969215859821
  0
LINE
  5
12409
  8
0
 10
90.013028750340467
 20
220.77639792401581
 30
0.0
 11
90.013028750340467
 21
247.77639676172521
 31
0.0
  0
LINE
  5
1240A
  8
0
 10
90.013028750340467
 20
282.60478396255758
 30
0.0
 11
90.013028750340467
 21
323.86639733154561
 31
0.0
  0
LINE
  5
1240C
  8
0
 10
86.513029107968336
 20
323.86639733154561
 30
0.0
 11
86.513029107968336
 21
283.27640164930608
 31
0.0
  0
LINE
  5
1240D
  8
0
 10
86.513029107968336
 20
247.77639676172521
 30
0.0
 11
86.513029107968137
 21
220.77639792401581
 31
0.0
  0
ARC
  5
1240E
  8
0
 10
85.513028770607207
 20
323.86639795143401
 30
0.0
 40
0.9999999999989483
 50
0.0
 51
22.10796921586585
  0
LINE
  5
1240F
  8
0
 10
84.301307028303867
 20
329.50639743644979
 30
0.0
 11
86.439504915992757
 21
324.24275595981862
 31
0.0
  0
ARC
  5
12410
  8
0
 10
68.283028770606052
 20
323.86639795143401
 30
0.0
 40
4.5000000000000551
 50
157.8920307841401
 51
180.0
  0
LINE
  5
12411
  8
0
 10
65.7169964855118
 20
329.50639743644979
 30
0.0
 11
64.113885792116662
 21
325.55998880703243
 31
0.0
  0
LINE
  5
12413
  8
0
 10
67.356552625219365
 20
324.24275595981862
 30
0.0
 11
69.49475051290824
 21
329.50639743644979
 31
0.0
  0
ARC
  5
12414
  8
0
 10
68.283028770606052
 20
323.86639795143401
 30
0.0
 40
1.000000000000085
 50
157.8920307841432
 51
180.0
  0
LINE
  5
12415
  8
0
 10
67.283028433243771
 20
220.77639792401581
 30
0.0
 11
67.283028433243771
 21
247.77639676172521
 31
0.0
  0
LINE
  5
12416
  8
0
 10
67.283028433243771
 20
283.27640164930608
 30
0.0
 11
67.283028433243771
 21
323.86639733154561
 31
0.0
  0
LINE
  5
12418
  8
0
 10
63.78302879087164
 20
323.86639733154561
 30
0.0
 11
63.78302879087164
 21
282.60478396255758
 31
0.0
  0
LINE
  5
12419
  8
0
 10
63.78302879087164
 20
247.77639676172521
 30
0.0
 11
63.783028790871413
 21
220.77639792401581
 31
0.0
  0
ARC
  5
1241A
  8
0
 10
67.798028770606152
 20
337.28639795143403
 30
0.0
 40
0.9999999999998011
 50
337.89203078414022
 51
0.0
  0
ARC
  5
1241C
  8
0
 10
67.798028770606152
 20
337.28639795143403
 30
0.0
 40
4.4999999999998863
 50
337.89203078414022
 51
0.0
  0
LINE
  5
1241D
  8
0
 10
69.49475051290824
 20
329.50639743644979
 30
0.0
 11
71.967172132949372
 21
335.59280652839919
 31
0.0
  0
LINE
  5
1241E
  8
0
 10
68.724505299846669
 20
336.910039375613
 30
0.0
 11
65.7169964855118
 21
329.50639743644979
 31
0.0
  0
LINE
  5
1241F
  8
0
 10
72.298028668533107
 20
337.28639800388601
 30
0.0
 11
72.298028668533107
 21
340.97640235264089
 31
0.0
  0
LINE
  5
12420
  8
0
 10
68.798028560499688
 20
356.60833842835711
 30
0.0
 11
68.798028560499688
 21
337.28639800388601
 31
0.0
  0
LINE
  5
12425
  8
0
 10
81.498028872679015
 20
340.97640235264089
 30
0.0
 11
72.298028668533107
 21
340.97640235264089
 31
0.0
  0
LINE
  5
12426
  8
0
 10
72.298028668533107
 20
354.73265973766303
 30
0.0
 11
72.298028668533107
 21
340.97640235264089
 31
0.0
  0
LINE
  5
12427
  8
0
 10
72.298028668533107
 20
345.97639758426931
 30
0.0
 11
81.498028872679015
 21
345.97639758426931
 31
0.0
  0
LINE
  5
12428
  8
0
 10
81.498028872679015
 20
340.97640235264089
 30
0.0
 11
81.498028872679015
 21
354.73265973766303
 31
0.0
  0
LINE
  5
1242D
  8
0
 10
82.977502303342817
 20
268.07639766771581
 30
0.0
 11
70.818555237870214
 21
268.07639766771581
 31
0.0
  0
LINE
  5
1242E
  8
0
 10
86.89802854708887
 20
253.67832202751401
 30
0.0
 11
86.89802854708887
 21
265.7663973077037
 31
0.0
  0
LINE
  5
1242F
  8
0
 10
66.898028994123933
 20
264.40069843370702
 30
0.0
 11
86.89802854708887
 21
264.40069843370702
 31
0.0
  0
LINE
  5
12430
  8
0
 10
66.898028994123706
 20
265.7663973077037
 30
0.0
 11
66.898028994125752
 21
253.67832202751069
 31
0.0
  0
LINE
  5
12433
  8
0
 10
66.898028994123933
 20
256.2763990863063
 30
0.0
 11
86.89802854708887
 21
256.2763990863063
 31
0.0
  0
LINE
  5
12436
  8
0
 10
67.398029076080093
 20
206.2763983412483
 30
0.0
 11
86.398028465132938
 21
206.2763983412483
 31
0.0
  0
LINE
  5
12437
  8
0
 10
76.898028770606516
 20
199.6701901807287
 30
0.0
 11
76.898028770606274
 21
206.2763983412483
 31
0.0
  0
POLYLINE
  5
12438
  8
0
 66
     1
 10
0.0
 20
0.0
 30
0.0
 70
   128
  0
VERTEX
  5
12DE5
  8
0
 10
76.898028770606274
 20
199.6701901807287
 30
0.0
  0
VERTEX
  5
12DE6
  8
0
 10
74.533707391615508
 20
199.38125666517999
 30
0.0
  0
VERTEX
  5
12DE7
  8
0
 10
72.14802892334319
 20
199.27639719385891
 30
0.0
  0
SEQEND
  5
12DE8
  8
0
  0
POLYLINE
  5
12439
  8
0
 66
     1
 10
0.0
 20
0.0
 30
0.0
 70
   128
  0
VERTEX
  5
12DE9
  8
0
 10
72.14802892334319
 20
199.27639719385891
 30
0.0
  0
VERTEX
  5
12DEA
  8
0
 10
69.773028766881225
 20
199.38033838112139
 30
0.0
  0
VERTEX
  5
12DEB
  8
0
 10
67.398029076080093
 20
199.6701901807287
 30
0.0
  0
SEQEND
  5
12DEC
  8
0
  0
LINE
  5
1243A
  8
0
 10
67.398029076080093
 20
206.2763983412483
 30
0.0
 11
67.398029076079865
 21
199.27639719385871
 31
0.0
  0
LINE
  5
1243B
  8
0
 10
86.398028465132711
 20
199.27639719385891
 30
0.0
 11
86.398028465132711
 21
206.2763983412483
 31
0.0
  0
POLYLINE
  5
1243C
  8
0
 66
     1
 10
0.0
 20
0.0
 30
0.0
 70
   128
  0
VERTEX
  5
12DED
  8
0
 10
86.398028465132711
 20
199.6701901807287
 30
0.0
  0
VERTEX
  5
12DEE
  8
0
 10
84.033707318972105
 20
199.38125666517999
 30
0.0
  0
VERTEX
  5
12DEF
  8
0
 10
81.648028617869613
 20
199.27639719385891
 30
0.0
  0
SEQEND
  5
12DF0
  8
0
  0
POLYLINE
  5
1243D
  8
0
 66
     1
 10
0.0
 20
0.0
 30
0.0
 70
   128
  0
VERTEX
  5
12DF1
  8
0
 10
81.648028617869613
 20
199.27639719385891
 30
0.0
  0
VERTEX
  5
12DF2
  8
0
 10
79.273028694238064
 20
199.38033838112139
 30
0.0
  0
VERTEX
  5
12DF3
  8
0
 10
76.898028770606274
 20
199.6701901807287
 30
0.0
  0
SEQEND
  5
12DF4
  8
0
  0
LINE
  5
12441
  8
0
 10
68.598028900246391
 20
206.77639749188211
 30
0.0
 11
85.198028640966413
 21
206.77639749188211
 31
0.0
  0
LINE
  5
12445
  8
0
 10
67.398029076080093
 20
199.27639719385871
 30
0.0
 11
86.398028465132484
 21
199.27639719385891
 31
0.0
  0
LINE
  5
12446
  8
0
 10
82.89802882276058
 20
275.70290137369432
 30
0.0
 11
70.898028718452224
 21
275.7029013736942
 31
0.0
  0
LINE
  5
12448
  8
0
 10
81.824528681258926
 20
276.77639592726018
 30
0.0
 11
71.971528859953878
 21
276.77639592726018
 31
0.0
  0
POLYLINE
  5
12449
  8
0
 66
     1
 10
0.0
 20
0.0
 30
0.0
 70
   128
  0
VERTEX
  5
12DF5
  8
0
 10
72.14802892334319
 20
241.7763995035389
 30
0.0
  0
VERTEX
  5
12DF6
  8
0
 10
69.773028766881225
 20
242.0003565057018
 30
0.0
  0
VERTEX
  5
12DF7
  8
0
 10
67.398029076080093
 20
242.62490142423891
 30
0.0
  0
SEQEND
  5
12DF8
  8
0
  0
POLYLINE
  5
1244B
  8
0
 66
     1
 10
0.0
 20
0.0
 30
0.0
 70
   128
  0
VERTEX
  5
12DF9
  8
0
 10
67.398029076080093
 20
246.92789484102511
 30
0.0
  0
VERTEX
  5
12DFA
  8
0
 10
69.72518812320709
 20
247.54350651342659
 30
0.0
  0
VERTEX
  5
12DFB
  8
0
 10
72.14802892334319
 20
247.77639676172521
 30
0.0
  0
SEQEND
  5
12DFC
  8
0
  0
POLYLINE
  5
1244C
  8
0
 66
     1
 10
0.0
 20
0.0
 30
0.0
 70
   128
  0
VERTEX
  5
12DFD
  8
0
 10
72.14802892334319
 20
247.77639676172521
 30
0.0
  0
VERTEX
  5
12DFE
  8
0
 10
74.523028846974967
 20
247.55243230898171
 30
0.0
  0
VERTEX
  5
12DFF
  8
0
 10
76.898028799464782
 20
246.92789484102511
 30
0.0
  0
SEQEND
  5
12E00
  8
0
  0
LINE
  5
1244D
  8
0
 10
76.898028770606274
 20
242.62490142423891
 30
0.0
 11
76.898028808121353
 21
246.92789484102511
 31
0.0
  0
POLYLINE
  5
1244E
  8
0
 66
     1
 10
0.0
 20
0.0
 30
0.0
 70
   128
  0
VERTEX
  5
12E01
  8
0
 10
76.898028770606274
 20
242.62490142423891
 30
0.0
  0
VERTEX
  5
12E02
  8
0
 10
74.570869490649102
 20
242.00928975183751
 30
0.0
  0
VERTEX
  5
12E03
  8
0
 10
72.14802892334319
 20
241.7763995035389
 30
0.0
  0
SEQEND
  5
12E04
  8
0
  0
POLYLINE
  5
1244F
  8
0
 66
     1
 10
0.0
 20
0.0
 30
0.0
 70
   128
  0
VERTEX
  5
12E05
  8
0
 10
81.648028617869613
 20
241.7763995035389
 30
0.0
  0
VERTEX
  5
12E06
  8
0
 10
79.273028694238064
 20
242.0003565057018
 30
0.0
  0
VERTEX
  5
12E07
  8
0
 10
76.898028770606061
 20
242.62490142423891
 30
0.0
  0
SEQEND
  5
12E08
  8
0
  0
POLYLINE
  5
12451
  8
0
 66
     1
 10
0.0
 20
0.0
 30
0.0
 70
   128
  0
VERTEX
  5
12E09
  8
0
 10
76.898028845636645
 20
246.92789484102511
 30
0.0
  0
VERTEX
  5
12E0A
  8
0
 10
79.225188050563929
 20
247.54350651342659
 30
0.0
  0
VERTEX
  5
12E0B
  8
0
 10
81.648028617869613
 20
247.77639676172521
 30
0.0
  0
SEQEND
  5
12E0C
  8
0
  0
POLYLINE
  5
12452
  8
0
 66
     1
 10
0.0
 20
0.0
 30
0.0
 70
   128
  0
VERTEX
  5
12E0D
  8
0
 10
81.648028617869613
 20
247.77639676172521
 30
0.0
  0
VERTEX
  5
12E0E
  8
0
 10
84.023028774331564
 20
247.55243230898171
 30
0.0
  0
VERTEX
  5
12E0F
  8
0
 10
86.398028465132711
 20
246.92789484102511
 30
0.0
  0
SEQEND
  5
12E10
  8
0
  0
POLYLINE
  5
12454
  8
0
 66
     1
 10
0.0
 20
0.0
 30
0.0
 70
   128
  0
VERTEX
  5
12E11
  8
0
 10
86.398028465132711
 20
242.62490142423891
 30
0.0
  0
VERTEX
  5
12E12
  8
0
 10
84.070869418005714
 20
242.00928975183751
 30
0.0
  0
VERTEX
  5
12E13
  8
0
 10
81.648028617869613
 20
241.7763995035389
 30
0.0
  0
SEQEND
  5
12E14
  8
0
  0
LINE
  5
12456
  8
0
 10
67.398029076080093
 20
241.7763995035389
 30
0.0
 11
86.398028465133848
 21
241.7763995035389
 31
0.0
  0
LINE
  5
12457
  8
0
 10
67.398029076080093
 20
247.77639676172521
 30
0.0
 11
67.398029076080093
 21
241.7763995035389
 31
0.0
  0
LINE
  5
12458
  8
0
 10
86.398028465133848
 20
241.7763995035389
 30
0.0
 11
86.398028465132484
 21
247.77639676172521
 31
0.0
  0
LINE
  5
1245D
  8
0
 10
67.498028906206628
 20
304.4763954385021
 30
0.0
 11
67.498028906206628
 21
318.07640213806422
 31
0.0
  0
LINE
  5
12461
  8
0
 10
85.898028383175856
 20
318.02639384109767
 30
0.0
 11
85.898028383175856
 21
304.52640373546859
 31
0.0
  0
LINE
  5
12468
  8
0
 10
73.398028662572642
 20
340.08216876823701
 30
0.0
 11
73.398028662572642
 21
303.27640492756149
 31
0.0
  0
LINE
  5
12469
  8
0
 10
80.398028878639707
 20
303.47639341194417
 30
0.0
 11
73.398028662572642
 21
303.47639341194417
 31
0.0
  0
LINE
  5
12471
  8
0
 10
80.398028878639465
 20
340.08216876823701
 30
0.0
 11
80.398028878639266
 21
303.27640492756149
 31
0.0
  0
LINE
  5
1247C
  8
0
 10
69.898028554539223
 20
303.27640492756149
 30
0.0
 11
83.898028986672884
 21
303.27640492756171
 31
0.0
  0
LINE
  5
1247E
  8
0
 10
83.898028986672884
 20
284.07640029032018
 30
0.0
 11
69.898028554539223
 21
284.07640029032018
 31
0.0
  0
LINE
  5
12487
  8
0
 10
73.398028662572642
 20
284.07640029032018
 30
0.0
 11
73.398028662572642
 21
283.27640164930608
 31
0.0
  0
LINE
  5
1248C
  8
0
 10
80.398028878639465
 20
284.07640029032018
 30
0.0
 11
80.398028878639465
 21
283.27640164930608
 31
0.0
  0
LINE
  5
1248E
  8
0
 10
69.898028554539223
 20
320.27639467556259
 30
0.0
 11
69.898028554539223
 21
283.27640164930608
 31
0.0
  0
LINE
  5
12491
  8
0
 10
83.898028986672685
 20
283.27640164930608
 30
0.0
 11
83.898028986672884
 21
320.27639467556259
 31
0.0
  0
LINE
  5
12498
  8
0
 10
87.398028629045484
 20
253.27640045721321
 30
0.0
 11
66.398028912167547
 21
253.27640045721321
 31
0.0
  0
LINE
  5
1249A
  8
0
 10
90.89802920274019
 20
247.77639676172521
 30
0.0
 11
62.898028338472841
 21
247.77639676172521
 31
0.0
  0
POLYLINE
  5
124A1
  8
0
 10
63.069064663206085
 20
282.08822700247384
 30
0.0
 66
     1
 70
     8
  0
VERTEX
  8
0
  5
12E5D
 10
63.0691
 20
282.088
 30
0.000000
  70
    32
  0
VERTEX
  8
0
  5
12E5E
 10
63.0664
 20
282.085
 30
0.000000
  70
    32
  0
VERTEX
  8
0
  5
12E5F
 10
63.0638
 20
282.081
 30
0.000000
  70
    32
  0
VERTEX
  8
0
  5
12E60
 10
63.0612
 20
282.078
 30
0.000000
  70
    32
  0
VERTEX
  8
0
  5
12E61
 10
63.0586
 20
282.074
 30
0.000000
  70
    32
  0
VERTEX
  8
0
  5
12E62
 10
63.0560
 20
282.070
 30
0.000000
  70
    32
  0
VERTEX
  8
0
  5
12E63
 10
63.0534
 20
282.067
 30
0.000000
  70
    32
  0
VERTEX
  8
0
  5
12E64
 10
63.0509
 20
282.063
 30
0.000000
  70
    32
  0
VERTEX
  8
0
  5
12E65
 10
63.0484
 20
282.060
 30
0.000000
  70
    32
  0
VERTEX
  8
0
  5
12E66
 10
63.0459
 20
282.056
 30
0.000000
  70
    32
  0
VERTEX
  8
0
  5
12E67
 10
63.0434
 20
282.053
 30
0.000000
  70
    32
  0
VERTEX
  8
0
  5
12E68
 10
63.0410
 20
282.049
 30
0.000000
  70
    32
  0
VERTEX
  8
0
  5
12E69
 10
63.0386
 20
282.046
 30
0.000000
  70
    32
  0
VERTEX
  8
0
  5
12E6A
 10
63.0362
 20
282.042
 30
0.000000
  70
    32
  0
VERTEX
  8
0
  5
12E6B
 10
63.0338
 20
282.038
 30
0.000000
  70
    32
  0
VERTEX
  8
0
  5
12E6C
 10
63.0314
 20
282.035
 30
0.000000
  70
    32
  0
VERTEX
  8
0
  5
12E6D
 10
63.0291
 20
282.031
 30
0.000000
  70
    32
  0
VERTEX
  8
0
  5
12E6E
 10
63.0267
 20
282.028
 30
0.000000
  70
    32
  0
VERTEX
  8
0
  5
12E6F
 10
63.0244
 20
282.024
 30
0.000000
  70
    32
  0
VERTEX
  8
0
  5
12E70
 10
63.0222
 20
282.021
 30
0.000000
  70
    32
  0
VERTEX
  8
0
  5
12E71
 10
63.0199
 20
282.017
 30
0.000000
  70
    32
  0
VERTEX
  8
0
  5
12E72
 10
63.0177
 20
282.014
 30
0.000000
  70
    32
  0
VERTEX
  8
0
  5
12E73
 10
63.0154
 20
282.010
 30
0.000000
  70
    32
  0
VERTEX
  8
0
  5
12E74
 10
63.0132
 20
282.006
 30
0.000000
  70
    32
  0
VERTEX
  8
0
  5
12E75
 10
63.0110
 20
282.003
 30
0.000000
  70
    32
  0
VERTEX
  8
0
  5
12E76
 10
63.0089
 20
281.999
 30
0.000000
  70
    32
  0
VERTEX
  8
0
  5
12E77
 10
63.0068
 20
281.996
 30
0.000000
  70
    32
  0
VERTEX
  8
0
  5
12E78
 10
63.0046
 20
281.992
 30
0.000000
  70
    32
  0
VERTEX
  8
0
  5
12E79
 10
63.0025
 20
281.989
 30
0.000000
  70
    32
  0
VERTEX
  8
0
  5
12E7A
 10
63.0005
 20
281.985
 30
0.000000
  70
    32
  0
VERTEX
  8
0
  5
12E7B
 10
62.9984
 20
281.981
 30
0.000000
  70
    32
  0
VERTEX
  8
0
  5
12E7C
 10
62.9964
 20
281.978
 30
0.000000
  70
    32
  0
VERTEX
  8
0
  5
12E7D
 10
62.9944
 20
281.974
 30
0.000000
  70
    32
  0
VERTEX
  8
0
  5
12E7E
 10
62.9924
 20
281.971
 30
0.000000
  70
    32
  0
VERTEX
  8
0
  5
12E7F
 10
62.9904
 20
281.967
 30
0.000000
  70
    32
  0
VERTEX
  8
0
  5
12E80
 10
62.9884
 20
281.964
 30
0.000000
  70
    32
  0
VERTEX
  8
0
  5
12E81
 10
62.9865
 20
281.960
 30
0.000000
  70
    32
  0
VERTEX
  8
0
  5
12E82
 10
62.9846
 20
281.956
 30
0.000000
  70
    32
  0
VERTEX
  8
0
  5
12E83
 10
62.9827
 20
281.953
 30
0.000000
  70
    32
  0
VERTEX
  8
0
  5
12E84
 10
62.9808
 20
281.949
 30
0.000000
  70
    32
  0
VERTEX
  8
0
  5
12E85
 10
62.9790
 20
281.946
 30
0.000000
  70
    32
  0
VERTEX
  8
0
  5
12E86
 10
62.9772
 20
281.942
 30
0.000000
  70
    32
  0
VERTEX
  8
0
  5
12E87
 10
62.9754
 20
281.939
 30
0.000000
  70
    32
  0
VERTEX
  8
0
  5
12E88
 10
62.9736
 20
281.935
 30
0.000000
  70
    32
  0
VERTEX
  8
0
  5
12E89
 10
62.9718
 20
281.931
 30
0.000000
  70
    32
  0
VERTEX
  8
0
  5
12E8A
 10
62.9701
 20
281.928
 30
0.000000
  70
    32
  0
VERTEX
  8
0
  5
12E8B
 10
62.9683
 20
281.924
 30
0.000000
  70
    32
  0
VERTEX
  8
0
  5
12E8C
 10
62.9666
 20
281.921
 30
0.000000
  70
    32
  0
VERTEX
  8
0
  5
12E8D
 10
62.9650
 20
281.917
 30
0.000000
  70
    32
  0
VERTEX
  8
0
  5
12E8E
 10
62.9633
 20
281.913
 30
0.000000
  70
    32
  0
VERTEX
  8
0
  5
12E8F
 10
62.9617
 20
281.910
 30
0.000000
  70
    32
  0
VERTEX
  8
0
  5
12E90
 10
62.9600
 20
281.906
 30
0.000000
  70
    32
  0
VERTEX
  8
0
  5
12E91
 10
62.9584
 20
281.903
 30
0.000000
  70
    32
  0
VERTEX
  8
0
  5
12E92
 10
62.9569
 20
281.899
 30
0.000000
  70
    32
  0
VERTEX
  8
0
  5
12E93
 10
62.9553
 20
281.896
 30
0.000000
  70
    32
  0
VERTEX
  8
0
  5
12E94
 10
62.9538
 20
281.892
 30
0.000000
  70
    32
  0
VERTEX
  8
0
  5
12E95
 10
62.9523
 20
281.888
 30
0.000000
  70
    32
  0
VERTEX
  8
0
  5
12E96
 10
62.9508
 20
281.885
 30
0.000000
  70
    32
  0
VERTEX
  8
0
  5
12E97
 10
62.9493
 20
281.881
 30
0.000000
  70
    32
  0
VERTEX
  8
0
  5
12E98
 10
62.9478
 20
281.878
 30
0.000000
  70
    32
  0
VERTEX
  8
0
  5
12E99
 10
62.9464
 20
281.874
 30
0.000000
  70
    32
  0
VERTEX
  8
0
  5
12E9A
 10
62.9450
 20
281.870
 30
0.000000
  70
    32
  0
VERTEX
  8
0
  5
12E9B
 10
62.9436
 20
281.867
 30
0.000000
  70
    32
  0
VERTEX
  8
0
  5
12E9C
 10
62.9422
 20
281.863
 30
0.000000
  70
    32
  0
VERTEX
  8
0
  5
12E9D
 10
62.9409
 20
281.860
 30
0.000000
  70
    32
  0
VERTEX
  8
0
  5
12E9E
 10
62.9396
 20
281.856
 30
0.000000
  70
    32
  0
VERTEX
  8
0
  5
12E9F
 10
62.9382
 20
281.852
 30
0.000000
  70
    32
  0
VERTEX
  8
0
  5
12EA0
 10
62.9370
 20
281.849
 30
0.000000
  70
    32
  0
VERTEX
  8
0
  5
12EA1
 10
62.9357
 20
281.845
 30
0.000000
  70
    32
  0
VERTEX
  8
0
  5
12EA2
 10
62.9344
 20
281.842
 30
0.000000
  70
    32
  0
VERTEX
  8
0
  5
12EA3
 10
62.9332
 20
281.838
 30
0.000000
  70
    32
  0
VERTEX
  8
0
  5
12EA4
 10
62.9320
 20
281.834
 30
0.000000
  70
    32
  0
VERTEX
  8
0
  5
12EA5
 10
62.9308
 20
281.831
 30
0.000000
  70
    32
  0
VERTEX
  8
0
  5
12EA6
 10
62.9297
 20
281.827
 30
0.000000
  70
    32
  0
VERTEX
  8
0
  5
12EA7
 10
62.9285
 20
281.824
 30
0.000000
  70
    32
  0
VERTEX
  8
0
  5
12EA8
 10
62.9274
 20
281.820
 30
0.000000
  70
    32
  0
VERTEX
  8
0
  5
12EA9
 10
62.9263
 20
281.816
 30
0.000000
  70
    32
  0
VERTEX
  8
0
  5
12EAA
 10
62.9252
 20
281.813
 30
0.000000
  70
    32
  0
VERTEX
  8
0
  5
12EAB
 10
62.9242
 20
281.809
 30
0.000000
  70
    32
  0
VERTEX
  8
0
  5
12EAC
 10
62.9232
 20
281.806
 30
0.000000
  70
    32
  0
VERTEX
  8
0
  5
12EAD
 10
62.9221
 20
281.802
 30
0.000000
  70
    32
  0
VERTEX
  8
0
  5
12EAE
 10
62.9211
 20
281.799
 30
0.000000
  70
    32
  0
VERTEX
  8
0
  5
12EAF
 10
62.9202
 20
281.795
 30
0.000000
  70
    32
  0
VERTEX
  8
0
  5
12EB0
 10
62.9192
 20
281.791
 30
0.000000
  70
    32
  0
VERTEX
  8
0
  5
12EB1
 10
62.9183
 20
281.788
 30
0.000000
  70
    32
  0
VERTEX
  8
0
  5
12EB2
 10
62.9174
 20
281.784
 30
0.000000
  70
    32
  0
VERTEX
  8
0
  5
12EB3
 10
62.9165
 20
281.781
 30
0.000000
  70
    32
  0
VERTEX
  8
0
  5
12EB4
 10
62.9156
 20
281.777
 30
0.000000
  70
    32
  0
VERTEX
  8
0
  5
12EB5
 10
62.9148
 20
281.773
 30
0.000000
  70
    32
  0
VERTEX
  8
0
  5
12EB6
 10
62.9139
 20
281.770
 30
0.000000
  70
    32
  0
VERTEX
  8
0
  5
12EB7
 10
62.9131
 20
281.766
 30
0.000000
  70
    32
  0
VERTEX
  8
0
  5
12EB8
 10
62.9124
 20
281.762
 30
0.000000
  70
    32
  0
VERTEX
  8
0
  5
12EB9
 10
62.9116
 20
281.759
 30
0.000000
  70
    32
  0
VERTEX
  8
0
  5
12EBA
 10
62.9109
 20
281.755
 30
0.000000
  70
    32
  0
VERTEX
  8
0
  5
12EBB
 10
62.9101
 20
281.752
 30
0.000000
  70
    32
  0
VERTEX
  8
0
  5
12EBC
 10
62.9094
 20
281.748
 30
0.000000
  70
    32
  0
VERTEX
  8
0
  5
12EBD
 10
62.9087
 20
281.744
 30
0.000000
  70
    32
  0
VERTEX
  8
0
  5
12EBE
 10
62.9081
 20
281.741
 30
0.000000
  70
    32
  0
VERTEX
  8
0
  5
12EBF
 10
62.9074
 20
281.737
 30
0.000000
  70
    32
  0
VERTEX
  8
0
  5
12EC0
 10
62.9068
 20
281.734
 30
0.000000
  70
    32
  0
VERTEX
  8
0
  5
12EC1
 10
62.9062
 20
281.730
 30
0.000000
  70
    32
  0
VERTEX
  8
0
  5
12EC2
 10
62.9057
 20
281.726
 30
0.000000
  70
    32
  0
VERTEX
  8
0
  5
12EC3
 10
62.9051
 20
281.723
 30
0.000000
  70
    32
  0
VERTEX
  8
0
  5
12EC4
 10
62.9046
 20
281.719
 30
0.000000
  70
    32
  0
VERTEX
  8
0
  5
12EC5
 10
62.9041
 20
281.716
 30
0.000000
  70
    32
  0
VERTEX
  8
0
  5
12EC6
 10
62.9036
 20
281.712
 30
0.000000
  70
    32
  0
VERTEX
  8
0
  5
12EC7
 10
62.9031
 20
281.708
 30
0.000000
  70
    32
  0
VERTEX
  8
0
  5
12EC8
 10
62.9026
 20
281.705
 30
0.000000
  70
    32
  0
VERTEX
  8
0
  5
12EC9
 10
62.9022
 20
281.701
 30
0.000000
  70
    32
  0
VERTEX
  8
0
  5
12ECA
 10
62.9018
 20
281.698
 30
0.000000
  70
    32
  0
VERTEX
  8
0
  5
12ECB
 10
62.9014
 20
281.694
 30
0.000000
  70
    32
  0
VERTEX
  8
0
  5
12ECC
 10
62.9011
 20
281.690
 30
0.000000
  70
    32
  0
VERTEX
  8
0
  5
12ECD
 10
62.9007
 20
281.687
 30
0.000000
  70
    32
  0
VERTEX
  8
0
  5
12ECE
 10
62.9004
 20
281.683
 30
0.000000
  70
    32
  0
VERTEX
  8
0
  5
12ECF
 10
62.9001
 20
281.680
 30
0.000000
  70
    32
  0
VERTEX
  8
0
  5
12ED0
 10
62.8998
 20
281.676
 30
0.000000
  70
    32
  0
VERTEX
  8
0
  5
12ED1
 10
62.8995
 20
281.672
 30
0.000000
  70
    32
  0
VERTEX
  8
0
  5
12ED2
 10
62.8993
 20
281.669
 30
0.000000
  70
    32
  0
VERTEX
  8
0
  5
12ED3
 10
62.8991
 20
281.665
 30
0.000000
  70
    32
  0
VERTEX
  8
0
  5
12ED4
 10
62.8989
 20
281.662
 30
0.000000
  70
    32
  0
VERTEX
  8
0
  5
12ED5
 10
62.8987
 20
281.658
 30
0.000000
  70
    32
  0
VERTEX
  8
0
  5
12ED6
 10
62.8985
 20
281.654
 30
0.000000
  70
    32
  0
VERTEX
  8
0
  5
12ED7
 10
62.8984
 20
281.651
 30
0.000000
  70
    32
  0
VERTEX
  8
0
  5
12ED8
 10
62.8983
 20
281.647
 30
0.000000
  70
    32
  0
VERTEX
  8
0
  5
12ED9
 10
62.8982
 20
281.643
 30
0.000000
  70
    32
  0
VERTEX
  8
0
  5
12EDA
 10
62.8981
 20
281.640
 30
0.000000
  70
    32
  0
VERTEX
  8
0
  5
12EDB
 10
62.8981
 20
281.636
 30
0.000000
  70
    32
  0
VERTEX
  8
0
  5
12EDC
 10
62.8980
 20
281.633
 30
0.000000
  70
    32
  0
VERTEX
  8
0
  5
12EDD
 10
62.8980
 20
281.629
 30
0.000000
  70
    32
  0
SEQEND
  8
0
  5
12EDE
  0
POLYLINE
  5
124A3
  8
0
 10
66.664367292425069
 20
282.08822700247384
 30
0.0
 66
     1
 70
     8
  0
VERTEX
  8
0
  5
12EDF
 10
66.6644
 20
282.088
 30
0.000000
  70
    32
  0
VERTEX
  8
0
  5
12EE0
 10
66.6603
 20
282.085
 30
0.000000
  70
    32
  0
VERTEX
  8
0
  5
12EE1
 10
66.6562
 20
282.081
 30
0.000000
  70
    32
  0
VERTEX
  8
0
  5
12EE2
 10
66.6521
 20
282.078
 30
0.000000
  70
    32
  0
VERTEX
  8
0
  5
12EE3
 10
66.6481
 20
282.074
 30
0.000000
  70
    32
  0
VERTEX
  8
0
  5
12EE4
 10
66.6441
 20
282.071
 30
0.000000
  70
    32
  0
VERTEX
  8
0
  5
12EE5
 10
66.6401
 20
282.067
 30
0.000000
  70
    32
  0
VERTEX
  8
0
  5
12EE6
 10
66.6362
 20
282.064
 30
0.000000
  70
    32
  0
VERTEX
  8
0
  5
12EE7
 10
66.6323
 20
282.060
 30
0.000000
  70
    32
  0
VERTEX
  8
0
  5
12EE8
 10
66.6284
 20
282.057
 30
0.000000
  70
    32
  0
VERTEX
  8
0
  5
12EE9
 10
66.6246
 20
282.053
 30
0.000000
  70
    32
  0
VERTEX
  8
0
  5
12EEA
 10
66.6208
 20
282.050
 30
0.000000
  70
    32
  0
VERTEX
  8
0
  5
12EEB
 10
66.6170
 20
282.046
 30
0.000000
  70
    32
  0
VERTEX
  8
0
  5
12EEC
 10
66.6133
 20
282.043
 30
0.000000
  70
    32
  0
VERTEX
  8
0
  5
12EED
 10
66.6096
 20
282.039
 30
0.000000
  70
    32
  0
VERTEX
  8
0
  5
12EEE
 10
66.6059
 20
282.036
 30
0.000000
  70
    32
  0
VERTEX
  8
0
  5
12EEF
 10
66.6023
 20
282.032
 30
0.000000
  70
    32
  0
VERTEX
  8
0
  5
12EF0
 10
66.5987
 20
282.029
 30
0.000000
  70
    32
  0
VERTEX
  8
0
  5
12EF1
 10
66.5951
 20
282.025
 30
0.000000
  70
    32
  0
VERTEX
  8
0
  5
12EF2
 10
66.5915
 20
282.022
 30
0.000000
  70
    32
  0
VERTEX
  8
0
  5
12EF3
 10
66.5880
 20
282.018
 30
0.000000
  70
    32
  0
VERTEX
  8
0
  5
12EF4
 10
66.5845
 20
282.014
 30
0.000000
  70
    32
  0
VERTEX
  8
0
  5
12EF5
 10
66.5811
 20
282.011
 30
0.000000
  70
    32
  0
VERTEX
  8
0
  5
12EF6
 10
66.5777
 20
282.007
 30
0.000000
  70
    32
  0
VERTEX
  8
0
  5
12EF7
 10
66.5743
 20
282.004
 30
0.000000
  70
    32
  0
VERTEX
  8
0
  5
12EF8
 10
66.5709
 20
282.000
 30
0.000000
  70
    32
  0
VERTEX
  8
0
  5
12EF9
 10
66.5676
 20
281.997
 30
0.000000
  70
    32
  0
VERTEX
  8
0
  5
12EFA
 10
66.5643
 20
281.993
 30
0.000000
  70
    32
  0
VERTEX
  8
0
  5
12EFB
 10
66.5610
 20
281.990
 30
0.000000
  70
    32
  0
VERTEX
  8
0
  5
12EFC
 10
66.5578
 20
281.986
 30
0.000000
  70
    32
  0
VERTEX
  8
0
  5
12EFD
 10
66.5546
 20
281.983
 30
0.000000
  70
    32
  0
VERTEX
  8
0
  5
12EFE
 10
66.5514
 20
281.979
 30
0.000000
  70
    32
  0
VERTEX
  8
0
  5
12EFF
 10
66.5483
 20
281.976
 30
0.000000
  70
    32
  0
VERTEX
  8
0
  5
12F00
 10
66.5452
 20
281.972
 30
0.000000
  70
    32
  0
VERTEX
  8
0
  5
12F01
 10
66.5421
 20
281.968
 30
0.000000
  70
    32
  0
VERTEX
  8
0
  5
12F02
 10
66.5391
 20
281.965
 30
0.000000
  70
    32
  0
VERTEX
  8
0
  5
12F03
 10
66.5361
 20
281.961
 30
0.000000
  70
    32
  0
VERTEX
  8
0
  5
12F04
 10
66.5331
 20
281.958
 30
0.000000
  70
    32
  0
VERTEX
  8
0
  5
12F05
 10
66.5302
 20
281.954
 30
0.000000
  70
    32
  0
VERTEX
  8
0
  5
12F06
 10
66.5273
 20
281.951
 30
0.000000
  70
    32
  0
VERTEX
  8
0
  5
12F07
 10
66.5244
 20
281.947
 30
0.000000
  70
    32
  0
VERTEX
  8
0
  5
12F08
 10
66.5215
 20
281.943
 30
0.000000
  70
    32
  0
VERTEX
  8
0
  5
12F09
 10
66.5187
 20
281.940
 30
0.000000
  70
    32
  0
VERTEX
  8
0
  5
12F0A
 10
66.5159
 20
281.936
 30
0.000000
  70
    32
  0
VERTEX
  8
0
  5
12F0B
 10
66.5132
 20
281.933
 30
0.000000
  70
    32
  0
VERTEX
  8
0
  5
12F0C
 10
66.5105
 20
281.929
 30
0.000000
  70
    32
  0
VERTEX
  8
0
  5
12F0D
 10
66.5078
 20
281.926
 30
0.000000
  70
    32
  0
VERTEX
  8
0
  5
12F0E
 10
66.5051
 20
281.922
 30
0.000000
  70
    32
  0
VERTEX
  8
0
  5
12F0F
 10
66.5025
 20
281.918
 30
0.000000
  70
    32
  0
VERTEX
  8
0
  5
12F10
 10
66.4999
 20
281.915
 30
0.000000
  70
    32
  0
VERTEX
  8
0
  5
12F11
 10
66.4974
 20
281.911
 30
0.000000
  70
    32
  0
VERTEX
  8
0
  5
12F12
 10
66.4948
 20
281.908
 30
0.000000
  70
    32
  0
VERTEX
  8
0
  5
12F13
 10
66.4923
 20
281.904
 30
0.000000
  70
    32
  0
VERTEX
  8
0
  5
12F14
 10
66.4899
 20
281.901
 30
0.000000
  70
    32
  0
VERTEX
  8
0
  5
12F15
 10
66.4875
 20
281.897
 30
0.000000
  70
    32
  0
VERTEX
  8
0
  5
12F16
 10
66.4851
 20
281.893
 30
0.000000
  70
    32
  0
VERTEX
  8
0
  5
12F17
 10
66.4827
 20
281.890
 30
0.000000
  70
    32
  0
VERTEX
  8
0
  5
12F18
 10
66.4804
 20
281.886
 30
0.000000
  70
    32
  0
VERTEX
  8
0
  5
12F19
 10
66.4781
 20
281.883
 30
0.000000
  70
    32
  0
VERTEX
  8
0
  5
12F1A
 10
66.4758
 20
281.879
 30
0.000000
  70
    32
  0
VERTEX
  8
0
  5
12F1B
 10
66.4736
 20
281.875
 30
0.000000
  70
    32
  0
VERTEX
  8
0
  5
12F1C
 10
66.4714
 20
281.872
 30
0.000000
  70
    32
  0
VERTEX
  8
0
  5
12F1D
 10
66.4692
 20
281.868
 30
0.000000
  70
    32
  0
VERTEX
  8
0
  5
12F1E
 10
66.4671
 20
281.865
 30
0.000000
  70
    32
  0
VERTEX
  8
0
  5
12F1F
 10
66.4650
 20
281.861
 30
0.000000
  70
    32
  0
VERTEX
  8
0
  5
12F20
 10
66.4629
 20
281.857
 30
0.000000
  70
    32
  0
VERTEX
  8
0
  5
12F21
 10
66.4608
 20
281.854
 30
0.000000
  70
    32
  0
VERTEX
  8
0
  5
12F22
 10
66.4588
 20
281.850
 30
0.000000
  70
    32
  0
VERTEX
  8
0
  5
12F23
 10
66.4569
 20
281.847
 30
0.000000
  70
    32
  0
VERTEX
  8
0
  5
12F24
 10
66.4549
 20
281.843
 30
0.000000
  70
    32
  0
VERTEX
  8
0
  5
12F25
 10
66.4530
 20
281.839
 30
0.000000
  70
    32
  0
VERTEX
  8
0
  5
12F26
 10
66.4511
 20
281.836
 30
0.000000
  70
    32
  0
VERTEX
  8
0
  5
12F27
 10
66.4493
 20
281.832
 30
0.000000
  70
    32
  0
VERTEX
  8
0
  5
12F28
 10
66.4475
 20
281.829
 30
0.000000
  70
    32
  0
VERTEX
  8
0
  5
12F29
 10
66.4457
 20
281.825
 30
0.000000
  70
    32
  0
VERTEX
  8
0
  5
12F2A
 10
66.4440
 20
281.821
 30
0.000000
  70
    32
  0
VERTEX
  8
0
  5
12F2B
 10
66.4422
 20
281.818
 30
0.000000
  70
    32
  0
VERTEX
  8
0
  5
12F2C
 10
66.4406
 20
281.814
 30
0.000000
  70
    32
  0
VERTEX
  8
0
  5
12F2D
 10
66.4389
 20
281.811
 30
0.000000
  70
    32
  0
VERTEX
  8
0
  5
12F2E
 10
66.4373
 20
281.807
 30
0.000000
  70
    32
  0
VERTEX
  8
0
  5
12F2F
 10
66.4357
 20
281.803
 30
0.000000
  70
    32
  0
VERTEX
  8
0
  5
12F30
 10
66.4342
 20
281.800
 30
0.000000
  70
    32
  0
VERTEX
  8
0
  5
12F31
 10
66.4326
 20
281.796
 30
0.000000
  70
    32
  0
VERTEX
  8
0
  5
12F32
 10
66.4311
 20
281.792
 30
0.000000
  70
    32
  0
VERTEX
  8
0
  5
12F33
 10
66.4297
 20
281.789
 30
0.000000
  70
    32
  0
VERTEX
  8
0
  5
12F34
 10
66.4283
 20
281.785
 30
0.000000
  70
    32
  0
VERTEX
  8
0
  5
12F35
 10
66.4269
 20
281.782
 30
0.000000
  70
    32
  0
VERTEX
  8
0
  5
12F36
 10
66.4255
 20
281.778
 30
0.000000
  70
    32
  0
VERTEX
  8
0
  5
12F37
 10
66.4242
 20
281.774
 30
0.000000
  70
    32
  0
VERTEX
  8
0
  5
12F38
 10
66.4229
 20
281.771
 30
0.000000
  70
    32
  0
VERTEX
  8
0
  5
12F39
 10
66.4217
 20
281.767
 30
0.000000
  70
    32
  0
VERTEX
  8
0
  5
12F3A
 10
66.4204
 20
281.763
 30
0.000000
  70
    32
  0
VERTEX
  8
0
  5
12F3B
 10
66.4192
 20
281.760
 30
0.000000
  70
    32
  0
VERTEX
  8
0
  5
12F3C
 10
66.4181
 20
281.756
 30
0.000000
  70
    32
  0
VERTEX
  8
0
  5
12F3D
 10
66.4169
 20
281.753
 30
0.000000
  70
    32
  0
VERTEX
  8
0
  5
12F3E
 10
66.4158
 20
281.749
 30
0.000000
  70
    32
  0
VERTEX
  8
0
  5
12F3F
 10
66.4148
 20
281.745
 30
0.000000
  70
    32
  0
VERTEX
  8
0
  5
12F40
 10
66.4138
 20
281.742
 30
0.000000
  70
    32
  0
VERTEX
  8
0
  5
12F41
 10
66.4128
 20
281.738
 30
0.000000
  70
    32
  0
VERTEX
  8
0
  5
12F42
 10
66.4118
 20
281.734
 30
0.000000
  70
    32
  0
VERTEX
  8
0
  5
12F43
 10
66.4109
 20
281.731
 30
0.000000
  70
    32
  0
VERTEX
  8
0
  5
12F44
 10
66.4100
 20
281.727
 30
0.000000
  70
    32
  0
VERTEX
  8
0
  5
12F45
 10
66.4091
 20
281.724
 30
0.000000
  70
    32
  0
VERTEX
  8
0
  5
12F46
 10
66.4083
 20
281.720
 30
0.000000
  70
    32
  0
VERTEX
  8
0
  5
12F47
 10
66.4075
 20
281.716
 30
0.000000
  70
    32
  0
VERTEX
  8
0
  5
12F48
 10
66.4067
 20
281.713
 30
0.000000
  70
    32
  0
VERTEX
  8
0
  5
12F49
 10
66.4059
 20
281.709
 30
0.000000
  70
    32
  0
VERTEX
  8
0
  5
12F4A
 10
66.4052
 20
281.705
 30
0.000000
  70
    32
  0
VERTEX
  8
0
  5
12F4B
 10
66.4046
 20
281.702
 30
0.000000
  70
    32
  0
VERTEX
  8
0
  5
12F4C
 10
66.4039
 20
281.698
 30
0.000000
  70
    32
  0
VERTEX
  8
0
  5
12F4D
 10
66.4033
 20
281.695
 30
0.000000
  70
    32
  0
VERTEX
  8
0
  5
12F4E
 10
66.4028
 20
281.691
 30
0.000000
  70
    32
  0
VERTEX
  8
0
  5
12F4F
 10
66.4022
 20
281.687
 30
0.000000
  70
    32
  0
VERTEX
  8
0
  5
12F50
 10
66.4017
 20
281.684
 30
0.000000
  70
    32
  0
VERTEX
  8
0
  5
12F51
 10
66.4012
 20
281.680
 30
0.000000
  70
    32
  0
VERTEX
  8
0
  5
12F52
 10
66.4008
 20
281.676
 30
0.000000
  70
    32
  0
VERTEX
  8
0
  5
12F53
 10
66.4004
 20
281.673
 30
0.000000
  70
    32
  0
VERTEX
  8
0
  5
12F54
 10
66.4000
 20
281.669
 30
0.000000
  70
    32
  0
VERTEX
  8
0
  5
12F55
 10
66.3997
 20
281.665
 30
0.000000
  70
    32
  0
VERTEX
  8
0
  5
12F56
 10
66.3994
 20
281.662
 30
0.000000
  70
    32
  0
VERTEX
  8
0
  5
12F57
 10
66.3991
 20
281.658
 30
0.000000
  70
    32
  0
VERTEX
  8
0
  5
12F58
 10
66.3988
 20
281.655
 30
0.000000
  70
    32
  0
VERTEX
  8
0
  5
12F59
 10
66.3986
 20
281.651
 30
0.000000
  70
    32
  0
VERTEX
  8
0
  5
12F5A
 10
66.3984
 20
281.647
 30
0.000000
  70
    32
  0
VERTEX
  8
0
  5
12F5B
 10
66.3983
 20
281.644
 30
0.000000
  70
    32
  0
VERTEX
  8
0
  5
12F5C
 10
66.3982
 20
281.640
 30
0.000000
  70
    32
  0
VERTEX
  8
0
  5
12F5D
 10
66.3981
 20
281.636
 30
0.000000
  70
    32
  0
VERTEX
  8
0
  5
12F5E
 10
66.3980
 20
281.633
 30
0.000000
  70
    32
  0
VERTEX
  8
0
  5
12F5F
 10
66.3980
 20
281.629
 30
0.000000
  70
    32
  0
SEQEND
  8
0
  5
12F60
  0
LINE
  5
124A4
  8
0
 10
66.398028912167774
 20
253.27640045721321
 30
0.0
 11
66.398028912167092
 21
281.62906337816497
 31
0.0
  0
LINE
  5
124A5
  8
0
 10
62.898028338472614
 20
281.62906337816497
 30
0.0
 11
62.898028338472614
 21
247.7763967617251
 31
0.0
  0
POLYLINE
  5
124A6
  8
0
 10
90.898028770606217
 20
281.62906631142209
 30
0.0
 66
     1
 70
     8
  0
VERTEX
  8
0
  5
12F61
 10
90.8980
 20
281.629
 30
0.000000
  70
    32
  0
VERTEX
  8
0
  5
12F62
 10
90.8980
 20
281.633
 30
0.000000
  70
    32
  0
VERTEX
  8
0
  5
12F63
 10
90.8980
 20
281.636
 30
0.000000
  70
    32
  0
VERTEX
  8
0
  5
12F64
 10
90.8979
 20
281.640
 30
0.000000
  70
    32
  0
VERTEX
  8
0
  5
12F65
 10
90.8979
 20
281.643
 30
0.000000
  70
    32
  0
VERTEX
  8
0
  5
12F66
 10
90.8978
 20
281.647
 30
0.000000
  70
    32
  0
VERTEX
  8
0
  5
12F67
 10
90.8977
 20
281.651
 30
0.000000
  70
    32
  0
VERTEX
  8
0
  5
12F68
 10
90.8975
 20
281.654
 30
0.000000
  70
    32
  0
VERTEX
  8
0
  5
12F69
 10
90.8974
 20
281.658
 30
0.000000
  70
    32
  0
VERTEX
  8
0
  5
12F6A
 10
90.8972
 20
281.662
 30
0.000000
  70
    32
  0
VERTEX
  8
0
  5
12F6B
 10
90.8970
 20
281.665
 30
0.000000
  70
    32
  0
VERTEX
  8
0
  5
12F6C
 10
90.8968
 20
281.669
 30
0.000000
  70
    32
  0
VERTEX
  8
0
  5
12F6D
 10
90.8965
 20
281.672
 30
0.000000
  70
    32
  0
VERTEX
  8
0
  5
12F6E
 10
90.8963
 20
281.676
 30
0.000000
  70
    32
  0
VERTEX
  8
0
  5
12F6F
 10
90.8960
 20
281.680
 30
0.000000
  70
    32
  0
VERTEX
  8
0
  5
12F70
 10
90.8957
 20
281.683
 30
0.000000
  70
    32
  0
VERTEX
  8
0
  5
12F71
 10
90.8953
 20
281.687
 30
0.000000
  70
    32
  0
VERTEX
  8
0
  5
12F72
 10
90.8950
 20
281.690
 30
0.000000
  70
    32
  0
VERTEX
  8
0
  5
12F73
 10
90.8946
 20
281.694
 30
0.000000
  70
    32
  0
VERTEX
  8
0
  5
12F74
 10
90.8942
 20
281.698
 30
0.000000
  70
    32
  0
VERTEX
  8
0
  5
12F75
 10
90.8938
 20
281.701
 30
0.000000
  70
    32
  0
VERTEX
  8
0
  5
12F76
 10
90.8934
 20
281.705
 30
0.000000
  70
    32
  0
VERTEX
  8
0
  5
12F77
 10
90.8930
 20
281.708
 30
0.000000
  70
    32
  0
VERTEX
  8
0
  5
12F78
 10
90.8925
 20
281.712
 30
0.000000
  70
    32
  0
VERTEX
  8
0
  5
12F79
 10
90.8920
 20
281.716
 30
0.000000
  70
    32
  0
VERTEX
  8
0
  5
12F7A
 10
90.8915
 20
281.719
 30
0.000000
  70
    32
  0
VERTEX
  8
0
  5
12F7B
 10
90.8910
 20
281.723
 30
0.000000
  70
    32
  0
VERTEX
  8
0
  5
12F7C
 10
90.8904
 20
281.726
 30
0.000000
  70
    32
  0
VERTEX
  8
0
  5
12F7D
 10
90.8898
 20
281.730
 30
0.000000
  70
    32
  0
VERTEX
  8
0
  5
12F7E
 10
90.8892
 20
281.734
 30
0.000000
  70
    32
  0
VERTEX
  8
0
  5
12F7F
 10
90.8886
 20
281.737
 30
0.000000
  70
    32
  0
VERTEX
  8
0
  5
12F80
 10
90.8880
 20
281.741
 30
0.000000
  70
    32
  0
VERTEX
  8
0
  5
12F81
 10
90.8873
 20
281.744
 30
0.000000
  70
    32
  0
VERTEX
  8
0
  5
12F82
 10
90.8866
 20
281.748
 30
0.000000
  70
    32
  0
VERTEX
  8
0
  5
12F83
 10
90.8859
 20
281.752
 30
0.000000
  70
    32
  0
VERTEX
  8
0
  5
12F84
 10
90.8852
 20
281.755
 30
0.000000
  70
    32
  0
VERTEX
  8
0
  5
12F85
 10
90.8845
 20
281.759
 30
0.000000
  70
    32
  0
VERTEX
  8
0
  5
12F86
 10
90.8837
 20
281.762
 30
0.000000
  70
    32
  0
VERTEX
  8
0
  5
12F87
 10
90.8829
 20
281.766
 30
0.000000
  70
    32
  0
VERTEX
  8
0
  5
12F88
 10
90.8821
 20
281.770
 30
0.000000
  70
    32
  0
VERTEX
  8
0
  5
12F89
 10
90.8813
 20
281.773
 30
0.000000
  70
    32
  0
VERTEX
  8
0
  5
12F8A
 10
90.8804
 20
281.777
 30
0.000000
  70
    32
  0
VERTEX
  8
0
  5
12F8B
 10
90.8796
 20
281.781
 30
0.000000
  70
    32
  0
VERTEX
  8
0
  5
12F8C
 10
90.8787
 20
281.784
 30
0.000000
  70
    32
  0
VERTEX
  8
0
  5
12F8D
 10
90.8778
 20
281.788
 30
0.000000
  70
    32
  0
VERTEX
  8
0
  5
12F8E
 10
90.8768
 20
281.791
 30
0.000000
  70
    32
  0
VERTEX
  8
0
  5
12F8F
 10
90.8759
 20
281.795
 30
0.000000
  70
    32
  0
VERTEX
  8
0
  5
12F90
 10
90.8749
 20
281.799
 30
0.000000
  70
    32
  0
VERTEX
  8
0
  5
12F91
 10
90.8739
 20
281.802
 30
0.000000
  70
    32
  0
VERTEX
  8
0
  5
12F92
 10
90.8729
 20
281.806
 30
0.000000
  70
    32
  0
VERTEX
  8
0
  5
12F93
 10
90.8719
 20
281.809
 30
0.000000
  70
    32
  0
VERTEX
  8
0
  5
12F94
 10
90.8708
 20
281.813
 30
0.000000
  70
    32
  0
VERTEX
  8
0
  5
12F95
 10
90.8697
 20
281.816
 30
0.000000
  70
    32
  0
VERTEX
  8
0
  5
12F96
 10
90.8686
 20
281.820
 30
0.000000
  70
    32
  0
VERTEX
  8
0
  5
12F97
 10
90.8675
 20
281.824
 30
0.000000
  70
    32
  0
VERTEX
  8
0
  5
12F98
 10
90.8664
 20
281.827
 30
0.000000
  70
    32
  0
VERTEX
  8
0
  5
12F99
 10
90.8652
 20
281.831
 30
0.000000
  70
    32
  0
VERTEX
  8
0
  5
12F9A
 10
90.8640
 20
281.834
 30
0.000000
  70
    32
  0
VERTEX
  8
0
  5
12F9B
 10
90.8628
 20
281.838
 30
0.000000
  70
    32
  0
VERTEX
  8
0
  5
12F9C
 10
90.8616
 20
281.842
 30
0.000000
  70
    32
  0
VERTEX
  8
0
  5
12F9D
 10
90.8604
 20
281.845
 30
0.000000
  70
    32
  0
VERTEX
  8
0
  5
12F9E
 10
90.8591
 20
281.849
 30
0.000000
  70
    32
  0
VERTEX
  8
0
  5
12F9F
 10
90.8578
 20
281.852
 30
0.000000
  70
    32
  0
VERTEX
  8
0
  5
12FA0
 10
90.8565
 20
281.856
 30
0.000000
  70
    32
  0
VERTEX
  8
0
  5
12FA1
 10
90.8552
 20
281.860
 30
0.000000
  70
    32
  0
VERTEX
  8
0
  5
12FA2
 10
90.8538
 20
281.863
 30
0.000000
  70
    32
  0
VERTEX
  8
0
  5
12FA3
 10
90.8525
 20
281.867
 30
0.000000
  70
    32
  0
VERTEX
  8
0
  5
12FA4
 10
90.8511
 20
281.870
 30
0.000000
  70
    32
  0
VERTEX
  8
0
  5
12FA5
 10
90.8497
 20
281.874
 30
0.000000
  70
    32
  0
VERTEX
  8
0
  5
12FA6
 10
90.8482
 20
281.878
 30
0.000000
  70
    32
  0
VERTEX
  8
0
  5
12FA7
 10
90.8468
 20
281.881
 30
0.000000
  70
    32
  0
VERTEX
  8
0
  5
12FA8
 10
90.8453
 20
281.885
 30
0.000000
  70
    32
  0
VERTEX
  8
0
  5
12FA9
 10
90.8438
 20
281.888
 30
0.000000
  70
    32
  0
VERTEX
  8
0
  5
12FAA
 10
90.8423
 20
281.892
 30
0.000000
  70
    32
  0
VERTEX
  8
0
  5
12FAB
 10
90.8408
 20
281.896
 30
0.000000
  70
    32
  0
VERTEX
  8
0
  5
12FAC
 10
90.8392
 20
281.899
 30
0.000000
  70
    32
  0
VERTEX
  8
0
  5
12FAD
 10
90.8376
 20
281.903
 30
0.000000
  70
    32
  0
VERTEX
  8
0
  5
12FAE
 10
90.8360
 20
281.906
 30
0.000000
  70
    32
  0
VERTEX
  8
0
  5
12FAF
 10
90.8344
 20
281.910
 30
0.000000
  70
    32
  0
VERTEX
  8
0
  5
12FB0
 10
90.8328
 20
281.913
 30
0.000000
  70
    32
  0
VERTEX
  8
0
  5
12FB1
 10
90.8311
 20
281.917
 30
0.000000
  70
    32
  0
VERTEX
  8
0
  5
12FB2
 10
90.8294
 20
281.921
 30
0.000000
  70
    32
  0
VERTEX
  8
0
  5
12FB3
 10
90.8277
 20
281.924
 30
0.000000
  70
    32
  0
VERTEX
  8
0
  5
12FB4
 10
90.8260
 20
281.928
 30
0.000000
  70
    32
  0
VERTEX
  8
0
  5
12FB5
 10
90.8242
 20
281.931
 30
0.000000
  70
    32
  0
VERTEX
  8
0
  5
12FB6
 10
90.8225
 20
281.935
 30
0.000000
  70
    32
  0
VERTEX
  8
0
  5
12FB7
 10
90.8207
 20
281.939
 30
0.000000
  70
    32
  0
VERTEX
  8
0
  5
12FB8
 10
90.8189
 20
281.942
 30
0.000000
  70
    32
  0
VERTEX
  8
0
  5
12FB9
 10
90.8171
 20
281.946
 30
0.000000
  70
    32
  0
VERTEX
  8
0
  5
12FBA
 10
90.8152
 20
281.949
 30
0.000000
  70
    32
  0
VERTEX
  8
0
  5
12FBB
 10
90.8133
 20
281.953
 30
0.000000
  70
    32
  0
VERTEX
  8
0
  5
12FBC
 10
90.8115
 20
281.956
 30
0.000000
  70
    32
  0
VERTEX
  8
0
  5
12FBD
 10
90.8095
 20
281.960
 30
0.000000
  70
    32
  0
VERTEX
  8
0
  5
12FBE
 10
90.8076
 20
281.964
 30
0.000000
  70
    32
  0
VERTEX
  8
0
  5
12FBF
 10
90.8057
 20
281.967
 30
0.000000
  70
    32
  0
VERTEX
  8
0
  5
12FC0
 10
90.8037
 20
281.971
 30
0.000000
  70
    32
  0
VERTEX
  8
0
  5
12FC1
 10
90.8017
 20
281.974
 30
0.000000
  70
    32
  0
VERTEX
  8
0
  5
12FC2
 10
90.7997
 20
281.978
 30
0.000000
  70
    32
  0
VERTEX
  8
0
  5
12FC3
 10
90.7977
 20
281.981
 30
0.000000
  70
    32
  0
VERTEX
  8
0
  5
12FC4
 10
90.7956
 20
281.985
 30
0.000000
  70
    32
  0
VERTEX
  8
0
  5
12FC5
 10
90.7935
 20
281.989
 30
0.000000
  70
    32
  0
VERTEX
  8
0
  5
12FC6
 10
90.7914
 20
281.992
 30
0.000000
  70
    32
  0
VERTEX
  8
0
  5
12FC7
 10
90.7893
 20
281.996
 30
0.000000
  70
    32
  0
VERTEX
  8
0
  5
12FC8
 10
90.7872
 20
281.999
 30
0.000000
  70
    32
  0
VERTEX
  8
0
  5
12FC9
 10
90.7850
 20
282.003
 30
0.000000
  70
    32
  0
VERTEX
  8
0
  5
12FCA
 10
90.7828
 20
282.006
 30
0.000000
  70
    32
  0
VERTEX
  8
0
  5
12FCB
 10
90.7806
 20
282.010
 30
0.000000
  70
    32
  0
VERTEX
  8
0
  5
12FCC
 10
90.7784
 20
282.014
 30
0.000000
  70
    32
  0
VERTEX
  8
0
  5
12FCD
 10
90.7762
 20
282.017
 30
0.000000
  70
    32
  0
VERTEX
  8
0
  5
12FCE
 10
90.7739
 20
282.021
 30
0.000000
  70
    32
  0
VERTEX
  8
0
  5
12FCF
 10
90.7716
 20
282.024
 30
0.000000
  70
    32
  0
VERTEX
  8
0
  5
12FD0
 10
90.7693
 20
282.028
 30
0.000000
  70
    32
  0
VERTEX
  8
0
  5
12FD1
 10
90.7670
 20
282.031
 30
0.000000
  70
    32
  0
VERTEX
  8
0
  5
12FD2
 10
90.7646
 20
282.035
 30
0.000000
  70
    32
  0
VERTEX
  8
0
  5
12FD3
 10
90.7623
 20
282.038
 30
0.000000
  70
    32
  0
VERTEX
  8
0
  5
12FD4
 10
90.7599
 20
282.042
 30
0.000000
  70
    32
  0
VERTEX
  8
0
  5
12FD5
 10
90.7575
 20
282.046
 30
0.000000
  70
    32
  0
VERTEX
  8
0
  5
12FD6
 10
90.7551
 20
282.049
 30
0.000000
  70
    32
  0
VERTEX
  8
0
  5
12FD7
 10
90.7526
 20
282.053
 30
0.000000
  70
    32
  0
VERTEX
  8
0
  5
12FD8
 10
90.7501
 20
282.056
 30
0.000000
  70
    32
  0
VERTEX
  8
0
  5
12FD9
 10
90.7477
 20
282.060
 30
0.000000
  70
    32
  0
VERTEX
  8
0
  5
12FDA
 10
90.7451
 20
282.063
 30
0.000000
  70
    32
  0
VERTEX
  8
0
  5
12FDB
 10
90.7426
 20
282.067
 30
0.000000
  70
    32
  0
VERTEX
  8
0
  5
12FDC
 10
90.7401
 20
282.070
 30
0.000000
  70
    32
  0
VERTEX
  8
0
  5
12FDD
 10
90.7375
 20
282.074
 30
0.000000
  70
    32
  0
VERTEX
  8
0
  5
12FDE
 10
90.7349
 20
282.078
 30
0.000000
  70
    32
  0
VERTEX
  8
0
  5
12FDF
 10
90.7323
 20
282.081
 30
0.000000
  70
    32
  0
VERTEX
  8
0
  5
12FE0
 10
90.7296
 20
282.085
 30
0.000000
  70
    32
  0
VERTEX
  8
0
  5
12FE1
 10
90.7270
 20
282.088
 30
0.000000
  70
    32
  0
SEQEND
  8
0
  5
12FE2
  0
POLYLINE
  5
124A7
  8
0
 10
87.398028770606047
 20
281.62906631142209
 30
0.0
 66
     1
 70
     8
  0
VERTEX
  8
0
  5
12FE3
 10
87.3980
 20
281.629
 30
0.000000
  70
    32
  0
VERTEX
  8
0
  5
12FE4
 10
87.3980
 20
281.633
 30
0.000000
  70
    32
  0
VERTEX
  8
0
  5
12FE5
 10
87.3980
 20
281.636
 30
0.000000
  70
    32
  0
VERTEX
  8
0
  5
12FE6
 10
87.3979
 20
281.640
 30
0.000000
  70
    32
  0
VERTEX
  8
0
  5
12FE7
 10
87.3978
 20
281.644
 30
0.000000
  70
    32
  0
VERTEX
  8
0
  5
12FE8
 10
87.3976
 20
281.647
 30
0.000000
  70
    32
  0
VERTEX
  8
0
  5
12FE9
 10
87.3974
 20
281.651
 30
0.000000
  70
    32
  0
VERTEX
  8
0
  5
12FEA
 10
87.3972
 20
281.655
 30
0.000000
  70
    32
  0
VERTEX
  8
0
  5
12FEB
 10
87.3970
 20
281.658
 30
0.000000
  70
    32
  0
VERTEX
  8
0
  5
12FEC
 10
87.3967
 20
281.662
 30
0.000000
  70
    32
  0
VERTEX
  8
0
  5
12FED
 10
87.3964
 20
281.665
 30
0.000000
  70
    32
  0
VERTEX
  8
0
  5
12FEE
 10
87.3960
 20
281.669
 30
0.000000
  70
    32
  0
VERTEX
  8
0
  5
12FEF
 10
87.3957
 20
281.673
 30
0.000000
  70
    32
  0
VERTEX
  8
0
  5
12FF0
 10
87.3953
 20
281.676
 30
0.000000
  70
    32
  0
VERTEX
  8
0
  5
12FF1
 10
87.3948
 20
281.680
 30
0.000000
  70
    32
  0
VERTEX
  8
0
  5
12FF2
 10
87.3943
 20
281.684
 30
0.000000
  70
    32
  0
VERTEX
  8
0
  5
12FF3
 10
87.3938
 20
281.687
 30
0.000000
  70
    32
  0
VERTEX
  8
0
  5
12FF4
 10
87.3933
 20
281.691
 30
0.000000
  70
    32
  0
VERTEX
  8
0
  5
12FF5
 10
87.3927
 20
281.695
 30
0.000000
  70
    32
  0
VERTEX
  8
0
  5
12FF6
 10
87.3921
 20
281.698
 30
0.000000
  70
    32
  0
VERTEX
  8
0
  5
12FF7
 10
87.3915
 20
281.702
 30
0.000000
  70
    32
  0
VERTEX
  8
0
  5
12FF8
 10
87.3908
 20
281.705
 30
0.000000
  70
    32
  0
VERTEX
  8
0
  5
12FF9
 10
87.3901
 20
281.709
 30
0.000000
  70
    32
  0
VERTEX
  8
0
  5
12FFA
 10
87.3894
 20
281.713
 30
0.000000
  70
    32
  0
VERTEX
  8
0
  5
12FFB
 10
87.3886
 20
281.716
 30
0.000000
  70
    32
  0
VERTEX
  8
0
  5
12FFC
 10
87.3878
 20
281.720
 30
0.000000
  70
    32
  0
VERTEX
  8
0
  5
12FFD
 10
87.3870
 20
281.724
 30
0.000000
  70
    32
  0
VERTEX
  8
0
  5
12FFE
 10
87.3861
 20
281.727
 30
0.000000
  70
    32
  0
VERTEX
  8
0
  5
12FFF
 10
87.3852
 20
281.731
 30
0.000000
  70
    32
  0
VERTEX
  8
0
  5
13000
 10
87.3843
 20
281.734
 30
0.000000
  70
    32
  0
VERTEX
  8
0
  5
13001
 10
87.3833
 20
281.738
 30
0.000000
  70
    32
  0
VERTEX
  8
0
  5
13002
 10
87.3823
 20
281.742
 30
0.000000
  70
    32
  0
VERTEX
  8
0
  5
13003
 10
87.3813
 20
281.745
 30
0.000000
  70
    32
  0
VERTEX
  8
0
  5
13004
 10
87.3802
 20
281.749
 30
0.000000
  70
    32
  0
VERTEX
  8
0
  5
13005
 10
87.3791
 20
281.753
 30
0.000000
  70
    32
  0
VERTEX
  8
0
  5
13006
 10
87.3780
 20
281.756
 30
0.000000
  70
    32
  0
VERTEX
  8
0
  5
13007
 10
87.3768
 20
281.760
 30
0.000000
  70
    32
  0
VERTEX
  8
0
  5
13008
 10
87.3756
 20
281.763
 30
0.000000
  70
    32
  0
VERTEX
  8
0
  5
13009
 10
87.3744
 20
281.767
 30
0.000000
  70
    32
  0
VERTEX
  8
0
  5
1300A
 10
87.3731
 20
281.771
 30
0.000000
  70
    32
  0
VERTEX
  8
0
  5
1300B
 10
87.3719
 20
281.774
 30
0.000000
  70
    32
  0
VERTEX
  8
0
  5
1300C
 10
87.3705
 20
281.778
 30
0.000000
  70
    32
  0
VERTEX
  8
0
  5
1300D
 10
87.3692
 20
281.782
 30
0.000000
  70
    32
  0
VERTEX
  8
0
  5
1300E
 10
87.3678
 20
281.785
 30
0.000000
  70
    32
  0
VERTEX
  8
0
  5
1300F
 10
87.3664
 20
281.789
 30
0.000000
  70
    32
  0
VERTEX
  8
0
  5
13010
 10
87.3649
 20
281.792
 30
0.000000
  70
    32
  0
VERTEX
  8
0
  5
13011
 10
87.3634
 20
281.796
 30
0.000000
  70
    32
  0
VERTEX
  8
0
  5
13012
 10
87.3619
 20
281.800
 30
0.000000
  70
    32
  0
VERTEX
  8
0
  5
13013
 10
87.3604
 20
281.803
 30
0.000000
  70
    32
  0
VERTEX
  8
0
  5
13014
 10
87.3588
 20
281.807
 30
0.000000
  70
    32
  0
VERTEX
  8
0
  5
13015
 10
87.3572
 20
281.811
 30
0.000000
  70
    32
  0
VERTEX
  8
0
  5
13016
 10
87.3555
 20
281.814
 30
0.000000
  70
    32
  0
VERTEX
  8
0
  5
13017
 10
87.3538
 20
281.818
 30
0.000000
  70
    32
  0
VERTEX
  8
0
  5
13018
 10
87.3521
 20
281.821
 30
0.000000
  70
    32
  0
VERTEX
  8
0
  5
13019
 10
87.3504
 20
281.825
 30
0.000000
  70
    32
  0
VERTEX
  8
0
  5
1301A
 10
87.3486
 20
281.829
 30
0.000000
  70
    32
  0
VERTEX
  8
0
  5
1301B
 10
87.3468
 20
281.832
 30
0.000000
  70
    32
  0
VERTEX
  8
0
  5
1301C
 10
87.3449
 20
281.836
 30
0.000000
  70
    32
  0
VERTEX
  8
0
  5
1301D
 10
87.3430
 20
281.839
 30
0.000000
  70
    32
  0
VERTEX
  8
0
  5
1301E
 10
87.3411
 20
281.843
 30
0.000000
  70
    32
  0
VERTEX
  8
0
  5
1301F
 10
87.3392
 20
281.847
 30
0.000000
  70
    32
  0
VERTEX
  8
0
  5
13020
 10
87.3372
 20
281.850
 30
0.000000
  70
    32
  0
VERTEX
  8
0
  5
13021
 10
87.3352
 20
281.854
 30
0.000000
  70
    32
  0
VERTEX
  8
0
  5
13022
 10
87.3332
 20
281.857
 30
0.000000
  70
    32
  0
VERTEX
  8
0
  5
13023
 10
87.3311
 20
281.861
 30
0.000000
  70
    32
  0
VERTEX
  8
0
  5
13024
 10
87.3290
 20
281.865
 30
0.000000
  70
    32
  0
VERTEX
  8
0
  5
13025
 10
87.3269
 20
281.868
 30
0.000000
  70
    32
  0
VERTEX
  8
0
  5
13026
 10
87.3247
 20
281.872
 30
0.000000
  70
    32
  0
VERTEX
  8
0
  5
13027
 10
87.3225
 20
281.875
 30
0.000000
  70
    32
  0
VERTEX
  8
0
  5
13028
 10
87.3203
 20
281.879
 30
0.000000
  70
    32
  0
VERTEX
  8
0
  5
13029
 10
87.3180
 20
281.883
 30
0.000000
  70
    32
  0
VERTEX
  8
0
  5
1302A
 10
87.3157
 20
281.886
 30
0.000000
  70
    32
  0
VERTEX
  8
0
  5
1302B
 10
87.3134
 20
281.890
 30
0.000000
  70
    32
  0
VERTEX
  8
0
  5
1302C
 10
87.3110
 20
281.893
 30
0.000000
  70
    32
  0
VERTEX
  8
0
  5
1302D
 10
87.3086
 20
281.897
 30
0.000000
  70
    32
  0
VERTEX
  8
0
  5
1302E
 10
87.3062
 20
281.901
 30
0.000000
  70
    32
  0
VERTEX
  8
0
  5
1302F
 10
87.3037
 20
281.904
 30
0.000000
  70
    32
  0
VERTEX
  8
0
  5
13030
 10
87.3012
 20
281.908
 30
0.000000
  70
    32
  0
VERTEX
  8
0
  5
13031
 10
87.2987
 20
281.911
 30
0.000000
  70
    32
  0
VERTEX
  8
0
  5
13032
 10
87.2961
 20
281.915
 30
0.000000
  70
    32
  0
VERTEX
  8
0
  5
13033
 10
87.2936
 20
281.918
 30
0.000000
  70
    32
  0
VERTEX
  8
0
  5
13034
 10
87.2909
 20
281.922
 30
0.000000
  70
    32
  0
VERTEX
  8
0
  5
13035
 10
87.2883
 20
281.926
 30
0.000000
  70
    32
  0
VERTEX
  8
0
  5
13036
 10
87.2856
 20
281.929
 30
0.000000
  70
    32
  0
VERTEX
  8
0
  5
13037
 10
87.2829
 20
281.933
 30
0.000000
  70
    32
  0
VERTEX
  8
0
  5
13038
 10
87.2801
 20
281.936
 30
0.000000
  70
    32
  0
VERTEX
  8
0
  5
13039
 10
87.2773
 20
281.940
 30
0.000000
  70
    32
  0
VERTEX
  8
0
  5
1303A
 10
87.2745
 20
281.943
 30
0.000000
  70
    32
  0
VERTEX
  8
0
  5
1303B
 10
87.2717
 20
281.947
 30
0.000000
  70
    32
  0
VERTEX
  8
0
  5
1303C
 10
87.2688
 20
281.951
 30
0.000000
  70
    32
  0
VERTEX
  8
0
  5
1303D
 10
87.2659
 20
281.954
 30
0.000000
  70
    32
  0
VERTEX
  8
0
  5
1303E
 10
87.2630
 20
281.958
 30
0.000000
  70
    32
  0
VERTEX
  8
0
  5
1303F
 10
87.2600
 20
281.961
 30
0.000000
  70
    32
  0
VERTEX
  8
0
  5
13040
 10
87.2570
 20
281.965
 30
0.000000
  70
    32
  0
VERTEX
  8
0
  5
13041
 10
87.2539
 20
281.968
 30
0.000000
  70
    32
  0
VERTEX
  8
0
  5
13042
 10
87.2509
 20
281.972
 30
0.000000
  70
    32
  0
VERTEX
  8
0
  5
13043
 10
87.2478
 20
281.976
 30
0.000000
  70
    32
  0
VERTEX
  8
0
  5
13044
 10
87.2446
 20
281.979
 30
0.000000
  70
    32
  0
VERTEX
  8
0
  5
13045
 10
87.2415
 20
281.983
 30
0.000000
  70
    32
  0
VERTEX
  8
0
  5
13046
 10
87.2383
 20
281.986
 30
0.000000
  70
    32
  0
VERTEX
  8
0
  5
13047
 10
87.2350
 20
281.990
 30
0.000000
  70
    32
  0
VERTEX
  8
0
  5
13048
 10
87.2318
 20
281.993
 30
0.000000
  70
    32
  0
VERTEX
  8
0
  5
13049
 10
87.2285
 20
281.997
 30
0.000000
  70
    32
  0
VERTEX
  8
0
  5
1304A
 10
87.2251
 20
282.000
 30
0.000000
  70
    32
  0
VERTEX
  8
0
  5
1304B
 10
87.2218
 20
282.004
 30
0.000000
  70
    32
  0
VERTEX
  8
0
  5
1304C
 10
87.2184
 20
282.007
 30
0.000000
  70
    32
  0
VERTEX
  8
0
  5
1304D
 10
87.2150
 20
282.011
 30
0.000000
  70
    32
  0
VERTEX
  8
0
  5
1304E
 10
87.2115
 20
282.014
 30
0.000000
  70
    32
  0
VERTEX
  8
0
  5
1304F
 10
87.2080
 20
282.018
 30
0.000000
  70
    32
  0
VERTEX
  8
0
  5
13050
 10
87.2045
 20
282.022
 30
0.000000
  70
    32
  0
VERTEX
  8
0
  5
13051
 10
87.2010
 20
282.025
 30
0.000000
  70
    32
  0
VERTEX
  8
0
  5
13052
 10
87.1974
 20
282.029
 30
0.000000
  70
    32
  0
VERTEX
  8
0
  5
13053
 10
87.1938
 20
282.032
 30
0.000000
  70
    32
  0
VERTEX
  8
0
  5
13054
 10
87.1901
 20
282.036
 30
0.000000
  70
    32
  0
VERTEX
  8
0
  5
13055
 10
87.1865
 20
282.039
 30
0.000000
  70
    32
  0
VERTEX
  8
0
  5
13056
 10
87.1828
 20
282.043
 30
0.000000
  70
    32
  0
VERTEX
  8
0
  5
13057
 10
87.1790
 20
282.046
 30
0.000000
  70
    32
  0
VERTEX
  8
0
  5
13058
 10
87.1752
 20
282.050
 30
0.000000
  70
    32
  0
VERTEX
  8
0
  5
13059
 10
87.1714
 20
282.053
 30
0.000000
  70
    32
  0
VERTEX
  8
0
  5
1305A
 10
87.1676
 20
282.057
 30
0.000000
  70
    32
  0
VERTEX
  8
0
  5
1305B
 10
87.1637
 20
282.060
 30
0.000000
  70
    32
  0
VERTEX
  8
0
  5
1305C
 10
87.1599
 20
282.064
 30
0.000000
  70
    32
  0
VERTEX
  8
0
  5
1305D
 10
87.1559
 20
282.067
 30
0.000000
  70
    32
  0
VERTEX
  8
0
  5
1305E
 10
87.1520
 20
282.071
 30
0.000000
  70
    32
  0
VERTEX
  8
0
  5
1305F
 10
87.1480
 20
282.074
 30
0.000000
  70
    32
  0
VERTEX
  8
0
  5
13060
 10
87.1439
 20
282.078
 30
0.000000
  70
    32
  0
VERTEX
  8
0
  5
13061
 10
87.1399
 20
282.081
 30
0.000000
  70
    32
  0
VERTEX
  8
0
  5
13062
 10
87.1358
 20
282.085
 30
0.000000
  70
    32
  0
VERTEX
  8
0
  5
13063
 10
87.1317
 20
282.088
 30
0.000000
  70
    32
  0
SEQEND
  8
0
  5
13064
  0
LINE
  5
124A9
  8
0
 10
90.898029202739735
 20
281.62906337816497
 30
0.0
 11
90.898029202740645
 21
247.7763967617251
 31
0.0
  0
LINE
  5
124AA
  8
0
 10
87.398028629045257
 20
281.62906337816497
 30
0.0
 11
87.398028629045257
 21
253.27640045721321
 31
0.0
  0
LINE
  5
124AB
  8
0
 10
63.069064797977937
 20
282.08822775919219
 30
0.0
 11
63.469481350998421
 21
282.4297176702716
 31
0.0
  0
LINE
  5
124AC
  8
0
 10
66.664367610733052
 20
282.08822775919219
 30
0.0
 11
66.769472951213857
 21
282.16762859661372
 31
0.0
  0
LINE
  5
124AE
  8
0
 10
87.026584589998265
 20
282.16762859661372
 30
0.0
 11
87.131689930479055
 21
282.08822775919219
 31
0.0
  0
LINE
  5
124B0
  8
0
 10
90.326576190213686
 20
282.4297176702716
 30
0.0
 11
90.726992743234163
 21
282.08822775919219
 31
0.0
  0
POLYLINE
  5
124B1
  8
0
 10
66.362559222064874
 20
283.27639795143403
 30
0.0
 66
     1
 70
     8
  0
VERTEX
  8
0
  5
13065
 10
66.3626
 20
283.276
 30
0.000000
  70
    32
  0
VERTEX
  8
0
  5
13066
 10
66.3398
 20
283.276
 30
0.000000
  70
    32
  0
VERTEX
  8
0
  5
13067
 10
66.3170
 20
283.276
 30
0.000000
  70
    32
  0
VERTEX
  8
0
  5
13068
 10
66.2943
 20
283.276
 30
0.000000
  70
    32
  0
VERTEX
  8
0
  5
13069
 10
66.2715
 20
283.276
 30
0.000000
  70
    32
  0
VERTEX
  8
0
  5
1306A
 10
66.2487
 20
283.275
 30
0.000000
  70
    32
  0
VERTEX
  8
0
  5
1306B
 10
66.2260
 20
283.275
 30
0.000000
  70
    32
  0
VERTEX
  8
0
  5
1306C
 10
66.2032
 20
283.274
 30
0.000000
  70
    32
  0
VERTEX
  8
0
  5
1306D
 10
66.1805
 20
283.273
 30
0.000000
  70
    32
  0
VERTEX
  8
0
  5
1306E
 10
66.1577
 20
283.272
 30
0.000000
  70
    32
  0
VERTEX
  8
0
  5
1306F
 10
66.1349
 20
283.271
 30
0.000000
  70
    32
  0
VERTEX
  8
0
  5
13070
 10
66.1122
 20
283.270
 30
0.000000
  70
    32
  0
VERTEX
  8
0
  5
13071
 10
66.0894
 20
283.269
 30
0.000000
  70
    32
  0
VERTEX
  8
0
  5
13072
 10
66.0667
 20
283.268
 30
0.000000
  70
    32
  0
VERTEX
  8
0
  5
13073
 10
66.0439
 20
283.266
 30
0.000000
  70
    32
  0
VERTEX
  8
0
  5
13074
 10
66.0211
 20
283.265
 30
0.000000
  70
    32
  0
VERTEX
  8
0
  5
13075
 10
65.9984
 20
283.263
 30
0.000000
  70
    32
  0
VERTEX
  8
0
  5
13076
 10
65.9756
 20
283.261
 30
0.000000
  70
    32
  0
VERTEX
  8
0
  5
13077
 10
65.9529
 20
283.260
 30
0.000000
  70
    32
  0
VERTEX
  8
0
  5
13078
 10
65.9301
 20
283.258
 30
0.000000
  70
    32
  0
VERTEX
  8
0
  5
13079
 10
65.9074
 20
283.256
 30
0.000000
  70
    32
  0
VERTEX
  8
0
  5
1307A
 10
65.8846
 20
283.254
 30
0.000000
  70
    32
  0
VERTEX
  8
0
  5
1307B
 10
65.8619
 20
283.251
 30
0.000000
  70
    32
  0
VERTEX
  8
0
  5
1307C
 10
65.8391
 20
283.249
 30
0.000000
  70
    32
  0
VERTEX
  8
0
  5
1307D
 10
65.8164
 20
283.247
 30
0.000000
  70
    32
  0
VERTEX
  8
0
  5
1307E
 10
65.7936
 20
283.244
 30
0.000000
  70
    32
  0
VERTEX
  8
0
  5
1307F
 10
65.7709
 20
283.241
 30
0.000000
  70
    32
  0
VERTEX
  8
0
  5
13080
 10
65.7482
 20
283.239
 30
0.000000
  70
    32
  0
VERTEX
  8
0
  5
13081
 10
65.7254
 20
283.236
 30
0.000000
  70
    32
  0
VERTEX
  8
0
  5
13082
 10
65.7027
 20
283.233
 30
0.000000
  70
    32
  0
VERTEX
  8
0
  5
13083
 10
65.6799
 20
283.230
 30
0.000000
  70
    32
  0
VERTEX
  8
0
  5
13084
 10
65.6572
 20
283.227
 30
0.000000
  70
    32
  0
VERTEX
  8
0
  5
13085
 10
65.6345
 20
283.223
 30
0.000000
  70
    32
  0
VERTEX
  8
0
  5
13086
 10
65.6117
 20
283.220
 30
0.000000
  70
    32
  0
VERTEX
  8
0
  5
13087
 10
65.5890
 20
283.216
 30
0.000000
  70
    32
  0
VERTEX
  8
0
  5
13088
 10
65.5663
 20
283.213
 30
0.000000
  70
    32
  0
VERTEX
  8
0
  5
13089
 10
65.5435
 20
283.209
 30
0.000000
  70
    32
  0
VERTEX
  8
0
  5
1308A
 10
65.5208
 20
283.205
 30
0.000000
  70
    32
  0
VERTEX
  8
0
  5
1308B
 10
65.4981
 20
283.202
 30
0.000000
  70
    32
  0
VERTEX
  8
0
  5
1308C
 10
65.4754
 20
283.198
 30
0.000000
  70
    32
  0
VERTEX
  8
0
  5
1308D
 10
65.4527
 20
283.193
 30
0.000000
  70
    32
  0
VERTEX
  8
0
  5
1308E
 10
65.4300
 20
283.189
 30
0.000000
  70
    32
  0
VERTEX
  8
0
  5
1308F
 10
65.4072
 20
283.185
 30
0.000000
  70
    32
  0
VERTEX
  8
0
  5
13090
 10
65.3845
 20
283.181
 30
0.000000
  70
    32
  0
VERTEX
  8
0
  5
13091
 10
65.3618
 20
283.176
 30
0.000000
  70
    32
  0
VERTEX
  8
0
  5
13092
 10
65.3391
 20
283.171
 30
0.000000
  70
    32
  0
VERTEX
  8
0
  5
13093
 10
65.3164
 20
283.167
 30
0.000000
  70
    32
  0
VERTEX
  8
0
  5
13094
 10
65.2937
 20
283.162
 30
0.000000
  70
    32
  0
VERTEX
  8
0
  5
13095
 10
65.2710
 20
283.157
 30
0.000000
  70
    32
  0
VERTEX
  8
0
  5
13096
 10
65.2483
 20
283.152
 30
0.000000
  70
    32
  0
VERTEX
  8
0
  5
13097
 10
65.2256
 20
283.147
 30
0.000000
  70
    32
  0
VERTEX
  8
0
  5
13098
 10
65.2030
 20
283.142
 30
0.000000
  70
    32
  0
VERTEX
  8
0
  5
13099
 10
65.1803
 20
283.136
 30
0.000000
  70
    32
  0
VERTEX
  8
0
  5
1309A
 10
65.1576
 20
283.131
 30
0.000000
  70
    32
  0
VERTEX
  8
0
  5
1309B
 10
65.1349
 20
283.125
 30
0.000000
  70
    32
  0
VERTEX
  8
0
  5
1309C
 10
65.1122
 20
283.120
 30
0.000000
  70
    32
  0
VERTEX
  8
0
  5
1309D
 10
65.0896
 20
283.114
 30
0.000000
  70
    32
  0
VERTEX
  8
0
  5
1309E
 10
65.0669
 20
283.108
 30
0.000000
  70
    32
  0
VERTEX
  8
0
  5
1309F
 10
65.0442
 20
283.102
 30
0.000000
  70
    32
  0
VERTEX
  8
0
  5
130A0
 10
65.0216
 20
283.096
 30
0.000000
  70
    32
  0
VERTEX
  8
0
  5
130A1
 10
64.9989
 20
283.090
 30
0.000000
  70
    32
  0
VERTEX
  8
0
  5
130A2
 10
64.9762
 20
283.084
 30
0.000000
  70
    32
  0
VERTEX
  8
0
  5
130A3
 10
64.9536
 20
283.077
 30
0.000000
  70
    32
  0
VERTEX
  8
0
  5
130A4
 10
64.9309
 20
283.071
 30
0.000000
  70
    32
  0
VERTEX
  8
0
  5
130A5
 10
64.9083
 20
283.064
 30
0.000000
  70
    32
  0
VERTEX
  8
0
  5
130A6
 10
64.8857
 20
283.057
 30
0.000000
  70
    32
  0
VERTEX
  8
0
  5
130A7
 10
64.8630
 20
283.051
 30
0.000000
  70
    32
  0
VERTEX
  8
0
  5
130A8
 10
64.8404
 20
283.044
 30
0.000000
  70
    32
  0
VERTEX
  8
0
  5
130A9
 10
64.8178
 20
283.037
 30
0.000000
  70
    32
  0
VERTEX
  8
0
  5
130AA
 10
64.7951
 20
283.030
 30
0.000000
  70
    32
  0
VERTEX
  8
0
  5
130AB
 10
64.7725
 20
283.023
 30
0.000000
  70
    32
  0
VERTEX
  8
0
  5
130AC
 10
64.7499
 20
283.015
 30
0.000000
  70
    32
  0
VERTEX
  8
0
  5
130AD
 10
64.7273
 20
283.008
 30
0.000000
  70
    32
  0
VERTEX
  8
0
  5
130AE
 10
64.7047
 20
283.000
 30
0.000000
  70
    32
  0
VERTEX
  8
0
  5
130AF
 10
64.6821
 20
282.993
 30
0.000000
  70
    32
  0
VERTEX
  8
0
  5
130B0
 10
64.6595
 20
282.985
 30
0.000000
  70
    32
  0
VERTEX
  8
0
  5
130B1
 10
64.6369
 20
282.977
 30
0.000000
  70
    32
  0
VERTEX
  8
0
  5
130B2
 10
64.6143
 20
282.969
 30
0.000000
  70
    32
  0
VERTEX
  8
0
  5
130B3
 10
64.5917
 20
282.961
 30
0.000000
  70
    32
  0
VERTEX
  8
0
  5
130B4
 10
64.5691
 20
282.953
 30
0.000000
  70
    32
  0
VERTEX
  8
0
  5
130B5
 10
64.5466
 20
282.945
 30
0.000000
  70
    32
  0
VERTEX
  8
0
  5
130B6
 10
64.5240
 20
282.937
 30
0.000000
  70
    32
  0
VERTEX
  8
0
  5
130B7
 10
64.5014
 20
282.928
 30
0.000000
  70
    32
  0
VERTEX
  8
0
  5
130B8
 10
64.4788
 20
282.920
 30
0.000000
  70
    32
  0
VERTEX
  8
0
  5
130B9
 10
64.4563
 20
282.911
 30
0.000000
  70
    32
  0
VERTEX
  8
0
  5
130BA
 10
64.4337
 20
282.902
 30
0.000000
  70
    32
  0
VERTEX
  8
0
  5
130BB
 10
64.4112
 20
282.893
 30
0.000000
  70
    32
  0
VERTEX
  8
0
  5
130BC
 10
64.3886
 20
282.885
 30
0.000000
  70
    32
  0
VERTEX
  8
0
  5
130BD
 10
64.3661
 20
282.875
 30
0.000000
  70
    32
  0
VERTEX
  8
0
  5
130BE
 10
64.3436
 20
282.866
 30
0.000000
  70
    32
  0
VERTEX
  8
0
  5
130BF
 10
64.3211
 20
282.857
 30
0.000000
  70
    32
  0
VERTEX
  8
0
  5
130C0
 10
64.2985
 20
282.848
 30
0.000000
  70
    32
  0
VERTEX
  8
0
  5
130C1
 10
64.2760
 20
282.838
 30
0.000000
  70
    32
  0
VERTEX
  8
0
  5
130C2
 10
64.2535
 20
282.829
 30
0.000000
  70
    32
  0
VERTEX
  8
0
  5
130C3
 10
64.2310
 20
282.819
 30
0.000000
  70
    32
  0
VERTEX
  8
0
  5
130C4
 10
64.2085
 20
282.809
 30
0.000000
  70
    32
  0
VERTEX
  8
0
  5
130C5
 10
64.1860
 20
282.799
 30
0.000000
  70
    32
  0
VERTEX
  8
0
  5
130C6
 10
64.1635
 20
282.789
 30
0.000000
  70
    32
  0
VERTEX
  8
0
  5
130C7
 10
64.1410
 20
282.779
 30
0.000000
  70
    32
  0
VERTEX
  8
0
  5
130C8
 10
64.1186
 20
282.769
 30
0.000000
  70
    32
  0
VERTEX
  8
0
  5
130C9
 10
64.0961
 20
282.759
 30
0.000000
  70
    32
  0
VERTEX
  8
0
  5
130CA
 10
64.0736
 20
282.749
 30
0.000000
  70
    32
  0
VERTEX
  8
0
  5
130CB
 10
64.0512
 20
282.738
 30
0.000000
  70
    32
  0
VERTEX
  8
0
  5
130CC
 10
64.0287
 20
282.727
 30
0.000000
  70
    32
  0
VERTEX
  8
0
  5
130CD
 10
64.0063
 20
282.717
 30
0.000000
  70
    32
  0
VERTEX
  8
0
  5
130CE
 10
63.9838
 20
282.706
 30
0.000000
  70
    32
  0
VERTEX
  8
0
  5
130CF
 10
63.9614
 20
282.695
 30
0.000000
  70
    32
  0
VERTEX
  8
0
  5
130D0
 10
63.9390
 20
282.684
 30
0.000000
  70
    32
  0
VERTEX
  8
0
  5
130D1
 10
63.9165
 20
282.673
 30
0.000000
  70
    32
  0
VERTEX
  8
0
  5
130D2
 10
63.8941
 20
282.662
 30
0.000000
  70
    32
  0
VERTEX
  8
0
  5
130D3
 10
63.8717
 20
282.651
 30
0.000000
  70
    32
  0
VERTEX
  8
0
  5
130D4
 10
63.8493
 20
282.639
 30
0.000000
  70
    32
  0
VERTEX
  8
0
  5
130D5
 10
63.8269
 20
282.628
 30
0.000000
  70
    32
  0
VERTEX
  8
0
  5
130D6
 10
63.8045
 20
282.616
 30
0.000000
  70
    32
  0
VERTEX
  8
0
  5
130D7
 10
63.7821
 20
282.604
 30
0.000000
  70
    32
  0
VERTEX
  8
0
  5
130D8
 10
63.7597
 20
282.592
 30
0.000000
  70
    32
  0
VERTEX
  8
0
  5
130D9
 10
63.7374
 20
282.581
 30
0.000000
  70
    32
  0
VERTEX
  8
0
  5
130DA
 10
63.7150
 20
282.569
 30
0.000000
  70
    32
  0
VERTEX
  8
0
  5
130DB
 10
63.6927
 20
282.556
 30
0.000000
  70
    32
  0
VERTEX
  8
0
  5
130DC
 10
63.6703
 20
282.544
 30
0.000000
  70
    32
  0
VERTEX
  8
0
  5
130DD
 10
63.6480
 20
282.532
 30
0.000000
  70
    32
  0
VERTEX
  8
0
  5
130DE
 10
63.6256
 20
282.520
 30
0.000000
  70
    32
  0
VERTEX
  8
0
  5
130DF
 10
63.6033
 20
282.507
 30
0.000000
  70
    32
  0
VERTEX
  8
0
  5
130E0
 10
63.5810
 20
282.494
 30
0.000000
  70
    32
  0
VERTEX
  8
0
  5
130E1
 10
63.5587
 20
282.482
 30
0.000000
  70
    32
  0
VERTEX
  8
0
  5
130E2
 10
63.5364
 20
282.469
 30
0.000000
  70
    32
  0
VERTEX
  8
0
  5
130E3
 10
63.5141
 20
282.456
 30
0.000000
  70
    32
  0
VERTEX
  8
0
  5
130E4
 10
63.4918
 20
282.443
 30
0.000000
  70
    32
  0
VERTEX
  8
0
  5
130E5
 10
63.4695
 20
282.430
 30
0.000000
  70
    32
  0
SEQEND
  8
0
  5
130E6
  0
LINE
  5
124B2
  8
0
 10
76.848028771869167
 20
283.27640164930608
 30
0.0
 11
66.362559491912862
 21
283.27640164930608
 31
0.0
  0
POLYLINE
  5
124B3
  8
0
 10
70.074690062023123
 20
283.27639795143403
 30
0.0
 66
     1
 70
     8
  0
VERTEX
  8
0
  5
130E7
 10
70.0747
 20
283.276
 30
0.000000
  70
    32
  0
VERTEX
  8
0
  5
130E8
 10
70.0486
 20
283.276
 30
0.000000
  70
    32
  0
VERTEX
  8
0
  5
130E9
 10
70.0226
 20
283.276
 30
0.000000
  70
    32
  0
VERTEX
  8
0
  5
130EA
 10
69.9965
 20
283.276
 30
0.000000
  70
    32
  0
VERTEX
  8
0
  5
130EB
 10
69.9704
 20
283.275
 30
0.000000
  70
    32
  0
VERTEX
  8
0
  5
130EC
 10
69.9444
 20
283.275
 30
0.000000
  70
    32
  0
VERTEX
  8
0
  5
130ED
 10
69.9183
 20
283.274
 30
0.000000
  70
    32
  0
VERTEX
  8
0
  5
130EE
 10
69.8923
 20
283.273
 30
0.000000
  70
    32
  0
VERTEX
  8
0
  5
130EF
 10
69.8662
 20
283.272
 30
0.000000
  70
    32
  0
VERTEX
  8
0
  5
130F0
 10
69.8401
 20
283.271
 30
0.000000
  70
    32
  0
VERTEX
  8
0
  5
130F1
 10
69.8141
 20
283.270
 30
0.000000
  70
    32
  0
VERTEX
  8
0
  5
130F2
 10
69.7880
 20
283.268
 30
0.000000
  70
    32
  0
VERTEX
  8
0
  5
130F3
 10
69.7620
 20
283.267
 30
0.000000
  70
    32
  0
VERTEX
  8
0
  5
130F4
 10
69.7359
 20
283.265
 30
0.000000
  70
    32
  0
VERTEX
  8
0
  5
130F5
 10
69.7098
 20
283.263
 30
0.000000
  70
    32
  0
VERTEX
  8
0
  5
130F6
 10
69.6838
 20
283.261
 30
0.000000
  70
    32
  0
VERTEX
  8
0
  5
130F7
 10
69.6577
 20
283.259
 30
0.000000
  70
    32
  0
VERTEX
  8
0
  5
130F8
 10
69.6317
 20
283.257
 30
0.000000
  70
    32
  0
VERTEX
  8
0
  5
130F9
 10
69.6056
 20
283.254
 30
0.000000
  70
    32
  0
VERTEX
  8
0
  5
130FA
 10
69.5796
 20
283.252
 30
0.000000
  70
    32
  0
VERTEX
  8
0
  5
130FB
 10
69.5535
 20
283.249
 30
0.000000
  70
    32
  0
VERTEX
  8
0
  5
130FC
 10
69.5275
 20
283.246
 30
0.000000
  70
    32
  0
VERTEX
  8
0
  5
130FD
 10
69.5015
 20
283.243
 30
0.000000
  70
    32
  0
VERTEX
  8
0
  5
130FE
 10
69.4754
 20
283.240
 30
0.000000
  70
    32
  0
VERTEX
  8
0
  5
130FF
 10
69.4494
 20
283.237
 30
0.000000
  70
    32
  0
VERTEX
  8
0
  5
13100
 10
69.4233
 20
283.234
 30
0.000000
  70
    32
  0
VERTEX
  8
0
  5
13101
 10
69.3973
 20
283.230
 30
0.000000
  70
    32
  0
VERTEX
  8
0
  5
13102
 10
69.3713
 20
283.227
 30
0.000000
  70
    32
  0
VERTEX
  8
0
  5
13103
 10
69.3452
 20
283.223
 30
0.000000
  70
    32
  0
VERTEX
  8
0
  5
13104
 10
69.3192
 20
283.219
 30
0.000000
  70
    32
  0
VERTEX
  8
0
  5
13105
 10
69.2932
 20
283.215
 30
0.000000
  70
    32
  0
VERTEX
  8
0
  5
13106
 10
69.2672
 20
283.211
 30
0.000000
  70
    32
  0
VERTEX
  8
0
  5
13107
 10
69.2411
 20
283.207
 30
0.000000
  70
    32
  0
VERTEX
  8
0
  5
13108
 10
69.2151
 20
283.202
 30
0.000000
  70
    32
  0
VERTEX
  8
0
  5
13109
 10
69.1891
 20
283.198
 30
0.000000
  70
    32
  0
VERTEX
  8
0
  5
1310A
 10
69.1631
 20
283.193
 30
0.000000
  70
    32
  0
VERTEX
  8
0
  5
1310B
 10
69.1371
 20
283.188
 30
0.000000
  70
    32
  0
VERTEX
  8
0
  5
1310C
 10
69.1111
 20
283.183
 30
0.000000
  70
    32
  0
VERTEX
  8
0
  5
1310D
 10
69.0851
 20
283.178
 30
0.000000
  70
    32
  0
VERTEX
  8
0
  5
1310E
 10
69.0591
 20
283.173
 30
0.000000
  70
    32
  0
VERTEX
  8
0
  5
1310F
 10
69.0331
 20
283.168
 30
0.000000
  70
    32
  0
VERTEX
  8
0
  5
13110
 10
69.0071
 20
283.162
 30
0.000000
  70
    32
  0
VERTEX
  8
0
  5
13111
 10
68.9811
 20
283.157
 30
0.000000
  70
    32
  0
VERTEX
  8
0
  5
13112
 10
68.9551
 20
283.151
 30
0.000000
  70
    32
  0
VERTEX
  8
0
  5
13113
 10
68.9292
 20
283.145
 30
0.000000
  70
    32
  0
VERTEX
  8
0
  5
13114
 10
68.9032
 20
283.139
 30
0.000000
  70
    32
  0
VERTEX
  8
0
  5
13115
 10
68.8772
 20
283.133
 30
0.000000
  70
    32
  0
VERTEX
  8
0
  5
13116
 10
68.8512
 20
283.126
 30
0.000000
  70
    32
  0
VERTEX
  8
0
  5
13117
 10
68.8253
 20
283.120
 30
0.000000
  70
    32
  0
VERTEX
  8
0
  5
13118
 10
68.7993
 20
283.113
 30
0.000000
  70
    32
  0
VERTEX
  8
0
  5
13119
 10
68.7734
 20
283.107
 30
0.000000
  70
    32
  0
VERTEX
  8
0
  5
1311A
 10
68.7474
 20
283.100
 30
0.000000
  70
    32
  0
VERTEX
  8
0
  5
1311B
 10
68.7215
 20
283.093
 30
0.000000
  70
    32
  0
VERTEX
  8
0
  5
1311C
 10
68.6955
 20
283.086
 30
0.000000
  70
    32
  0
VERTEX
  8
0
  5
1311D
 10
68.6696
 20
283.078
 30
0.000000
  70
    32
  0
VERTEX
  8
0
  5
1311E
 10
68.6437
 20
283.071
 30
0.000000
  70
    32
  0
VERTEX
  8
0
  5
1311F
 10
68.6177
 20
283.063
 30
0.000000
  70
    32
  0
VERTEX
  8
0
  5
13120
 10
68.5918
 20
283.056
 30
0.000000
  70
    32
  0
VERTEX
  8
0
  5
13121
 10
68.5659
 20
283.048
 30
0.000000
  70
    32
  0
VERTEX
  8
0
  5
13122
 10
68.5400
 20
283.040
 30
0.000000
  70
    32
  0
VERTEX
  8
0
  5
13123
 10
68.5141
 20
283.032
 30
0.000000
  70
    32
  0
VERTEX
  8
0
  5
13124
 10
68.4882
 20
283.024
 30
0.000000
  70
    32
  0
VERTEX
  8
0
  5
13125
 10
68.4623
 20
283.015
 30
0.000000
  70
    32
  0
VERTEX
  8
0
  5
13126
 10
68.4364
 20
283.007
 30
0.000000
  70
    32
  0
VERTEX
  8
0
  5
13127
 10
68.4105
 20
282.998
 30
0.000000
  70
    32
  0
VERTEX
  8
0
  5
13128
 10
68.3846
 20
282.989
 30
0.000000
  70
    32
  0
VERTEX
  8
0
  5
13129
 10
68.3588
 20
282.981
 30
0.000000
  70
    32
  0
VERTEX
  8
0
  5
1312A
 10
68.3329
 20
282.972
 30
0.000000
  70
    32
  0
VERTEX
  8
0
  5
1312B
 10
68.3070
 20
282.962
 30
0.000000
  70
    32
  0
VERTEX
  8
0
  5
1312C
 10
68.2812
 20
282.953
 30
0.000000
  70
    32
  0
VERTEX
  8
0
  5
1312D
 10
68.2553
 20
282.944
 30
0.000000
  70
    32
  0
VERTEX
  8
0
  5
1312E
 10
68.2295
 20
282.934
 30
0.000000
  70
    32
  0
VERTEX
  8
0
  5
1312F
 10
68.2036
 20
282.924
 30
0.000000
  70
    32
  0
VERTEX
  8
0
  5
13130
 10
68.1778
 20
282.915
 30
0.000000
  70
    32
  0
VERTEX
  8
0
  5
13131
 10
68.1520
 20
282.905
 30
0.000000
  70
    32
  0
VERTEX
  8
0
  5
13132
 10
68.1262
 20
282.895
 30
0.000000
  70
    32
  0
VERTEX
  8
0
  5
13133
 10
68.1004
 20
282.884
 30
0.000000
  70
    32
  0
VERTEX
  8
0
  5
13134
 10
68.0746
 20
282.874
 30
0.000000
  70
    32
  0
VERTEX
  8
0
  5
13135
 10
68.0488
 20
282.863
 30
0.000000
  70
    32
  0
VERTEX
  8
0
  5
13136
 10
68.0230
 20
282.853
 30
0.000000
  70
    32
  0
VERTEX
  8
0
  5
13137
 10
67.9972
 20
282.842
 30
0.000000
  70
    32
  0
VERTEX
  8
0
  5
13138
 10
67.9714
 20
282.831
 30
0.000000
  70
    32
  0
VERTEX
  8
0
  5
13139
 10
67.9456
 20
282.820
 30
0.000000
  70
    32
  0
VERTEX
  8
0
  5
1313A
 10
67.9199
 20
282.809
 30
0.000000
  70
    32
  0
VERTEX
  8
0
  5
1313B
 10
67.8941
 20
282.798
 30
0.000000
  70
    32
  0
VERTEX
  8
0
  5
1313C
 10
67.8684
 20
282.786
 30
0.000000
  70
    32
  0
VERTEX
  8
0
  5
1313D
 10
67.8426
 20
282.775
 30
0.000000
  70
    32
  0
VERTEX
  8
0
  5
1313E
 10
67.8169
 20
282.763
 30
0.000000
  70
    32
  0
VERTEX
  8
0
  5
1313F
 10
67.7912
 20
282.751
 30
0.000000
  70
    32
  0
VERTEX
  8
0
  5
13140
 10
67.7655
 20
282.739
 30
0.000000
  70
    32
  0
VERTEX
  8
0
  5
13141
 10
67.7397
 20
282.727
 30
0.000000
  70
    32
  0
VERTEX
  8
0
  5
13142
 10
67.7140
 20
282.715
 30
0.000000
  70
    32
  0
VERTEX
  8
0
  5
13143
 10
67.6884
 20
282.702
 30
0.000000
  70
    32
  0
VERTEX
  8
0
  5
13144
 10
67.6627
 20
282.690
 30
0.000000
  70
    32
  0
VERTEX
  8
0
  5
13145
 10
67.6370
 20
282.677
 30
0.000000
  70
    32
  0
VERTEX
  8
0
  5
13146
 10
67.6113
 20
282.664
 30
0.000000
  70
    32
  0
VERTEX
  8
0
  5
13147
 10
67.5857
 20
282.651
 30
0.000000
  70
    32
  0
VERTEX
  8
0
  5
13148
 10
67.5600
 20
282.638
 30
0.000000
  70
    32
  0
VERTEX
  8
0
  5
13149
 10
67.5344
 20
282.625
 30
0.000000
  70
    32
  0
VERTEX
  8
0
  5
1314A
 10
67.5087
 20
282.612
 30
0.000000
  70
    32
  0
VERTEX
  8
0
  5
1314B
 10
67.4831
 20
282.598
 30
0.000000
  70
    32
  0
VERTEX
  8
0
  5
1314C
 10
67.4575
 20
282.585
 30
0.000000
  70
    32
  0
VERTEX
  8
0
  5
1314D
 10
67.4319
 20
282.571
 30
0.000000
  70
    32
  0
VERTEX
  8
0
  5
1314E
 10
67.4063
 20
282.557
 30
0.000000
  70
    32
  0
VERTEX
  8
0
  5
1314F
 10
67.3807
 20
282.543
 30
0.000000
  70
    32
  0
VERTEX
  8
0
  5
13150
 10
67.3551
 20
282.529
 30
0.000000
  70
    32
  0
VERTEX
  8
0
  5
13151
 10
67.3295
 20
282.515
 30
0.000000
  70
    32
  0
VERTEX
  8
0
  5
13152
 10
67.3040
 20
282.501
 30
0.000000
  70
    32
  0
VERTEX
  8
0
  5
13153
 10
67.2784
 20
282.486
 30
0.000000
  70
    32
  0
VERTEX
  8
0
  5
13154
 10
67.2529
 20
282.471
 30
0.000000
  70
    32
  0
VERTEX
  8
0
  5
13155
 10
67.2273
 20
282.457
 30
0.000000
  70
    32
  0
VERTEX
  8
0
  5
13156
 10
67.2018
 20
282.442
 30
0.000000
  70
    32
  0
VERTEX
  8
0
  5
13157
 10
67.1763
 20
282.427
 30
0.000000
  70
    32
  0
VERTEX
  8
0
  5
13158
 10
67.1508
 20
282.411
 30
0.000000
  70
    32
  0
VERTEX
  8
0
  5
13159
 10
67.1253
 20
282.396
 30
0.000000
  70
    32
  0
VERTEX
  8
0
  5
1315A
 10
67.0998
 20
282.381
 30
0.000000
  70
    32
  0
VERTEX
  8
0
  5
1315B
 10
67.0743
 20
282.365
 30
0.000000
  70
    32
  0
VERTEX
  8
0
  5
1315C
 10
67.0489
 20
282.349
 30
0.000000
  70
    32
  0
VERTEX
  8
0
  5
1315D
 10
67.0234
 20
282.333
 30
0.000000
  70
    32
  0
VERTEX
  8
0
  5
1315E
 10
66.9980
 20
282.317
 30
0.000000
  70
    32
  0
VERTEX
  8
0
  5
1315F
 10
66.9726
 20
282.301
 30
0.000000
  70
    32
  0
VERTEX
  8
0
  5
13160
 10
66.9471
 20
282.285
 30
0.000000
  70
    32
  0
VERTEX
  8
0
  5
13161
 10
66.9217
 20
282.269
 30
0.000000
  70
    32
  0
VERTEX
  8
0
  5
13162
 10
66.8963
 20
282.252
 30
0.000000
  70
    32
  0
VERTEX
  8
0
  5
13163
 10
66.8709
 20
282.236
 30
0.000000
  70
    32
  0
VERTEX
  8
0
  5
13164
 10
66.8455
 20
282.219
 30
0.000000
  70
    32
  0
VERTEX
  8
0
  5
13165
 10
66.8202
 20
282.202
 30
0.000000
  70
    32
  0
VERTEX
  8
0
  5
13166
 10
66.7948
 20
282.185
 30
0.000000
  70
    32
  0
VERTEX
  8
0
  5
13167
 10
66.7695
 20
282.168
 30
0.000000
  70
    32
  0
SEQEND
  8
0
  5
13168
  0
POLYLINE
  5
124B4
  8
0
 10
87.026584304024198
 20
282.16763210530723
 30
0.0
 66
     1
 70
     8
  0
VERTEX
  8
0
  5
13169
 10
87.0266
 20
282.168
 30
0.000000
  70
    32
  0
VERTEX
  8
0
  5
1316A
 10
87.0012
 20
282.185
 30
0.000000
  70
    32
  0
VERTEX
  8
0
  5
1316B
 10
86.9759
 20
282.202
 30
0.000000
  70
    32
  0
VERTEX
  8
0
  5
1316C
 10
86.9505
 20
282.219
 30
0.000000
  70
    32
  0
VERTEX
  8
0
  5
1316D
 10
86.9251
 20
282.236
 30
0.000000
  70
    32
  0
VERTEX
  8
0
  5
1316E
 10
86.8997
 20
282.252
 30
0.000000
  70
    32
  0
VERTEX
  8
0
  5
1316F
 10
86.8743
 20
282.269
 30
0.000000
  70
    32
  0
VERTEX
  8
0
  5
13170
 10
86.8489
 20
282.285
 30
0.000000
  70
    32
  0
VERTEX
  8
0
  5
13171
 10
86.8235
 20
282.301
 30
0.000000
  70
    32
  0
VERTEX
  8
0
  5
13172
 10
86.7981
 20
282.317
 30
0.000000
  70
    32
  0
VERTEX
  8
0
  5
13173
 10
86.7726
 20
282.333
 30
0.000000
  70
    32
  0
VERTEX
  8
0
  5
13174
 10
86.7472
 20
282.349
 30
0.000000
  70
    32
  0
VERTEX
  8
0
  5
13175
 10
86.7217
 20
282.365
 30
0.000000
  70
    32
  0
VERTEX
  8
0
  5
13176
 10
86.6962
 20
282.381
 30
0.000000
  70
    32
  0
VERTEX
  8
0
  5
13177
 10
86.6708
 20
282.396
 30
0.000000
  70
    32
  0
VERTEX
  8
0
  5
13178
 10
86.6453
 20
282.411
 30
0.000000
  70
    32
  0
VERTEX
  8
0
  5
13179
 10
86.6198
 20
282.427
 30
0.000000
  70
    32
  0
VERTEX
  8
0
  5
1317A
 10
86.5942
 20
282.442
 30
0.000000
  70
    32
  0
VERTEX
  8
0
  5
1317B
 10
86.5687
 20
282.457
 30
0.000000
  70
    32
  0
VERTEX
  8
0
  5
1317C
 10
86.5432
 20
282.471
 30
0.000000
  70
    32
  0
VERTEX
  8
0
  5
1317D
 10
86.5176
 20
282.486
 30
0.000000
  70
    32
  0
VERTEX
  8
0
  5
1317E
 10
86.4921
 20
282.501
 30
0.000000
  70
    32
  0
VERTEX
  8
0
  5
1317F
 10
86.4665
 20
282.515
 30
0.000000
  70
    32
  0
VERTEX
  8
0
  5
13180
 10
86.4409
 20
282.529
 30
0.000000
  70
    32
  0
VERTEX
  8
0
  5
13181
 10
86.4154
 20
282.543
 30
0.000000
  70
    32
  0
VERTEX
  8
0
  5
13182
 10
86.3898
 20
282.557
 30
0.000000
  70
    32
  0
VERTEX
  8
0
  5
13183
 10
86.3642
 20
282.571
 30
0.000000
  70
    32
  0
VERTEX
  8
0
  5
13184
 10
86.3386
 20
282.585
 30
0.000000
  70
    32
  0
VERTEX
  8
0
  5
13185
 10
86.3130
 20
282.598
 30
0.000000
  70
    32
  0
VERTEX
  8
0
  5
13186
 10
86.2873
 20
282.612
 30
0.000000
  70
    32
  0
VERTEX
  8
0
  5
13187
 10
86.2617
 20
282.625
 30
0.000000
  70
    32
  0
VERTEX
  8
0
  5
13188
 10
86.2360
 20
282.638
 30
0.000000
  70
    32
  0
VERTEX
  8
0
  5
13189
 10
86.2104
 20
282.651
 30
0.000000
  70
    32
  0
VERTEX
  8
0
  5
1318A
 10
86.1847
 20
282.664
 30
0.000000
  70
    32
  0
VERTEX
  8
0
  5
1318B
 10
86.1591
 20
282.677
 30
0.000000
  70
    32
  0
VERTEX
  8
0
  5
1318C
 10
86.1334
 20
282.690
 30
0.000000
  70
    32
  0
VERTEX
  8
0
  5
1318D
 10
86.1077
 20
282.702
 30
0.000000
  70
    32
  0
VERTEX
  8
0
  5
1318E
 10
86.0820
 20
282.715
 30
0.000000
  70
    32
  0
VERTEX
  8
0
  5
1318F
 10
86.0563
 20
282.727
 30
0.000000
  70
    32
  0
VERTEX
  8
0
  5
13190
 10
86.0306
 20
282.739
 30
0.000000
  70
    32
  0
VERTEX
  8
0
  5
13191
 10
86.0049
 20
282.751
 30
0.000000
  70
    32
  0
VERTEX
  8
0
  5
13192
 10
85.9792
 20
282.763
 30
0.000000
  70
    32
  0
VERTEX
  8
0
  5
13193
 10
85.9534
 20
282.775
 30
0.000000
  70
    32
  0
VERTEX
  8
0
  5
13194
 10
85.9277
 20
282.786
 30
0.000000
  70
    32
  0
VERTEX
  8
0
  5
13195
 10
85.9019
 20
282.798
 30
0.000000
  70
    32
  0
VERTEX
  8
0
  5
13196
 10
85.8762
 20
282.809
 30
0.000000
  70
    32
  0
VERTEX
  8
0
  5
13197
 10
85.8504
 20
282.820
 30
0.000000
  70
    32
  0
VERTEX
  8
0
  5
13198
 10
85.8247
 20
282.831
 30
0.000000
  70
    32
  0
VERTEX
  8
0
  5
13199
 10
85.7989
 20
282.842
 30
0.000000
  70
    32
  0
VERTEX
  8
0
  5
1319A
 10
85.7731
 20
282.853
 30
0.000000
  70
    32
  0
VERTEX
  8
0
  5
1319B
 10
85.7473
 20
282.863
 30
0.000000
  70
    32
  0
VERTEX
  8
0
  5
1319C
 10
85.7215
 20
282.874
 30
0.000000
  70
    32
  0
VERTEX
  8
0
  5
1319D
 10
85.6957
 20
282.884
 30
0.000000
  70
    32
  0
VERTEX
  8
0
  5
1319E
 10
85.6699
 20
282.895
 30
0.000000
  70
    32
  0
VERTEX
  8
0
  5
1319F
 10
85.6441
 20
282.905
 30
0.000000
  70
    32
  0
VERTEX
  8
0
  5
131A0
 10
85.6182
 20
282.915
 30
0.000000
  70
    32
  0
VERTEX
  8
0
  5
131A1
 10
85.5924
 20
282.924
 30
0.000000
  70
    32
  0
VERTEX
  8
0
  5
131A2
 10
85.5666
 20
282.934
 30
0.000000
  70
    32
  0
VERTEX
  8
0
  5
131A3
 10
85.5407
 20
282.944
 30
0.000000
  70
    32
  0
VERTEX
  8
0
  5
131A4
 10
85.5149
 20
282.953
 30
0.000000
  70
    32
  0
VERTEX
  8
0
  5
131A5
 10
85.4890
 20
282.962
 30
0.000000
  70
    32
  0
VERTEX
  8
0
  5
131A6
 10
85.4632
 20
282.972
 30
0.000000
  70
    32
  0
VERTEX
  8
0
  5
131A7
 10
85.4373
 20
282.981
 30
0.000000
  70
    32
  0
VERTEX
  8
0
  5
131A8
 10
85.4114
 20
282.989
 30
0.000000
  70
    32
  0
VERTEX
  8
0
  5
131A9
 10
85.3855
 20
282.998
 30
0.000000
  70
    32
  0
VERTEX
  8
0
  5
131AA
 10
85.3597
 20
283.007
 30
0.000000
  70
    32
  0
VERTEX
  8
0
  5
131AB
 10
85.3338
 20
283.015
 30
0.000000
  70
    32
  0
VERTEX
  8
0
  5
131AC
 10
85.3079
 20
283.024
 30
0.000000
  70
    32
  0
VERTEX
  8
0
  5
131AD
 10
85.2820
 20
283.032
 30
0.000000
  70
    32
  0
VERTEX
  8
0
  5
131AE
 10
85.2561
 20
283.040
 30
0.000000
  70
    32
  0
VERTEX
  8
0
  5
131AF
 10
85.2302
 20
283.048
 30
0.000000
  70
    32
  0
VERTEX
  8
0
  5
131B0
 10
85.2042
 20
283.056
 30
0.000000
  70
    32
  0
VERTEX
  8
0
  5
131B1
 10
85.1783
 20
283.063
 30
0.000000
  70
    32
  0
VERTEX
  8
0
  5
131B2
 10
85.1524
 20
283.071
 30
0.000000
  70
    32
  0
VERTEX
  8
0
  5
131B3
 10
85.1265
 20
283.078
 30
0.000000
  70
    32
  0
VERTEX
  8
0
  5
131B4
 10
85.1005
 20
283.086
 30
0.000000
  70
    32
  0
VERTEX
  8
0
  5
131B5
 10
85.0746
 20
283.093
 30
0.000000
  70
    32
  0
VERTEX
  8
0
  5
131B6
 10
85.0486
 20
283.100
 30
0.000000
  70
    32
  0
VERTEX
  8
0
  5
131B7
 10
85.0227
 20
283.107
 30
0.000000
  70
    32
  0
VERTEX
  8
0
  5
131B8
 10
84.9967
 20
283.113
 30
0.000000
  70
    32
  0
VERTEX
  8
0
  5
131B9
 10
84.9708
 20
283.120
 30
0.000000
  70
    32
  0
VERTEX
  8
0
  5
131BA
 10
84.9448
 20
283.126
 30
0.000000
  70
    32
  0
VERTEX
  8
0
  5
131BB
 10
84.9188
 20
283.133
 30
0.000000
  70
    32
  0
VERTEX
  8
0
  5
131BC
 10
84.8929
 20
283.139
 30
0.000000
  70
    32
  0
VERTEX
  8
0
  5
131BD
 10
84.8669
 20
283.145
 30
0.000000
  70
    32
  0
VERTEX
  8
0
  5
131BE
 10
84.8409
 20
283.151
 30
0.000000
  70
    32
  0
VERTEX
  8
0
  5
131BF
 10
84.8149
 20
283.157
 30
0.000000
  70
    32
  0
VERTEX
  8
0
  5
131C0
 10
84.7889
 20
283.162
 30
0.000000
  70
    32
  0
VERTEX
  8
0
  5
131C1
 10
84.7630
 20
283.168
 30
0.000000
  70
    32
  0
VERTEX
  8
0
  5
131C2
 10
84.7370
 20
283.173
 30
0.000000
  70
    32
  0
VERTEX
  8
0
  5
131C3
 10
84.7110
 20
283.178
 30
0.000000
  70
    32
  0
VERTEX
  8
0
  5
131C4
 10
84.6850
 20
283.183
 30
0.000000
  70
    32
  0
VERTEX
  8
0
  5
131C5
 10
84.6590
 20
283.188
 30
0.000000
  70
    32
  0
VERTEX
  8
0
  5
131C6
 10
84.6329
 20
283.193
 30
0.000000
  70
    32
  0
VERTEX
  8
0
  5
131C7
 10
84.6069
 20
283.198
 30
0.000000
  70
    32
  0
VERTEX
  8
0
  5
131C8
 10
84.5809
 20
283.202
 30
0.000000
  70
    32
  0
VERTEX
  8
0
  5
131C9
 10
84.5549
 20
283.207
 30
0.000000
  70
    32
  0
VERTEX
  8
0
  5
131CA
 10
84.5289
 20
283.211
 30
0.000000
  70
    32
  0
VERTEX
  8
0
  5
131CB
 10
84.5029
 20
283.215
 30
0.000000
  70
    32
  0
VERTEX
  8
0
  5
131CC
 10
84.4768
 20
283.219
 30
0.000000
  70
    32
  0
VERTEX
  8
0
  5
131CD
 10
84.4508
 20
283.223
 30
0.000000
  70
    32
  0
VERTEX
  8
0
  5
131CE
 10
84.4248
 20
283.227
 30
0.000000
  70
    32
  0
VERTEX
  8
0
  5
131CF
 10
84.3988
 20
283.230
 30
0.000000
  70
    32
  0
VERTEX
  8
0
  5
131D0
 10
84.3727
 20
283.234
 30
0.000000
  70
    32
  0
VERTEX
  8
0
  5
131D1
 10
84.3467
 20
283.237
 30
0.000000
  70
    32
  0
VERTEX
  8
0
  5
131D2
 10
84.3206
 20
283.240
 30
0.000000
  70
    32
  0
VERTEX
  8
0
  5
131D3
 10
84.2946
 20
283.243
 30
0.000000
  70
    32
  0
VERTEX
  8
0
  5
131D4
 10
84.2686
 20
283.246
 30
0.000000
  70
    32
  0
VERTEX
  8
0
  5
131D5
 10
84.2425
 20
283.249
 30
0.000000
  70
    32
  0
VERTEX
  8
0
  5
131D6
 10
84.2165
 20
283.252
 30
0.000000
  70
    32
  0
VERTEX
  8
0
  5
131D7
 10
84.1904
 20
283.254
 30
0.000000
  70
    32
  0
VERTEX
  8
0
  5
131D8
 10
84.1644
 20
283.257
 30
0.000000
  70
    32
  0
VERTEX
  8
0
  5
131D9
 10
84.1383
 20
283.259
 30
0.000000
  70
    32
  0
VERTEX
  8
0
  5
131DA
 10
84.1123
 20
283.261
 30
0.000000
  70
    32
  0
VERTEX
  8
0
  5
131DB
 10
84.0862
 20
283.263
 30
0.000000
  70
    32
  0
VERTEX
  8
0
  5
131DC
 10
84.0602
 20
283.265
 30
0.000000
  70
    32
  0
VERTEX
  8
0
  5
131DD
 10
84.0341
 20
283.267
 30
0.000000
  70
    32
  0
VERTEX
  8
0
  5
131DE
 10
84.0080
 20
283.268
 30
0.000000
  70
    32
  0
VERTEX
  8
0
  5
131DF
 10
83.9820
 20
283.270
 30
0.000000
  70
    32
  0
VERTEX
  8
0
  5
131E0
 10
83.9559
 20
283.271
 30
0.000000
  70
    32
  0
VERTEX
  8
0
  5
131E1
 10
83.9299
 20
283.272
 30
0.000000
  70
    32
  0
VERTEX
  8
0
  5
131E2
 10
83.9038
 20
283.273
 30
0.000000
  70
    32
  0
VERTEX
  8
0
  5
131E3
 10
83.8777
 20
283.274
 30
0.000000
  70
    32
  0
VERTEX
  8
0
  5
131E4
 10
83.8517
 20
283.275
 30
0.000000
  70
    32
  0
VERTEX
  8
0
  5
131E5
 10
83.8256
 20
283.275
 30
0.000000
  70
    32
  0
VERTEX
  8
0
  5
131E6
 10
83.7996
 20
283.276
 30
0.000000
  70
    32
  0
VERTEX
  8
0
  5
131E7
 10
83.7735
 20
283.276
 30
0.000000
  70
    32
  0
VERTEX
  8
0
  5
131E8
 10
83.7474
 20
283.276
 30
0.000000
  70
    32
  0
VERTEX
  8
0
  5
131E9
 10
83.7214
 20
283.276
 30
0.000000
  70
    32
  0
SEQEND
  8
0
  5
131EA
  0
LINE
  5
124B5
  8
0
 10
87.433498049299246
 20
283.27640164930608
 30
0.0
 11
76.948028769342955
 21
283.27640164930608
 31
0.0
  0
POLYLINE
  5
124B6
  8
0
 10
90.326575745095809
 20
282.42971724863054
 30
0.0
 66
     1
 70
     8
  0
VERTEX
  8
0
  5
131EB
 10
90.3266
 20
282.430
 30
0.000000
  70
    32
  0
VERTEX
  8
0
  5
131EC
 10
90.3043
 20
282.443
 30
0.000000
  70
    32
  0
VERTEX
  8
0
  5
131ED
 10
90.2820
 20
282.456
 30
0.000000
  70
    32
  0
VERTEX
  8
0
  5
131EE
 10
90.2597
 20
282.469
 30
0.000000
  70
    32
  0
VERTEX
  8
0
  5
131EF
 10
90.2374
 20
282.482
 30
0.000000
  70
    32
  0
VERTEX
  8
0
  5
131F0
 10
90.2151
 20
282.494
 30
0.000000
  70
    32
  0
VERTEX
  8
0
  5
131F1
 10
90.1928
 20
282.507
 30
0.000000
  70
    32
  0
VERTEX
  8
0
  5
131F2
 10
90.1704
 20
282.520
 30
0.000000
  70
    32
  0
VERTEX
  8
0
  5
131F3
 10
90.1481
 20
282.532
 30
0.000000
  70
    32
  0
VERTEX
  8
0
  5
131F4
 10
90.1257
 20
282.544
 30
0.000000
  70
    32
  0
VERTEX
  8
0
  5
131F5
 10
90.1034
 20
282.556
 30
0.000000
  70
    32
  0
VERTEX
  8
0
  5
131F6
 10
90.0810
 20
282.569
 30
0.000000
  70
    32
  0
VERTEX
  8
0
  5
131F7
 10
90.0587
 20
282.581
 30
0.000000
  70
    32
  0
VERTEX
  8
0
  5
131F8
 10
90.0363
 20
282.592
 30
0.000000
  70
    32
  0
VERTEX
  8
0
  5
131F9
 10
90.0139
 20
282.604
 30
0.000000
  70
    32
  0
VERTEX
  8
0
  5
131FA
 10
89.9915
 20
282.616
 30
0.000000
  70
    32
  0
VERTEX
  8
0
  5
131FB
 10
89.9692
 20
282.628
 30
0.000000
  70
    32
  0
VERTEX
  8
0
  5
131FC
 10
89.9468
 20
282.639
 30
0.000000
  70
    32
  0
VERTEX
  8
0
  5
131FD
 10
89.9244
 20
282.651
 30
0.000000
  70
    32
  0
VERTEX
  8
0
  5
131FE
 10
89.9019
 20
282.662
 30
0.000000
  70
    32
  0
VERTEX
  8
0
  5
131FF
 10
89.8795
 20
282.673
 30
0.000000
  70
    32
  0
VERTEX
  8
0
  5
13200
 10
89.8571
 20
282.684
 30
0.000000
  70
    32
  0
VERTEX
  8
0
  5
13201
 10
89.8347
 20
282.695
 30
0.000000
  70
    32
  0
VERTEX
  8
0
  5
13202
 10
89.8122
 20
282.706
 30
0.000000
  70
    32
  0
VERTEX
  8
0
  5
13203
 10
89.7898
 20
282.717
 30
0.000000
  70
    32
  0
VERTEX
  8
0
  5
13204
 10
89.7674
 20
282.727
 30
0.000000
  70
    32
  0
VERTEX
  8
0
  5
13205
 10
89.7449
 20
282.738
 30
0.000000
  70
    32
  0
VERTEX
  8
0
  5
13206
 10
89.7224
 20
282.749
 30
0.000000
  70
    32
  0
VERTEX
  8
0
  5
13207
 10
89.7000
 20
282.759
 30
0.000000
  70
    32
  0
VERTEX
  8
0
  5
13208
 10
89.6775
 20
282.769
 30
0.000000
  70
    32
  0
VERTEX
  8
0
  5
13209
 10
89.6550
 20
282.779
 30
0.000000
  70
    32
  0
VERTEX
  8
0
  5
1320A
 10
89.6325
 20
282.789
 30
0.000000
  70
    32
  0
VERTEX
  8
0
  5
1320B
 10
89.6101
 20
282.799
 30
0.000000
  70
    32
  0
VERTEX
  8
0
  5
1320C
 10
89.5876
 20
282.809
 30
0.000000
  70
    32
  0
VERTEX
  8
0
  5
1320D
 10
89.5651
 20
282.819
 30
0.000000
  70
    32
  0
VERTEX
  8
0
  5
1320E
 10
89.5426
 20
282.829
 30
0.000000
  70
    32
  0
VERTEX
  8
0
  5
1320F
 10
89.5200
 20
282.838
 30
0.000000
  70
    32
  0
VERTEX
  8
0
  5
13210
 10
89.4975
 20
282.848
 30
0.000000
  70
    32
  0
VERTEX
  8
0
  5
13211
 10
89.4750
 20
282.857
 30
0.000000
  70
    32
  0
VERTEX
  8
0
  5
13212
 10
89.4525
 20
282.866
 30
0.000000
  70
    32
  0
VERTEX
  8
0
  5
13213
 10
89.4299
 20
282.875
 30
0.000000
  70
    32
  0
VERTEX
  8
0
  5
13214
 10
89.4074
 20
282.885
 30
0.000000
  70
    32
  0
VERTEX
  8
0
  5
13215
 10
89.3849
 20
282.893
 30
0.000000
  70
    32
  0
VERTEX
  8
0
  5
13216
 10
89.3623
 20
282.902
 30
0.000000
  70
    32
  0
VERTEX
  8
0
  5
13217
 10
89.3398
 20
282.911
 30
0.000000
  70
    32
  0
VERTEX
  8
0
  5
13218
 10
89.3172
 20
282.920
 30
0.000000
  70
    32
  0
VERTEX
  8
0
  5
13219
 10
89.2946
 20
282.928
 30
0.000000
  70
    32
  0
VERTEX
  8
0
  5
1321A
 10
89.2721
 20
282.937
 30
0.000000
  70
    32
  0
VERTEX
  8
0
  5
1321B
 10
89.2495
 20
282.945
 30
0.000000
  70
    32
  0
VERTEX
  8
0
  5
1321C
 10
89.2269
 20
282.953
 30
0.000000
  70
    32
  0
VERTEX
  8
0
  5
1321D
 10
89.2043
 20
282.961
 30
0.000000
  70
    32
  0
VERTEX
  8
0
  5
1321E
 10
89.1818
 20
282.969
 30
0.000000
  70
    32
  0
VERTEX
  8
0
  5
1321F
 10
89.1592
 20
282.977
 30
0.000000
  70
    32
  0
VERTEX
  8
0
  5
13220
 10
89.1366
 20
282.985
 30
0.000000
  70
    32
  0
VERTEX
  8
0
  5
13221
 10
89.1140
 20
282.993
 30
0.000000
  70
    32
  0
VERTEX
  8
0
  5
13222
 10
89.0914
 20
283.000
 30
0.000000
  70
    32
  0
VERTEX
  8
0
  5
13223
 10
89.0688
 20
283.008
 30
0.000000
  70
    32
  0
VERTEX
  8
0
  5
13224
 10
89.0462
 20
283.015
 30
0.000000
  70
    32
  0
VERTEX
  8
0
  5
13225
 10
89.0235
 20
283.023
 30
0.000000
  70
    32
  0
VERTEX
  8
0
  5
13226
 10
89.0009
 20
283.030
 30
0.000000
  70
    32
  0
VERTEX
  8
0
  5
13227
 10
88.9783
 20
283.037
 30
0.000000
  70
    32
  0
VERTEX
  8
0
  5
13228
 10
88.9557
 20
283.044
 30
0.000000
  70
    32
  0
VERTEX
  8
0
  5
13229
 10
88.9330
 20
283.051
 30
0.000000
  70
    32
  0
VERTEX
  8
0
  5
1322A
 10
88.9104
 20
283.057
 30
0.000000
  70
    32
  0
VERTEX
  8
0
  5
1322B
 10
88.8878
 20
283.064
 30
0.000000
  70
    32
  0
VERTEX
  8
0
  5
1322C
 10
88.8651
 20
283.071
 30
0.000000
  70
    32
  0
VERTEX
  8
0
  5
1322D
 10
88.8425
 20
283.077
 30
0.000000
  70
    32
  0
VERTEX
  8
0
  5
1322E
 10
88.8198
 20
283.084
 30
0.000000
  70
    32
  0
VERTEX
  8
0
  5
1322F
 10
88.7972
 20
283.090
 30
0.000000
  70
    32
  0
VERTEX
  8
0
  5
13230
 10
88.7745
 20
283.096
 30
0.000000
  70
    32
  0
VERTEX
  8
0
  5
13231
 10
88.7518
 20
283.102
 30
0.000000
  70
    32
  0
VERTEX
  8
0
  5
13232
 10
88.7292
 20
283.108
 30
0.000000
  70
    32
  0
VERTEX
  8
0
  5
13233
 10
88.7065
 20
283.114
 30
0.000000
  70
    32
  0
VERTEX
  8
0
  5
13234
 10
88.6838
 20
283.120
 30
0.000000
  70
    32
  0
VERTEX
  8
0
  5
13235
 10
88.6612
 20
283.125
 30
0.000000
  70
    32
  0
VERTEX
  8
0
  5
13236
 10
88.6385
 20
283.131
 30
0.000000
  70
    32
  0
VERTEX
  8
0
  5
13237
 10
88.6158
 20
283.136
 30
0.000000
  70
    32
  0
VERTEX
  8
0
  5
13238
 10
88.5931
 20
283.142
 30
0.000000
  70
    32
  0
VERTEX
  8
0
  5
13239
 10
88.5704
 20
283.147
 30
0.000000
  70
    32
  0
VERTEX
  8
0
  5
1323A
 10
88.5477
 20
283.152
 30
0.000000
  70
    32
  0
VERTEX
  8
0
  5
1323B
 10
88.5250
 20
283.157
 30
0.000000
  70
    32
  0
VERTEX
  8
0
  5
1323C
 10
88.5023
 20
283.162
 30
0.000000
  70
    32
  0
VERTEX
  8
0
  5
1323D
 10
88.4796
 20
283.167
 30
0.000000
  70
    32
  0
VERTEX
  8
0
  5
1323E
 10
88.4569
 20
283.171
 30
0.000000
  70
    32
  0
VERTEX
  8
0
  5
1323F
 10
88.4342
 20
283.176
 30
0.000000
  70
    32
  0
VERTEX
  8
0
  5
13240
 10
88.4115
 20
283.181
 30
0.000000
  70
    32
  0
VERTEX
  8
0
  5
13241
 10
88.3888
 20
283.185
 30
0.000000
  70
    32
  0
VERTEX
  8
0
  5
13242
 10
88.3661
 20
283.189
 30
0.000000
  70
    32
  0
VERTEX
  8
0
  5
13243
 10
88.3434
 20
283.193
 30
0.000000
  70
    32
  0
VERTEX
  8
0
  5
13244
 10
88.3207
 20
283.198
 30
0.000000
  70
    32
  0
VERTEX
  8
0
  5
13245
 10
88.2980
 20
283.202
 30
0.000000
  70
    32
  0
VERTEX
  8
0
  5
13246
 10
88.2752
 20
283.205
 30
0.000000
  70
    32
  0
VERTEX
  8
0
  5
13247
 10
88.2525
 20
283.209
 30
0.000000
  70
    32
  0
VERTEX
  8
0
  5
13248
 10
88.2298
 20
283.213
 30
0.000000
  70
    32
  0
VERTEX
  8
0
  5
13249
 10
88.2071
 20
283.216
 30
0.000000
  70
    32
  0
VERTEX
  8
0
  5
1324A
 10
88.1843
 20
283.220
 30
0.000000
  70
    32
  0
VERTEX
  8
0
  5
1324B
 10
88.1616
 20
283.223
 30
0.000000
  70
    32
  0
VERTEX
  8
0
  5
1324C
 10
88.1389
 20
283.227
 30
0.000000
  70
    32
  0
VERTEX
  8
0
  5
1324D
 10
88.1161
 20
283.230
 30
0.000000
  70
    32
  0
VERTEX
  8
0
  5
1324E
 10
88.0934
 20
283.233
 30
0.000000
  70
    32
  0
VERTEX
  8
0
  5
1324F
 10
88.0706
 20
283.236
 30
0.000000
  70
    32
  0
VERTEX
  8
0
  5
13250
 10
88.0479
 20
283.239
 30
0.000000
  70
    32
  0
VERTEX
  8
0
  5
13251
 10
88.0252
 20
283.241
 30
0.000000
  70
    32
  0
VERTEX
  8
0
  5
13252
 10
88.0024
 20
283.244
 30
0.000000
  70
    32
  0
VERTEX
  8
0
  5
13253
 10
87.9797
 20
283.247
 30
0.000000
  70
    32
  0
VERTEX
  8
0
  5
13254
 10
87.9569
 20
283.249
 30
0.000000
  70
    32
  0
VERTEX
  8
0
  5
13255
 10
87.9342
 20
283.251
 30
0.000000
  70
    32
  0
VERTEX
  8
0
  5
13256
 10
87.9114
 20
283.254
 30
0.000000
  70
    32
  0
VERTEX
  8
0
  5
13257
 10
87.8887
 20
283.256
 30
0.000000
  70
    32
  0
VERTEX
  8
0
  5
13258
 10
87.8659
 20
283.258
 30
0.000000
  70
    32
  0
VERTEX
  8
0
  5
13259
 10
87.8432
 20
283.260
 30
0.000000
  70
    32
  0
VERTEX
  8
0
  5
1325A
 10
87.8204
 20
283.261
 30
0.000000
  70
    32
  0
VERTEX
  8
0
  5
1325B
 10
87.7977
 20
283.263
 30
0.000000
  70
    32
  0
VERTEX
  8
0
  5
1325C
 10
87.7749
 20
283.265
 30
0.000000
  70
    32
  0
VERTEX
  8
0
  5
1325D
 10
87.7522
 20
283.266
 30
0.000000
  70
    32
  0
VERTEX
  8
0
  5
1325E
 10
87.7294
 20
283.268
 30
0.000000
  70
    32
  0
VERTEX
  8
0
  5
1325F
 10
87.7066
 20
283.269
 30
0.000000
  70
    32
  0
VERTEX
  8
0
  5
13260
 10
87.6839
 20
283.270
 30
0.000000
  70
    32
  0
VERTEX
  8
0
  5
13261
 10
87.6611
 20
283.271
 30
0.000000
  70
    32
  0
VERTEX
  8
0
  5
13262
 10
87.6384
 20
283.272
 30
0.000000
  70
    32
  0
VERTEX
  8
0
  5
13263
 10
87.6156
 20
283.273
 30
0.000000
  70
    32
  0
VERTEX
  8
0
  5
13264
 10
87.5928
 20
283.274
 30
0.000000
  70
    32
  0
VERTEX
  8
0
  5
13265
 10
87.5701
 20
283.275
 30
0.000000
  70
    32
  0
VERTEX
  8
0
  5
13266
 10
87.5473
 20
283.275
 30
0.000000
  70
    32
  0
VERTEX
  8
0
  5
13267
 10
87.5245
 20
283.276
 30
0.000000
  70
    32
  0
VERTEX
  8
0
  5
13268
 10
87.5018
 20
283.276
 30
0.000000
  70
    32
  0
VERTEX
  8
0
  5
13269
 10
87.4790
 20
283.276
 30
0.000000
  70
    32
  0
VERTEX
  8
0
  5
1326A
 10
87.4563
 20
283.276
 30
0.000000
  70
    32
  0
VERTEX
  8
0
  5
1326B
 10
87.4335
 20
283.276
 30
0.000000
  70
    32
  0
SEQEND
  8
0
  5
1326C
  0
LINE
  5
124B9
  8
0
 10
76.948028769342955
 20
283.27640164930608
 30
0.0
 11
76.948028769342955
 21
276.77639592726018
 31
0.0
  0
LINE
  5
124BB
  8
0
 10
76.848028771869167
 20
276.77639592726018
 30
0.0
 11
76.848028771869167
 21
283.27640164930608
 31
0.0
  0
LINE
  5
124C5
  8
0
 10
69.848028639475842
 20
241.7763995035389
 30
0.0
 11
69.848028639475842
 21
206.77639749188211
 31
0.0
  0
LINE
  5
124C6
  8
0
 10
83.948028901736265
 20
241.7763995035389
 30
0.0
 11
83.948028901736265
 21
206.77639749188211
 31
0.0
  0
LINE
  5
124C8
  8
0
 10
73.348028747509261
 20
178.21639795143389
 30
0.0
 11
73.348028747509261
 21
199.27639719385891
 31
0.0
  0
LINE
  5
124CA
  8
0
 10
69.848028639475842
 20
199.27639719385891
 30
0.0
 11
69.848028639475842
 21
178.21639795143389
 31
0.0
  0
LINE
  5
124CB
  8
0
 10
73.348028747509261
 20
178.21639795143389
 30
0.0
 11
69.848028639475842
 21
178.21639795143389
 31
0.0
  0
LINE
  5
124D0
  8
0
 10
83.948028901736265
 20
199.27639719385891
 30
0.0
 11
83.948028901736265
 21
178.21639795143389
 31
0.0
  0
LINE
  5
124D1
  8
0
 10
80.448028793702846
 20
199.27639719385891
 30
0.0
 11
80.448028793702846
 21
178.21639795143389
 31
0.0
  0
LINE
  5
124D2
  8
0
 10
83.948028901736265
 20
178.21639795143389
 30
0.0
 11
80.448028793702846
 21
178.21639795143389
 31
0.0
  0
LINE
  5
124E1
  8
0
 10
511.74802652947142
 20
223.27639926512029
 30
0.0
 11
513.74802685729696
 21
223.27639926512029
 31
0.0
  0
LINE
  5
124E2
  8
0
 10
513.74802685729696
 20
237.27639783460879
 30
0.0
 11
511.74802652947142
 21
237.27639783460879
 31
0.0
  0
LINE
  5
124E3
  8
0
 10
511.74802652947142
 20
237.27639783460879
 30
0.0
 11
511.54802686921789
 21
237.07639817435529
 31
0.0
  0
LINE
  5
124E4
  8
0
 10
511.54802686921789
 20
223.47639892537379
 30
0.0
 11
511.74802652947142
 21
223.27639926512029
 31
0.0
  0
LINE
  5
124E5
  8
0
 10
513.74802685729696
 20
223.27639926512029
 30
0.0
 11
513.94802651755049
 21
223.47639892537379
 31
0.0
  0
LINE
  5
124E6
  8
0
 10
513.94802651755049
 20
237.07639817435529
 30
0.0
 11
513.74802685729696
 21
237.27639783460879
 31
0.0
  0
LINE
  5
124E7
  8
0
 10
497.19802656597932
 20
237.27639783460879
 30
0.0
 11
495.69802678577139
 21
237.27639783460879
 31
0.0
  0
LINE
  5
124E8
  8
0
 10
495.69802678577139
 20
223.27639926512029
 30
0.0
 11
497.19802656597932
 21
223.27639926512029
 31
0.0
  0
LINE
  5
124E9
  8
0
 10
495.69802678577139
 20
237.27639783460879
 30
0.0
 11
495.44802627913191
 21
237.02639732796931
 31
0.0
  0
LINE
  5
124EA
  8
0
 10
495.44802627913191
 20
223.5263997717598
 30
0.0
 11
495.69802678577139
 21
223.27639926512029
 31
0.0
  0
LINE
  5
124EB
  8
0
 10
497.19802656597932
 20
223.27639926512029
 30
0.0
 11
497.44802660695751
 21
223.5263997717598
 31
0.0
  0
LINE
  5
124EC
  8
0
 10
497.44802660695751
 20
237.02639732796931
 30
0.0
 11
497.19802656597932
 21
237.27639783460879
 31
0.0
  0
LINE
  5
124ED
  8
0
 10
513.99802643261387
 20
224.7763985796669
 30
0.0
 11
514.11302707544996
 21
224.89139829118039
 31
0.0
  0
LINE
  5
124EE
  8
0
 10
514.11302707544996
 20
235.66139880854871
 30
0.0
 11
513.99802643261387
 21
235.7763985200622
 31
0.0
  0
LINE
  5
124EF
  8
0
 10
513.99802643261387
 20
235.7763985200622
 30
0.0
 11
513.94802651755049
 21
235.7763985200622
 31
0.0
  0
LINE
  5
124F0
  8
0
 10
513.94802651755049
 20
224.7763985796669
 30
0.0
 11
513.99802643261387
 21
224.7763985796669
 31
0.0
  0
ARC
  5
124F1
  8
0
 10
549.49802673809245
 20
230.27639795143389
 30
0.0
 40
60.000000000004967
 50
174.74050353558329
 51
180.0
  0
ARC
  5
124F2
  8
0
 10
549.49802673809245
 20
230.27639795143389
 30
0.0
 40
60.000000000004967
 50
180.0
 51
185.2594964644166
  0
ARC
  5
124F3
  8
0
 10
459.49802673805442
 20
230.27639795143389
 30
0.0
 40
60.000000000033253
 50
2.6269768549833561
 51
5.2594964644133722
  0
ARC
  5
124F4
  8
0
 10
459.49802673805442
 20
230.27639795143389
 30
0.0
 40
60.000000000033239
 50
354.7405035355867
 51
357.37302314501659
  0
LINE
  5
124F5
  8
0
 10
519.24541167370512
 20
235.7763985200622
 30
0.0
 11
517.99802708826496
 21
235.7763985200622
 31
0.0
  0
LINE
  5
124F6
  8
0
 10
517.99802708826496
 20
224.7763985796669
 30
0.0
 11
519.24541167370512
 21
224.7763985796669
 31
0.0
  0
LINE
  5
124F7
  8
0
 10
490.99802638791039
 20
235.7763985200622
 30
0.0
 11
489.75064180247023
 21
235.7763985200622
 31
0.0
  0
LINE
  5
124F8
  8
0
 10
489.75064180247023
 20
224.7763985796669
 30
0.0
 11
490.99802638791039
 21
224.7763985796669
 31
0.0
  0
LINE
  5
124F9
  8
0
 10
517.99802708826496
 20
234.27639920551559
 30
0.0
 11
517.61302671782209
 21
234.27639920551559
 31
0.0
  0
LINE
  5
124FA
  8
0
 10
495.44802627913191
 20
234.27639920551559
 30
0.0
 11
494.88302640072538
 21
234.27639920551559
 31
0.0
  0
LINE
  5
124FB
  8
0
 10
491.38302675835331
 20
234.27639920551559
 30
0.0
 11
490.99802638791039
 21
234.27639920551559
 31
0.0
  0
LINE
  5
124FC
  8
0
 10
490.99802638791039
 20
226.2763978942134
 30
0.0
 11
491.38302675835331
 21
226.2763978942134
 31
0.0
  0
LINE
  5
124FD
  8
0
 10
494.88302640072538
 20
226.2763978942134
 30
0.0
 11
495.44802627913191
 21
226.2763978942134
 31
0.0
  0
LINE
  5
124FE
  8
0
 10
517.61302671782209
 20
226.2763978942134
 30
0.0
 11
517.99802708826496
 21
226.2763978942134
 31
0.0
  0
ARC
  5
124FF
  8
0
 10
549.49802673809245
 20
311.27639795143398
 30
0.0
 40
60.000000000004967
 50
174.74050353558329
 51
180.0
  0
ARC
  5
12500
  8
0
 10
549.49802673809245
 20
311.27639795143398
 30
0.0
 40
60.000000000004967
 50
180.0
 51
185.2594964644166
  0
ARC
  5
12501
  8
0
 10
459.49802673805442
 20
311.27639795143398
 30
0.0
 40
60.000000000033239
 50
2.6269768549833561
 51
5.2594964644133722
  0
ARC
  5
12502
  8
0
 10
459.49802673805442
 20
311.27639795143398
 30
0.0
 40
60.000000000033239
 50
354.7405035355867
 51
357.37302314501659
  0
LINE
  5
12503
  8
0
 10
519.24541167370512
 20
316.77639503319051
 30
0.0
 11
517.99802708826496
 21
316.77639503319051
 31
0.0
  0
LINE
  5
12504
  8
0
 10
517.99802708826496
 20
305.7764025433757
 30
0.0
 11
519.24541167370512
 21
305.7764025433757
 31
0.0
  0
LINE
  5
12505
  8
0
 10
490.99802638791039
 20
316.77639503319051
 30
0.0
 11
489.75064180247023
 21
316.77639503319051
 31
0.0
  0
LINE
  5
12506
  8
0
 10
489.75064180247023
 20
305.7764025433757
 30
0.0
 11
490.99802638791039
 21
305.7764025433757
 31
0.0
  0
LINE
  5
12507
  8
0
 10
517.99802708826496
 20
315.27639944393422
 30
0.0
 11
517.61302671782209
 21
315.27639944393422
 31
0.0
  0
LINE
  5
12508
  8
0
 10
495.49802712551792
 20
315.27639944393422
 30
0.0
 11
494.88302640072538
 21
315.27639944393422
 31
0.0
  0
LINE
  5
12509
  8
0
 10
491.38302675835331
 20
315.27639944393422
 30
0.0
 11
490.99802638791039
 21
315.27639944393422
 31
0.0
  0
LINE
  5
1250A
  8
0
 10
490.99802638791039
 20
307.27639813263198
 30
0.0
 11
491.38302675835331
 21
307.27639813263198
 31
0.0
  0
LINE
  5
1250B
  8
0
 10
494.88302640072538
 20
307.27639813263198
 30
0.0
 11
495.49802712551792
 21
307.27639813263198
 31
0.0
  0
LINE
  5
1250C
  8
0
 10
517.61302671782209
 20
307.27639813263198
 30
0.0
 11
517.99802708826496
 21
307.27639813263198
 31
0.0
  0
LINE
  5
1250D
  8
0
 10
514.11302707544996
 20
220.77639792401581
 30
0.0
 11
517.61302671782209
 21
220.77639792401581
 31
0.0
  0
LINE
  5
1250E
  8
0
 10
491.38302675835331
 20
220.77639792401581
 30
0.0
 11
494.88302640072538
 21
220.77639792401581
 31
0.0
  0
ARC
  5
1250F
  8
0
 10
452.99802673808261
 20
264.27639795143381
 30
0.0
 40
60.000000000004839
 50
354.7405035355867
 51
0.0
  0
ARC
  5
12510
  8
0
 10
452.99802673808261
 20
264.27639795143381
 30
0.0
 40
60.00000000000486
 50
0.0
 51
5.259496464416614
  0
LINE
  5
12511
  8
0
 10
511.54802686921789
 20
258.77639670212062
 30
0.0
 11
512.74541153959467
 21
258.77639670212062
 31
0.0
  0
LINE
  5
12512
  8
0
 10
512.74541153959467
 20
269.77639664251592
 30
0.0
 11
511.54802686921789
 21
269.77639664251592
 31
0.0
  0
ARC
  5
12513
  8
0
 10
555.99802673812087
 20
264.27639795143381
 30
0.0
 40
60.000000000033523
 50
182.62697685498659
 51
185.2594964644133
  0
ARC
  5
12514
  8
0
 10
555.99802673812087
 20
264.27639795143381
 30
0.0
 40
60.000000000033531
 50
174.74050353558661
 51
177.37302314501659
  0
LINE
  5
12515
  8
0
 10
496.25064193658039
 20
258.77639670212062
 30
0.0
 11
497.44802660695751
 21
258.77639670212062
 31
0.0
  0
LINE
  5
12516
  8
0
 10
497.44802660695751
 20
269.77639664251592
 30
0.0
 11
496.25064193658039
 21
269.77639664251592
 31
0.0
  0
LINE
  5
12517
  8
0
 10
496.19802686772817
 20
206.77639749188211
 30
0.0
 11
496.19802686772817
 21
206.2763983412483
 31
0.0
  0
LINE
  5
12518
  8
0
 10
512.79802660844803
 20
206.2763983412483
 30
0.0
 11
512.79802660844803
 21
206.77639749188211
 31
0.0
  0
LINE
  5
12519
  8
0
 10
511.69802661440798
 20
304.27639205295827
 30
0.0
 11
513.69802694223358
 21
304.27639205295827
 31
0.0
  0
LINE
  5
1251A
  8
0
 10
513.69802694223358
 20
318.2763906224468
 30
0.0
 11
511.69802661440798
 21
318.2763906224468
 31
0.0
  0
LINE
  5
1251B
  8
0
 10
511.69802661440798
 20
318.2763906224468
 30
0.0
 11
511.49802695415451
 21
318.07640213806422
 31
0.0
  0
LINE
  5
1251C
  8
0
 10
511.49802695415451
 20
304.4763954385021
 30
0.0
 11
511.69802661440798
 21
304.27639205295827
 31
0.0
  0
LINE
  5
1251D
  8
0
 10
513.69802694223358
 20
304.27639205295827
 30
0.0
 11
513.89802660248711
 21
304.4763954385021
 31
0.0
  0
LINE
  5
1251E
  8
0
 10
513.89802660248711
 20
318.07640213806422
 30
0.0
 11
513.69802694223358
 21
318.2763906224468
 31
0.0
  0
LINE
  5
1251F
  8
0
 10
497.24802694670387
 20
304.27639205295827
 30
0.0
 11
497.49802652202078
 21
304.52640373546859
 31
0.0
  0
LINE
  5
12520
  8
0
 10
497.49802652202078
 20
318.02639384109762
 30
0.0
 11
497.24802694670387
 21
318.2763906224468
 31
0.0
  0
LINE
  5
12521
  8
0
 10
497.24802694670387
 20
318.2763906224468
 30
0.0
 11
495.74802670083483
 21
318.2763906224468
 31
0.0
  0
LINE
  5
12522
  8
0
 10
495.74802670083483
 20
304.27639205295827
 30
0.0
 11
497.24802694670387
 21
304.27639205295827
 31
0.0
  0
LINE
  5
12523
  8
0
 10
495.74802670083483
 20
318.2763906224468
 30
0.0
 11
495.49802712551792
 21
318.02639384109762
 31
0.0
  0
LINE
  5
12524
  8
0
 10
495.49802712551792
 20
304.52640373546859
 30
0.0
 11
495.74802670083483
 21
304.27639205295827
 31
0.0
  0
LINE
  5
12525
  8
0
 10
514.04802634767725
 20
305.7764025433757
 30
0.0
 11
514.11302707544996
 21
305.84140140850332
 31
0.0
  0
LINE
  5
12526
  8
0
 10
514.11302707544996
 20
316.71139616806289
 30
0.0
 11
514.04802634767725
 21
316.77639503319051
 31
0.0
  0
LINE
  5
12527
  8
0
 10
514.04802634767725
 20
316.77639503319051
 30
0.0
 11
513.89802660248711
 21
316.77639503319051
 31
0.0
  0
LINE
  5
12528
  8
0
 10
513.89802660248711
 20
305.7764025433757
 30
0.0
 11
514.04802634767725
 21
305.7764025433757
 31
0.0
  0
LINE
  5
1252A
  8
0
 10
507.99802684612081
 20
340.0821687682369
 30
0.0
 11
500.99802663005431
 21
340.0821687682369
 31
0.0
  0
LINE
  5
1252B
  8
0
 10
511.49802695415451
 20
320.27639467556259
 30
0.0
 11
507.99802684612109
 21
320.27639467556259
 31
0.0
  0
LINE
  5
1252C
  8
0
 10
500.99802663005431
 20
320.27639467556259
 30
0.0
 11
497.49802652202078
 21
320.27639467556259
 31
0.0
  0
ARC
  5
1252D
  8
0
 10
555.99802673809222
 20
268.27639795143398
 30
0.0
 40
60.00000000000496
 50
174.74050353558329
 51
182.62697685498659
  0
ARC
  5
1252E
  8
0
 10
452.99802673805442
 20
268.27639795143398
 30
0.0
 40
60.000000000033381
 50
2.6269768549833561
 51
5.2594964644133722
  0
LINE
  5
1252F
  8
0
 10
512.74541153959467
 20
273.77639729816701
 30
0.0
 11
511.54802686921789
 21
273.77639729816701
 31
0.0
  0
LINE
  5
12530
  8
0
 10
497.44802660695751
 20
273.77639729816701
 30
0.0
 11
496.25064193658068
 21
273.77639729816701
 31
0.0
  0
LINE
  5
12531
  8
0
 10
504.54802673682462
 20
273.77639729816701
 30
0.0
 11
504.44802673935078
 21
273.77639729816701
 31
0.0
  0
LINE
  5
12532
  8
0
 10
504.54802673682462
 20
269.77639664251592
 30
0.0
 11
504.44802673935078
 21
269.77639664251592
 31
0.0
  0
LINE
  5
12533
  8
0
 10
504.44802673935078
 20
258.77639670212062
 30
0.0
 11
504.54802673682462
 21
258.77639670212062
 31
0.0
  0
LINE
  5
12537
  8
0
 10
513.94802651755049
 20
237.0763981743554
 30
0.0
 11
513.94802651755049
 21
223.47639892537379
 31
0.0
  0
LINE
  5
1253B
  8
0
 10
495.44802627913191
 20
223.5263997717598
 30
0.0
 11
495.44802627913191
 21
237.02639732796931
 31
0.0
  0
LINE
  5
1253D
  8
0
 10
489.75064180247
 20
235.77639852006209
 30
0.0
 11
489.75064180247023
 21
224.7763985796669
 31
0.0
  0
LINE
  5
1253F
  8
0
 10
519.43497307054236
 20
227.52639670212059
 30
0.0
 11
519.43497307054236
 21
233.02639667231821
 31
0.0
  0
LINE
  5
12540
  8
0
 10
519.24541167370512
 20
224.7763985796669
 30
0.0
 11
519.24541167370512
 21
235.7763985200622
 31
0.0
  0
LINE
  5
12541
  8
0
 10
517.99802708826496
 20
224.7763985796669
 30
0.0
 11
517.99802708826496
 21
235.7763985200622
 31
0.0
  0
LINE
  5
12542
  8
0
 10
490.99802638791039
 20
235.7763985200622
 30
0.0
 11
490.99802638791039
 21
224.7763985796669
 31
0.0
  0
ARC
  5
12544
  8
0
 10
566.36674729085905
 20
398.76266907974627
 30
0.0
 40
84.618720323066285
 50
180.00424486752399
 51
195.4247643936381
  0
ARC
  5
12546
  8
0
 10
442.62930618532232
 20
398.76266907974531
 30
0.0
 40
84.618720323059705
 50
344.57523560636179
 51
359.99575513247601
  0
ARC
  5
12548
  8
0
 10
566.36687638367709
 20
398.75009840730132
 30
0.0
 40
84.618849418290026
 50
164.57524743789941
 51
179.99573320575749
  0
ARC
  5
12549
  8
0
 10
442.62917709250968
 20
398.75009840730303
 30
0.0
 40
84.618849418278245
 50
0.0042667942424133
 51
15.424752562100601
  0
LINE
  5
1254C
  8
0
 10
509.0980268401608
 20
364.29086346466329
 30
0.0
 11
512.59802694819405
 21
364.29086346466318
 31
0.0
  0
LINE
  5
12550
  8
0
 10
496.3980265279813
 20
364.29086346466329
 30
0.0
 11
499.89802663601449
 21
364.29086346466329
 31
0.0
  0
ARC
  5
12553
  8
0
 10
527.13674817921992
 20
387.32156634917919
 30
0.0
 40
43.762786191493362
 50
194.64589229142601
 51
218.99240872520139
  0
ARC
  5
12554
  8
0
 10
481.8593052969515
 20
387.3215663491805
 30
0.0
 40
43.762786191497227
 50
321.0075912748012
 51
345.35410770857391
  0
ARC
  5
12555
  8
0
 10
527.13077285833083
 20
410.19426439723429
 30
0.0
 40
43.756234945202188
 50
141.00575270576931
 51
165.3559880194328
  0
ARC
  5
12557
  8
0
 10
481.8652806178481
 20
410.19426439723651
 30
0.0
 40
43.756234945197782
 50
14.644011980567189
 51
38.99424729423064
  0
ARC
  5
12558
  8
0
 10
505.03616996019008
 20
428.99569102987562
 30
0.0
 40
14.77051720288609
 50
92.087954027298366
 51
143.76009783701809
  0
ARC
  5
12559
  8
0
 10
503.9598835159847
 20
428.99569102987448
 30
0.0
 40
14.77051720288722
 50
36.239902162981828
 51
87.912045972688617
  0
POLYLINE
  5
1255A
  8
0
 66
     1
 10
0.0
 20
0.0
 30
0.0
 70
   128
  0
VERTEX
  5
12E15
  8
0
 10
515.87302650711968
 20
359.78525895912429
 30
0.0
  0
VERTEX
  5
12E16
  8
0
 10
514.38046566597654
 20
358.10050387222549
 30
0.0
  0
VERTEX
  5
12E17
  8
0
 10
512.69802677832081
 20
356.68054241974141
 30
0.0
  0
SEQEND
  5
12E18
  8
0
  0
LINE
  5
1255C
  8
0
 10
509.09802684016063
 20
354.72546193976387
 30
0.0
 11
507.20066687479152
 21
354.1498931153514
 31
0.0
  0
ARC
  5
1255D
  8
0
 10
504.49802673808767
 20
350.9321804933906
 30
0.0
 40
4.2021349604754086
 50
49.97223038811417
 51
130.02776961188579
  0
LINE
  5
1255E
  8
0
 10
499.89802663601461
 20
354.72546193976387
 30
0.0
 11
501.79538660138383
 21
354.1498931153514
 31
0.0
  0
POLYLINE
  5
12561
  8
0
 66
     1
 10
0.0
 20
0.0
 30
0.0
 70
   128
  0
VERTEX
  5
12E19
  8
0
 10
493.12302696905567
 20
359.78525895912429
 30
0.0
  0
VERTEX
  5
12E1A
  8
0
 10
494.6155878101988
 20
358.10050387222549
 30
0.0
  0
VERTEX
  5
12E1B
  8
0
 10
496.29802669785448
 20
356.68054241974141
 30
0.0
  0
SEQEND
  5
12E1C
  8
0
  0
ARC
  5
12573
  8
0
 10
504.49802673808767
 20
345.30565937376548
 30
0.0
 40
8.7566374567023768
 50
79.763125235687383
 51
100.2368747643126
  0
ARC
  5
12574
  8
0
 10
505.28488169294792
 20
368.75798030945691
 30
0.0
 40
15.018970179815391
 50
256.56557128986941
 51
261.0247824684547
  0
ARC
  5
12575
  8
0
 10
503.6386513090398
 20
369.13154042426532
 30
0.0
 40
15.39927590117985
 50
279.0249051542059
 51
283.55543515406981
  0
LINE
  5
12576
  8
0
 10
512.69802677832081
 20
356.68054241974141
 30
0.0
 11
512.59802694819405
 21
356.60834629375722
 31
0.0
  0
LINE
  5
12577
  8
0
 10
496.3980265279813
 20
356.60834629375722
 30
0.0
 11
496.29802669785448
 21
356.68054241974141
 31
0.0
  0
LINE
  5
12578
  8
0
 10
489.75064180247023
 20
316.77639503319051
 30
0.0
 11
489.75064180247023
 21
305.7764025433757
 31
0.0
  0
LINE
  5
1257A
  8
0
 10
519.43497307054236
 20
308.52639694053909
 30
0.0
 11
519.43497277306676
 21
314.02639795143301
 31
0.0
  0
LINE
  5
1257B
  8
0
 10
519.24541167370512
 20
305.7764025433757
 30
0.0
 11
519.24541167370512
 21
316.77639503319051
 31
0.0
  0
LINE
  5
1257C
  8
0
 10
517.99802708826496
 20
305.7764025433757
 30
0.0
 11
517.99802708826496
 21
316.77639503319051
 31
0.0
  0
LINE
  5
1257D
  8
0
 10
490.99802638791039
 20
316.77639503319051
 30
0.0
 11
490.99802638791039
 21
305.7764025433757
 31
0.0
  0
ARC
  5
1257E
  8
0
 10
513.11302673808746
 20
323.86639795143401
 30
0.0
 40
4.5000000000001874
 50
0.0
 51
22.107969215859821
  0
LINE
  5
1257F
  8
0
 10
517.61302671782209
 20
220.77639792401581
 30
0.0
 11
517.61302671782209
 21
323.86639733154561
 31
0.0
  0
LINE
  5
12581
  8
0
 10
514.11302707544996
 20
323.86639733154561
 30
0.0
 11
514.11302707544974
 21
220.77639792401581
 31
0.0
  0
ARC
  5
12582
  8
0
 10
513.11302673808746
 20
323.86639795143401
 30
0.0
 40
1.0000000000002269
 50
0.0
 51
22.107969215853782
  0
LINE
  5
12583
  8
0
 10
511.90130499578549
 20
329.50639743644979
 30
0.0
 11
514.03950288347437
 21
324.24275595981862
 31
0.0
  0
LINE
  5
12585
  8
0
 10
517.28216971657707
 20
325.55998880703243
 30
0.0
 11
515.67905902318194
 21
329.50639743644979
 31
0.0
  0
ARC
  5
12586
  8
0
 10
513.59802673808736
 20
337.28639795143403
 30
0.0
 40
0.9999999999997253
 50
180.0
 51
202.10796921586279
  0
LINE
  5
12587
  8
0
 10
509.42888337574442
 20
335.59280652839919
 30
0.0
 11
511.90130499578549
 21
329.50639743644979
 31
0.0
  0
ARC
  5
12588
  8
0
 10
513.59802673808736
 20
337.28639795143403
 30
0.0
 40
4.4999999999998179
 50
180.0
 51
202.10796921586279
  0
LINE
  5
12589
  8
0
 10
509.09802684016063
 20
364.29086346466329
 30
0.0
 11
509.09802684016063
 21
337.28639800388601
 31
0.0
  0
LINE
  5
1258B
  8
0
 10
512.59802694819405
 20
337.28639800388601
 30
0.0
 11
512.59802694819405
 21
364.29086346466329
 31
0.0
  0
LINE
  5
1258C
  8
0
 10
515.67905902318194
 20
329.50639743644979
 30
0.0
 11
512.67155020884707
 21
336.910039375613
 31
0.0
  0
LINE
  5
1258E
  8
0
 10
496.32450326732828
 20
336.910039375613
 30
0.0
 11
493.31699445299341
 21
329.50639743644979
 31
0.0
  0
ARC
  5
1258F
  8
0
 10
495.39802673808771
 20
337.28639795143403
 30
0.0
 40
0.999999999999857
 50
337.89203078414022
 51
0.0
  0
LINE
  5
12590
  8
0
 10
496.39802652798102
 20
364.29086346466329
 30
0.0
 11
496.3980265279813
 21
337.28639800388601
 31
0.0
  0
LINE
  5
12592
  8
0
 10
499.89802663601472
 20
337.28639800388601
 30
0.0
 11
499.89802663601472
 21
364.29086346466329
 31
0.0
  0
ARC
  5
12593
  8
0
 10
495.39802673808822
 20
337.28639795143403
 30
0.0
 40
4.4999999999993703
 50
337.89203078413709
 51
0.0
  0
LINE
  5
12594
  8
0
 10
497.09474848038991
 20
329.50639743644979
 30
0.0
 11
499.56717010043099
 21
335.59280652839919
 31
0.0
  0
LINE
  5
12596
  8
0
 10
491.38302675835331
 20
323.86639733154561
 30
0.0
 11
491.38302675835331
 21
220.77639792401581
 31
0.0
  0
ARC
  5
12597
  8
0
 10
495.8830267380871
 20
323.86639795143401
 30
0.0
 40
4.4999999999996341
 50
157.8920307841401
 51
180.0
  0
LINE
  5
12598
  8
0
 10
493.31699445299341
 20
329.50639743644979
 30
0.0
 11
491.71388375959827
 21
325.55998880703243
 31
0.0
  0
ARC
  5
12599
  8
0
 10
495.88302673808653
 20
323.86639795143401
 30
0.0
 40
0.9999999999990905
 50
157.89203078413411
 51
179.9999999999967
  0
LINE
  5
1259A
  8
0
 10
494.88302640072538
 20
220.77639792401581
 30
0.0
 11
494.88302640072538
 21
323.86639733154561
 31
0.0
  0
LINE
  5
1259B
  8
0
 10
494.95655059270098
 20
324.24275595981862
 30
0.0
 11
497.09474848038991
 21
329.50639743644979
 31
0.0
  0
LINE
  5
125A4
  8
0
 10
499.89802663601472
 20
345.97639758426931
 30
0.0
 11
509.09802684016063
 21
345.97639758426931
 31
0.0
  0
LINE
  5
125A5
  8
0
 10
499.89802663601472
 20
340.97640235264089
 30
0.0
 11
509.09802684016063
 21
340.97640235264089
 31
0.0
  0
LINE
  5
125A7
  8
0
 10
512.74541153959467
 20
258.77639670212062
 30
0.0
 11
512.74541153959444
 21
273.77639729816701
 31
0.0
  0
LINE
  5
125A8
  8
0
 10
496.06108053974322
 20
267.02639479477187
 30
0.0
 11
496.06108053974322
 21
261.5263985498645
 31
0.0
  0
LINE
  5
125A9
  8
0
 10
496.25064193658039
 20
273.77639729816701
 30
0.0
 11
496.25064193658039
 21
258.77639670212062
 31
0.0
  0
LINE
  5
125AA
  8
0
 10
500.94802671499087
 20
206.27639834124821
 30
0.0
 11
508.04802676118487
 21
206.2763983412483
 31
0.0
  0
LINE
  5
125AB
  8
0
 10
511.54802686921829
 20
206.2763983412483
 30
0.0
 11
513.99802643261432
 21
206.2763983412483
 31
0.0
  0
LINE
  5
125AC
  8
0
 10
513.99802643261432
 20
199.27639719385891
 30
0.0
 11
513.99802643261432
 21
206.2763983412483
 31
0.0
  0
POLYLINE
  5
125AD
  8
0
 66
     1
 10
0.0
 20
0.0
 30
0.0
 70
   128
  0
VERTEX
  5
12E1D
  8
0
 10
513.99802643261432
 20
199.6701901807287
 30
0.0
  0
VERTEX
  5
12E1E
  8
0
 10
511.6337052864539
 20
199.38125666517999
 30
0.0
  0
VERTEX
  5
12E1F
  8
0
 10
511.54802686921829
 20
199.37749225933339
 30
0.0
  0
SEQEND
  5
12E20
  8
0
  0
POLYLINE
  5
125AE
  8
0
 66
     1
 10
0.0
 20
0.0
 30
0.0
 70
   128
  0
VERTEX
  5
12E21
  8
0
 10
508.04802676118487
 20
199.3289163364866
 30
0.0
  0
VERTEX
  5
12E22
  8
0
 10
506.87302666171968
 20
199.38033838112139
 30
0.0
  0
VERTEX
  5
12E23
  8
0
 10
504.4980267380879
 20
199.6701901807287
 30
0.0
  0
SEQEND
  5
12E24
  8
0
  0
LINE
  5
125AF
  8
0
 10
504.49802673808807
 20
199.6701901807287
 30
0.0
 11
504.4980267380879
 21
206.2763983412483
 31
0.0
  0
POLYLINE
  5
125B0
  8
0
 66
     1
 10
0.0
 20
0.0
 30
0.0
 70
   128
  0
VERTEX
  5
12E25
  8
0
 10
504.4980267380879
 20
199.6701901807287
 30
0.0
  0
VERTEX
  5
12E26
  8
0
 10
502.13370535909712
 20
199.38125666517999
 30
0.0
  0
VERTEX
  5
12E27
  8
0
 10
500.94802671499127
 20
199.3291417165496
 30
0.0
  0
SEQEND
  5
12E28
  8
0
  0
POLYLINE
  5
125B1
  8
0
 66
     1
 10
0.0
 20
0.0
 30
0.0
 70
   128
  0
VERTEX
  5
12E29
  8
0
 10
497.44802660695791
 20
199.37705640036839
 30
0.0
  0
VERTEX
  5
12E2A
  8
0
 10
497.37302673436278
 20
199.38033838112139
 30
0.0
  0
VERTEX
  5
12E2B
  8
0
 10
494.99802704356188
 20
199.6701901807287
 30
0.0
  0
SEQEND
  5
12E2C
  8
0
  0
LINE
  5
125B2
  8
0
 10
494.9980270435621
 20
199.27639719385891
 30
0.0
 11
494.99802704356188
 21
206.2763983412483
 31
0.0
  0
LINE
  5
125B3
  8
0
 10
494.99802704356188
 20
206.2763983412483
 30
0.0
 11
497.44802660695791
 21
206.2763983412483
 31
0.0
  0
LINE
  5
125B5
  8
0
 10
500.94802671499127
 20
199.27639719385891
 30
0.0
 11
508.04802676118487
 21
199.27639719385891
 31
0.0
  0
LINE
  5
125B6
  8
0
 10
496.19802686772817
 20
206.77639749188211
 30
0.0
 11
497.44802660695791
 21
206.77639749188211
 31
0.0
  0
LINE
  5
125B7
  8
0
 10
500.94802671499127
 20
206.77639749188211
 30
0.0
 11
508.04802676118487
 21
206.77639749188211
 31
0.0
  0
LINE
  5
125B8
  8
0
 10
511.54802686921829
 20
206.77639749188211
 30
0.0
 11
512.79802660844803
 21
206.77639749188211
 31
0.0
  0
LINE
  5
125BA
  8
0
 10
511.54802686921829
 20
199.27639719385891
 30
0.0
 11
513.99802643261432
 21
199.27639719385891
 31
0.0
  0
LINE
  5
125BC
  8
0
 10
494.99802704356188
 20
199.27639719385891
 30
0.0
 11
497.44802660695791
 21
199.27639719385891
 31
0.0
  0
POLYLINE
  5
125BD
  8
0
 66
     1
 10
0.0
 20
0.0
 30
0.0
 70
   128
  0
VERTEX
  5
12E2D
  8
0
 10
513.99802643261432
 20
242.62490142423891
 30
0.0
  0
VERTEX
  5
12E2E
  8
0
 10
511.6708673854875
 20
242.00928975183751
 30
0.0
  0
VERTEX
  5
12E2F
  8
0
 10
511.54802686921829
 20
241.99748058159139
 30
0.0
  0
SEQEND
  5
12E30
  8
0
  0
LINE
  5
125BE
  8
0
 10
504.49802673590301
 20
243.2763950927951
 30
0.0
 11
504.49802672365882
 21
246.92789484102511
 31
0.0
  0
POLYLINE
  5
125BF
  8
0
 66
     1
 10
0.0
 20
0.0
 30
0.0
 70
   128
  0
VERTEX
  5
12E31
  8
0
 10
504.49802670922929
 20
246.92789484102511
 30
0.0
  0
VERTEX
  5
12E32
  8
0
 10
506.82518601804549
 20
247.54350651342659
 30
0.0
  0
VERTEX
  5
12E33
  8
0
 10
508.04802676118487
 20
247.6610543235042
 30
0.0
  0
SEQEND
  5
12E34
  8
0
  0
POLYLINE
  5
125C0
  8
0
 66
     1
 10
0.0
 20
0.0
 30
0.0
 70
   128
  0
VERTEX
  5
12E35
  8
0
 10
511.54802686921829
 20
247.5595103605487
 30
0.0
  0
VERTEX
  5
12E36
  8
0
 10
511.62302674181342
 20
247.55243230898171
 30
0.0
  0
VERTEX
  5
12E37
  8
0
 10
513.99802643261432
 20
246.92789484102511
 30
0.0
  0
SEQEND
  5
12E38
  8
0
  0
POLYLINE
  5
125C2
  8
0
 66
     1
 10
0.0
 20
0.0
 30
0.0
 70
   128
  0
VERTEX
  5
12E39
  8
0
 10
500.94802671499127
 20
247.6632373436191
 30
0.0
  0
VERTEX
  5
12E3A
  8
0
 10
502.12302681445658
 20
247.55243230898171
 30
0.0
  0
VERTEX
  5
12E3B
  8
0
 10
504.49802666305749
 20
246.92789484102511
 30
0.0
  0
SEQEND
  5
12E3C
  8
0
  0
POLYLINE
  5
125C3
  8
0
 66
     1
 10
0.0
 20
0.0
 30
0.0
 70
   128
  0
VERTEX
  5
12E3D
  8
0
 10
497.44802660695791
 20
241.99328590471529
 30
0.0
  0
VERTEX
  5
12E3E
  8
0
 10
497.37302673436278
 20
242.0003565057018
 30
0.0
  0
VERTEX
  5
12E3F
  8
0
 10
494.99802704356188
 20
242.62490142423891
 30
0.0
  0
SEQEND
  5
12E40
  8
0
  0
POLYLINE
  5
125C5
  8
0
 66
     1
 10
0.0
 20
0.0
 30
0.0
 70
   128
  0
VERTEX
  5
12E41
  8
0
 10
494.99802704356188
 20
246.92789484102511
 30
0.0
  0
VERTEX
  5
12E42
  8
0
 10
497.3251860906887
 20
247.54350651342659
 30
0.0
  0
VERTEX
  5
12E43
  8
0
 10
497.44802660695791
 20
247.55531568367269
 30
0.0
  0
SEQEND
  5
12E44
  8
0
  0
LINE
  5
125C7
  8
0
 10
511.54802686921829
 20
241.7763995035389
 30
0.0
 11
513.99802643261432
 21
241.7763995035389
 31
0.0
  0
LINE
  5
125C8
  8
0
 10
513.99802643261432
 20
241.77639950353901
 30
0.0
 11
513.99802643261432
 21
247.77639676172521
 31
0.0
  0
LINE
  5
125CA
  8
0
 10
494.99802704356188
 20
247.7763967617251
 30
0.0
 11
494.99802704356188
 21
241.7763995035389
 31
0.0
  0
LINE
  5
125CB
  8
0
 10
494.99802704356188
 20
241.7763995035389
 30
0.0
 11
497.44802660695791
 21
241.7763995035389
 31
0.0
  0
LINE
  5
125CF
  8
0
 10
513.89802660248711
 20
318.07640213806428
 30
0.0
 11
513.89802660248711
 21
304.4763954385021
 31
0.0
  0
LINE
  5
125D3
  8
0
 10
495.49802712551792
 20
304.52640373546859
 30
0.0
 11
495.49802712551792
 21
318.02639384109762
 31
0.0
  0
LINE
  5
125E9
  8
0
 10
500.99802663005431
 20
303.77639849025991
 30
0.0
 11
507.99802684612109
 21
303.77639849025991
 31
0.0
  0
LINE
  5
125ED
  8
0
 10
500.99802663005431
 20
289.27639890749242
 30
0.0
 11
507.99802684612109
 21
289.27639890749242
 31
0.0
  0
LINE
  5
125F2
  8
0
 10
500.99802663005431
 20
336.27639729816701
 30
0.0
 11
507.99802684612109
 21
336.27639729816701
 31
0.0
  0
LINE
  5
125FD
  8
0
 10
507.99802684612109
 20
340.08216876823678
 30
0.0
 11
507.99802684612109
 21
283.27640164930608
 31
0.0
  0
LINE
  5
125FF
  8
0
 10
511.49802695415451
 20
276.27639491398122
 30
0.0
 11
511.49802695415451
 21
320.27639467556253
 31
0.0
  0
LINE
  5
12603
  8
0
 10
500.99802663005431
 20
283.27640164930608
 30
0.0
 11
500.99802663005403
 21
340.08216876823678
 31
0.0
  0
LINE
  5
12604
  8
0
 10
497.49802652202078
 20
320.27639467556253
 30
0.0
 11
497.49802652202078
 21
276.27639491398122
 31
0.0
  0
LINE
  5
12606
  8
0
 10
507.99802684612109
 20
284.07640029032012
 30
0.0
 11
500.99802663005431
 21
284.07640029032018
 31
0.0
  0
LINE
  5
12609
  8
0
 10
512.9349729364319
 20
267.02639479477187
 30
0.0
 11
512.9349729364319
 21
271.02639545042302
 31
0.0
  0
LINE
  5
12610
  8
0
 10
504.54802673682428
 20
283.27640164930602
 30
0.0
 11
504.54802673682462
 21
253.27640045721321
 31
0.0
  0
LINE
  5
12619
  8
0
 10
508.04802676118447
 20
253.27640045721321
 30
0.0
 11
500.94802671499087
 21
253.27640045721321
 31
0.0
  0
LINE
  5
1261B
  8
0
 10
504.44802673935078
 20
253.27640045721321
 30
0.0
 11
504.4480267393505
 21
283.27640164930602
 31
0.0
  0
LINE
  5
12625
  8
0
 10
504.54802673682462
 20
283.27640164930608
 30
0.0
 11
508.04802676118447
 21
283.27640164930608
 31
0.0
  0
LINE
  5
12628
  8
0
 10
500.94802671499087
 20
283.27640164930608
 30
0.0
 11
504.44802673935078
 21
283.27640164930608
 31
0.0
  0
LINE
  5
12629
  8
0
 10
500.94802671499087
 20
283.27640164930608
 30
0.0
 11
500.94802671499087
 21
243.2763950927953
 31
0.0
  0
POLYLINE
  5
1262B
  8
0
 10
517.92657371257724
 20
282.4297172486306
 30
0.0
 66
     1
 70
     8
  0
VERTEX
  8
0
  5
1326D
 10
517.927
 20
282.430
 30
0.000000
  70
    32
  0
VERTEX
  8
0
  5
1326E
 10
517.924
 20
282.431
 30
0.000000
  70
    32
  0
VERTEX
  8
0
  5
1326F
 10
517.922
 20
282.433
 30
0.000000
  70
    32
  0
VERTEX
  8
0
  5
13270
 10
517.919
 20
282.434
 30
0.000000
  70
    32
  0
VERTEX
  8
0
  5
13271
 10
517.917
 20
282.435
 30
0.000000
  70
    32
  0
VERTEX
  8
0
  5
13272
 10
517.914
 20
282.437
 30
0.000000
  70
    32
  0
VERTEX
  8
0
  5
13273
 10
517.912
 20
282.438
 30
0.000000
  70
    32
  0
VERTEX
  8
0
  5
13274
 10
517.909
 20
282.440
 30
0.000000
  70
    32
  0
VERTEX
  8
0
  5
13275
 10
517.907
 20
282.441
 30
0.000000
  70
    32
  0
VERTEX
  8
0
  5
13276
 10
517.905
 20
282.443
 30
0.000000
  70
    32
  0
VERTEX
  8
0
  5
13277
 10
517.902
 20
282.444
 30
0.000000
  70
    32
  0
VERTEX
  8
0
  5
13278
 10
517.900
 20
282.446
 30
0.000000
  70
    32
  0
VERTEX
  8
0
  5
13279
 10
517.897
 20
282.447
 30
0.000000
  70
    32
  0
VERTEX
  8
0
  5
1327A
 10
517.895
 20
282.448
 30
0.000000
  70
    32
  0
VERTEX
  8
0
  5
1327B
 10
517.892
 20
282.450
 30
0.000000
  70
    32
  0
VERTEX
  8
0
  5
1327C
 10
517.890
 20
282.451
 30
0.000000
  70
    32
  0
VERTEX
  8
0
  5
1327D
 10
517.887
 20
282.453
 30
0.000000
  70
    32
  0
VERTEX
  8
0
  5
1327E
 10
517.885
 20
282.454
 30
0.000000
  70
    32
  0
VERTEX
  8
0
  5
1327F
 10
517.883
 20
282.456
 30
0.000000
  70
    32
  0
VERTEX
  8
0
  5
13280
 10
517.880
 20
282.457
 30
0.000000
  70
    32
  0
VERTEX
  8
0
  5
13281
 10
517.878
 20
282.458
 30
0.000000
  70
    32
  0
VERTEX
  8
0
  5
13282
 10
517.875
 20
282.460
 30
0.000000
  70
    32
  0
VERTEX
  8
0
  5
13283
 10
517.873
 20
282.461
 30
0.000000
  70
    32
  0
VERTEX
  8
0
  5
13284
 10
517.870
 20
282.463
 30
0.000000
  70
    32
  0
VERTEX
  8
0
  5
13285
 10
517.868
 20
282.464
 30
0.000000
  70
    32
  0
VERTEX
  8
0
  5
13286
 10
517.865
 20
282.465
 30
0.000000
  70
    32
  0
VERTEX
  8
0
  5
13287
 10
517.863
 20
282.467
 30
0.000000
  70
    32
  0
VERTEX
  8
0
  5
13288
 10
517.861
 20
282.468
 30
0.000000
  70
    32
  0
VERTEX
  8
0
  5
13289
 10
517.858
 20
282.470
 30
0.000000
  70
    32
  0
VERTEX
  8
0
  5
1328A
 10
517.856
 20
282.471
 30
0.000000
  70
    32
  0
VERTEX
  8
0
  5
1328B
 10
517.853
 20
282.473
 30
0.000000
  70
    32
  0
VERTEX
  8
0
  5
1328C
 10
517.851
 20
282.474
 30
0.000000
  70
    32
  0
VERTEX
  8
0
  5
1328D
 10
517.848
 20
282.475
 30
0.000000
  70
    32
  0
VERTEX
  8
0
  5
1328E
 10
517.846
 20
282.477
 30
0.000000
  70
    32
  0
VERTEX
  8
0
  5
1328F
 10
517.843
 20
282.478
 30
0.000000
  70
    32
  0
VERTEX
  8
0
  5
13290
 10
517.841
 20
282.480
 30
0.000000
  70
    32
  0
VERTEX
  8
0
  5
13291
 10
517.839
 20
282.481
 30
0.000000
  70
    32
  0
VERTEX
  8
0
  5
13292
 10
517.836
 20
282.482
 30
0.000000
  70
    32
  0
VERTEX
  8
0
  5
13293
 10
517.834
 20
282.484
 30
0.000000
  70
    32
  0
VERTEX
  8
0
  5
13294
 10
517.831
 20
282.485
 30
0.000000
  70
    32
  0
VERTEX
  8
0
  5
13295
 10
517.829
 20
282.487
 30
0.000000
  70
    32
  0
VERTEX
  8
0
  5
13296
 10
517.826
 20
282.488
 30
0.000000
  70
    32
  0
VERTEX
  8
0
  5
13297
 10
517.824
 20
282.489
 30
0.000000
  70
    32
  0
VERTEX
  8
0
  5
13298
 10
517.821
 20
282.491
 30
0.000000
  70
    32
  0
VERTEX
  8
0
  5
13299
 10
517.819
 20
282.492
 30
0.000000
  70
    32
  0
VERTEX
  8
0
  5
1329A
 10
517.817
 20
282.494
 30
0.000000
  70
    32
  0
VERTEX
  8
0
  5
1329B
 10
517.814
 20
282.495
 30
0.000000
  70
    32
  0
VERTEX
  8
0
  5
1329C
 10
517.812
 20
282.496
 30
0.000000
  70
    32
  0
VERTEX
  8
0
  5
1329D
 10
517.809
 20
282.498
 30
0.000000
  70
    32
  0
VERTEX
  8
0
  5
1329E
 10
517.807
 20
282.499
 30
0.000000
  70
    32
  0
VERTEX
  8
0
  5
1329F
 10
517.804
 20
282.500
 30
0.000000
  70
    32
  0
VERTEX
  8
0
  5
132A0
 10
517.802
 20
282.502
 30
0.000000
  70
    32
  0
VERTEX
  8
0
  5
132A1
 10
517.799
 20
282.503
 30
0.000000
  70
    32
  0
VERTEX
  8
0
  5
132A2
 10
517.797
 20
282.505
 30
0.000000
  70
    32
  0
VERTEX
  8
0
  5
132A3
 10
517.794
 20
282.506
 30
0.000000
  70
    32
  0
VERTEX
  8
0
  5
132A4
 10
517.792
 20
282.507
 30
0.000000
  70
    32
  0
VERTEX
  8
0
  5
132A5
 10
517.790
 20
282.509
 30
0.000000
  70
    32
  0
VERTEX
  8
0
  5
132A6
 10
517.787
 20
282.510
 30
0.000000
  70
    32
  0
VERTEX
  8
0
  5
132A7
 10
517.785
 20
282.512
 30
0.000000
  70
    32
  0
VERTEX
  8
0
  5
132A8
 10
517.782
 20
282.513
 30
0.000000
  70
    32
  0
VERTEX
  8
0
  5
132A9
 10
517.780
 20
282.514
 30
0.000000
  70
    32
  0
VERTEX
  8
0
  5
132AA
 10
517.777
 20
282.516
 30
0.000000
  70
    32
  0
VERTEX
  8
0
  5
132AB
 10
517.775
 20
282.517
 30
0.000000
  70
    32
  0
VERTEX
  8
0
  5
132AC
 10
517.772
 20
282.518
 30
0.000000
  70
    32
  0
VERTEX
  8
0
  5
132AD
 10
517.770
 20
282.520
 30
0.000000
  70
    32
  0
VERTEX
  8
0
  5
132AE
 10
517.768
 20
282.521
 30
0.000000
  70
    32
  0
VERTEX
  8
0
  5
132AF
 10
517.765
 20
282.522
 30
0.000000
  70
    32
  0
VERTEX
  8
0
  5
132B0
 10
517.763
 20
282.524
 30
0.000000
  70
    32
  0
VERTEX
  8
0
  5
132B1
 10
517.760
 20
282.525
 30
0.000000
  70
    32
  0
VERTEX
  8
0
  5
132B2
 10
517.758
 20
282.527
 30
0.000000
  70
    32
  0
VERTEX
  8
0
  5
132B3
 10
517.755
 20
282.528
 30
0.000000
  70
    32
  0
VERTEX
  8
0
  5
132B4
 10
517.753
 20
282.529
 30
0.000000
  70
    32
  0
VERTEX
  8
0
  5
132B5
 10
517.750
 20
282.531
 30
0.000000
  70
    32
  0
VERTEX
  8
0
  5
132B6
 10
517.748
 20
282.532
 30
0.000000
  70
    32
  0
VERTEX
  8
0
  5
132B7
 10
517.745
 20
282.533
 30
0.000000
  70
    32
  0
VERTEX
  8
0
  5
132B8
 10
517.743
 20
282.535
 30
0.000000
  70
    32
  0
VERTEX
  8
0
  5
132B9
 10
517.741
 20
282.536
 30
0.000000
  70
    32
  0
VERTEX
  8
0
  5
132BA
 10
517.738
 20
282.537
 30
0.000000
  70
    32
  0
VERTEX
  8
0
  5
132BB
 10
517.736
 20
282.539
 30
0.000000
  70
    32
  0
VERTEX
  8
0
  5
132BC
 10
517.733
 20
282.540
 30
0.000000
  70
    32
  0
VERTEX
  8
0
  5
132BD
 10
517.731
 20
282.541
 30
0.000000
  70
    32
  0
VERTEX
  8
0
  5
132BE
 10
517.728
 20
282.543
 30
0.000000
  70
    32
  0
VERTEX
  8
0
  5
132BF
 10
517.726
 20
282.544
 30
0.000000
  70
    32
  0
VERTEX
  8
0
  5
132C0
 10
517.723
 20
282.546
 30
0.000000
  70
    32
  0
VERTEX
  8
0
  5
132C1
 10
517.721
 20
282.547
 30
0.000000
  70
    32
  0
VERTEX
  8
0
  5
132C2
 10
517.719
 20
282.548
 30
0.000000
  70
    32
  0
VERTEX
  8
0
  5
132C3
 10
517.716
 20
282.550
 30
0.000000
  70
    32
  0
VERTEX
  8
0
  5
132C4
 10
517.714
 20
282.551
 30
0.000000
  70
    32
  0
VERTEX
  8
0
  5
132C5
 10
517.711
 20
282.552
 30
0.000000
  70
    32
  0
VERTEX
  8
0
  5
132C6
 10
517.709
 20
282.554
 30
0.000000
  70
    32
  0
VERTEX
  8
0
  5
132C7
 10
517.706
 20
282.555
 30
0.000000
  70
    32
  0
VERTEX
  8
0
  5
132C8
 10
517.704
 20
282.556
 30
0.000000
  70
    32
  0
VERTEX
  8
0
  5
132C9
 10
517.701
 20
282.558
 30
0.000000
  70
    32
  0
VERTEX
  8
0
  5
132CA
 10
517.699
 20
282.559
 30
0.000000
  70
    32
  0
VERTEX
  8
0
  5
132CB
 10
517.696
 20
282.560
 30
0.000000
  70
    32
  0
VERTEX
  8
0
  5
132CC
 10
517.694
 20
282.562
 30
0.000000
  70
    32
  0
VERTEX
  8
0
  5
132CD
 10
517.692
 20
282.563
 30
0.000000
  70
    32
  0
VERTEX
  8
0
  5
132CE
 10
517.689
 20
282.564
 30
0.000000
  70
    32
  0
VERTEX
  8
0
  5
132CF
 10
517.687
 20
282.566
 30
0.000000
  70
    32
  0
VERTEX
  8
0
  5
132D0
 10
517.684
 20
282.567
 30
0.000000
  70
    32
  0
VERTEX
  8
0
  5
132D1
 10
517.682
 20
282.568
 30
0.000000
  70
    32
  0
VERTEX
  8
0
  5
132D2
 10
517.679
 20
282.570
 30
0.000000
  70
    32
  0
VERTEX
  8
0
  5
132D3
 10
517.677
 20
282.571
 30
0.000000
  70
    32
  0
VERTEX
  8
0
  5
132D4
 10
517.674
 20
282.572
 30
0.000000
  70
    32
  0
VERTEX
  8
0
  5
132D5
 10
517.672
 20
282.573
 30
0.000000
  70
    32
  0
VERTEX
  8
0
  5
132D6
 10
517.669
 20
282.575
 30
0.000000
  70
    32
  0
VERTEX
  8
0
  5
132D7
 10
517.667
 20
282.576
 30
0.000000
  70
    32
  0
VERTEX
  8
0
  5
132D8
 10
517.665
 20
282.577
 30
0.000000
  70
    32
  0
VERTEX
  8
0
  5
132D9
 10
517.662
 20
282.579
 30
0.000000
  70
    32
  0
VERTEX
  8
0
  5
132DA
 10
517.660
 20
282.580
 30
0.000000
  70
    32
  0
VERTEX
  8
0
  5
132DB
 10
517.657
 20
282.581
 30
0.000000
  70
    32
  0
VERTEX
  8
0
  5
132DC
 10
517.655
 20
282.583
 30
0.000000
  70
    32
  0
VERTEX
  8
0
  5
132DD
 10
517.652
 20
282.584
 30
0.000000
  70
    32
  0
VERTEX
  8
0
  5
132DE
 10
517.650
 20
282.585
 30
0.000000
  70
    32
  0
VERTEX
  8
0
  5
132DF
 10
517.647
 20
282.587
 30
0.000000
  70
    32
  0
VERTEX
  8
0
  5
132E0
 10
517.645
 20
282.588
 30
0.000000
  70
    32
  0
VERTEX
  8
0
  5
132E1
 10
517.642
 20
282.589
 30
0.000000
  70
    32
  0
VERTEX
  8
0
  5
132E2
 10
517.640
 20
282.591
 30
0.000000
  70
    32
  0
VERTEX
  8
0
  5
132E3
 10
517.638
 20
282.592
 30
0.000000
  70
    32
  0
VERTEX
  8
0
  5
132E4
 10
517.635
 20
282.593
 30
0.000000
  70
    32
  0
VERTEX
  8
0
  5
132E5
 10
517.633
 20
282.594
 30
0.000000
  70
    32
  0
VERTEX
  8
0
  5
132E6
 10
517.630
 20
282.596
 30
0.000000
  70
    32
  0
VERTEX
  8
0
  5
132E7
 10
517.628
 20
282.597
 30
0.000000
  70
    32
  0
VERTEX
  8
0
  5
132E8
 10
517.625
 20
282.598
 30
0.000000
  70
    32
  0
VERTEX
  8
0
  5
132E9
 10
517.623
 20
282.600
 30
0.000000
  70
    32
  0
VERTEX
  8
0
  5
132EA
 10
517.620
 20
282.601
 30
0.000000
  70
    32
  0
VERTEX
  8
0
  5
132EB
 10
517.618
 20
282.602
 30
0.000000
  70
    32
  0
VERTEX
  8
0
  5
132EC
 10
517.615
 20
282.603
 30
0.000000
  70
    32
  0
VERTEX
  8
0
  5
132ED
 10
517.613
 20
282.605
 30
0.000000
  70
    32
  0
SEQEND
  8
0
  5
132EE
  0
LINE
  5
1262D
  8
0
 10
511.49802695415451
 20
283.27640164930608
 30
0.0
 11
514.11302707544996
 21
283.27640164930608
 31
0.0
  0
LINE
  5
1262E
  8
0
 10
517.92657415769531
 20
253.27640045721321
 30
0.0
 11
517.61302671782232
 21
253.27640045721321
 31
0.0
  0
LINE
  5
1262F
  8
0
 10
514.11302707544996
 20
253.27640045721321
 30
0.0
 11
511.54802686921789
 21
253.27640045721321
 31
0.0
  0
POLYLINE
  5
12631
  8
0
 10
491.38302673808744
 20
282.60478139439425
 30
0.0
 66
     1
 70
     8
  0
VERTEX
  8
0
  5
132EF
 10
491.383
 20
282.605
 30
0.000000
  70
    32
  0
VERTEX
  8
0
  5
132F0
 10
491.381
 20
282.603
 30
0.000000
  70
    32
  0
VERTEX
  8
0
  5
132F1
 10
491.378
 20
282.602
 30
0.000000
  70
    32
  0
VERTEX
  8
0
  5
132F2
 10
491.376
 20
282.601
 30
0.000000
  70
    32
  0
VERTEX
  8
0
  5
132F3
 10
491.373
 20
282.600
 30
0.000000
  70
    32
  0
VERTEX
  8
0
  5
132F4
 10
491.371
 20
282.598
 30
0.000000
  70
    32
  0
VERTEX
  8
0
  5
132F5
 10
491.368
 20
282.597
 30
0.000000
  70
    32
  0
VERTEX
  8
0
  5
132F6
 10
491.366
 20
282.596
 30
0.000000
  70
    32
  0
VERTEX
  8
0
  5
132F7
 10
491.363
 20
282.594
 30
0.000000
  70
    32
  0
VERTEX
  8
0
  5
132F8
 10
491.361
 20
282.593
 30
0.000000
  70
    32
  0
VERTEX
  8
0
  5
132F9
 10
491.358
 20
282.592
 30
0.000000
  70
    32
  0
VERTEX
  8
0
  5
132FA
 10
491.356
 20
282.591
 30
0.000000
  70
    32
  0
VERTEX
  8
0
  5
132FB
 10
491.354
 20
282.589
 30
0.000000
  70
    32
  0
VERTEX
  8
0
  5
132FC
 10
491.351
 20
282.588
 30
0.000000
  70
    32
  0
VERTEX
  8
0
  5
132FD
 10
491.349
 20
282.587
 30
0.000000
  70
    32
  0
VERTEX
  8
0
  5
132FE
 10
491.346
 20
282.585
 30
0.000000
  70
    32
  0
VERTEX
  8
0
  5
132FF
 10
491.344
 20
282.584
 30
0.000000
  70
    32
  0
VERTEX
  8
0
  5
13300
 10
491.341
 20
282.583
 30
0.000000
  70
    32
  0
VERTEX
  8
0
  5
13301
 10
491.339
 20
282.581
 30
0.000000
  70
    32
  0
VERTEX
  8
0
  5
13302
 10
491.336
 20
282.580
 30
0.000000
  70
    32
  0
VERTEX
  8
0
  5
13303
 10
491.334
 20
282.579
 30
0.000000
  70
    32
  0
VERTEX
  8
0
  5
13304
 10
491.331
 20
282.577
 30
0.000000
  70
    32
  0
VERTEX
  8
0
  5
13305
 10
491.329
 20
282.576
 30
0.000000
  70
    32
  0
VERTEX
  8
0
  5
13306
 10
491.327
 20
282.575
 30
0.000000
  70
    32
  0
VERTEX
  8
0
  5
13307
 10
491.324
 20
282.573
 30
0.000000
  70
    32
  0
VERTEX
  8
0
  5
13308
 10
491.322
 20
282.572
 30
0.000000
  70
    32
  0
VERTEX
  8
0
  5
13309
 10
491.319
 20
282.571
 30
0.000000
  70
    32
  0
VERTEX
  8
0
  5
1330A
 10
491.317
 20
282.570
 30
0.000000
  70
    32
  0
VERTEX
  8
0
  5
1330B
 10
491.314
 20
282.568
 30
0.000000
  70
    32
  0
VERTEX
  8
0
  5
1330C
 10
491.312
 20
282.567
 30
0.000000
  70
    32
  0
VERTEX
  8
0
  5
1330D
 10
491.309
 20
282.566
 30
0.000000
  70
    32
  0
VERTEX
  8
0
  5
1330E
 10
491.307
 20
282.564
 30
0.000000
  70
    32
  0
VERTEX
  8
0
  5
1330F
 10
491.305
 20
282.563
 30
0.000000
  70
    32
  0
VERTEX
  8
0
  5
13310
 10
491.302
 20
282.562
 30
0.000000
  70
    32
  0
VERTEX
  8
0
  5
13311
 10
491.300
 20
282.560
 30
0.000000
  70
    32
  0
VERTEX
  8
0
  5
13312
 10
491.297
 20
282.559
 30
0.000000
  70
    32
  0
VERTEX
  8
0
  5
13313
 10
491.295
 20
282.558
 30
0.000000
  70
    32
  0
VERTEX
  8
0
  5
13314
 10
491.292
 20
282.556
 30
0.000000
  70
    32
  0
VERTEX
  8
0
  5
13315
 10
491.290
 20
282.555
 30
0.000000
  70
    32
  0
VERTEX
  8
0
  5
13316
 10
491.287
 20
282.554
 30
0.000000
  70
    32
  0
VERTEX
  8
0
  5
13317
 10
491.285
 20
282.552
 30
0.000000
  70
    32
  0
VERTEX
  8
0
  5
13318
 10
491.282
 20
282.551
 30
0.000000
  70
    32
  0
VERTEX
  8
0
  5
13319
 10
491.280
 20
282.550
 30
0.000000
  70
    32
  0
VERTEX
  8
0
  5
1331A
 10
491.278
 20
282.548
 30
0.000000
  70
    32
  0
VERTEX
  8
0
  5
1331B
 10
491.275
 20
282.547
 30
0.000000
  70
    32
  0
VERTEX
  8
0
  5
1331C
 10
491.273
 20
282.546
 30
0.000000
  70
    32
  0
VERTEX
  8
0
  5
1331D
 10
491.270
 20
282.544
 30
0.000000
  70
    32
  0
VERTEX
  8
0
  5
1331E
 10
491.268
 20
282.543
 30
0.000000
  70
    32
  0
VERTEX
  8
0
  5
1331F
 10
491.265
 20
282.541
 30
0.000000
  70
    32
  0
VERTEX
  8
0
  5
13320
 10
491.263
 20
282.540
 30
0.000000
  70
    32
  0
VERTEX
  8
0
  5
13321
 10
491.260
 20
282.539
 30
0.000000
  70
    32
  0
VERTEX
  8
0
  5
13322
 10
491.258
 20
282.537
 30
0.000000
  70
    32
  0
VERTEX
  8
0
  5
13323
 10
491.255
 20
282.536
 30
0.000000
  70
    32
  0
VERTEX
  8
0
  5
13324
 10
491.253
 20
282.535
 30
0.000000
  70
    32
  0
VERTEX
  8
0
  5
13325
 10
491.251
 20
282.533
 30
0.000000
  70
    32
  0
VERTEX
  8
0
  5
13326
 10
491.248
 20
282.532
 30
0.000000
  70
    32
  0
VERTEX
  8
0
  5
13327
 10
491.246
 20
282.531
 30
0.000000
  70
    32
  0
VERTEX
  8
0
  5
13328
 10
491.243
 20
282.529
 30
0.000000
  70
    32
  0
VERTEX
  8
0
  5
13329
 10
491.241
 20
282.528
 30
0.000000
  70
    32
  0
VERTEX
  8
0
  5
1332A
 10
491.238
 20
282.527
 30
0.000000
  70
    32
  0
VERTEX
  8
0
  5
1332B
 10
491.236
 20
282.525
 30
0.000000
  70
    32
  0
VERTEX
  8
0
  5
1332C
 10
491.233
 20
282.524
 30
0.000000
  70
    32
  0
VERTEX
  8
0
  5
1332D
 10
491.231
 20
282.522
 30
0.000000
  70
    32
  0
VERTEX
  8
0
  5
1332E
 10
491.229
 20
282.521
 30
0.000000
  70
    32
  0
VERTEX
  8
0
  5
1332F
 10
491.226
 20
282.520
 30
0.000000
  70
    32
  0
VERTEX
  8
0
  5
13330
 10
491.224
 20
282.518
 30
0.000000
  70
    32
  0
VERTEX
  8
0
  5
13331
 10
491.221
 20
282.517
 30
0.000000
  70
    32
  0
VERTEX
  8
0
  5
13332
 10
491.219
 20
282.516
 30
0.000000
  70
    32
  0
VERTEX
  8
0
  5
13333
 10
491.216
 20
282.514
 30
0.000000
  70
    32
  0
VERTEX
  8
0
  5
13334
 10
491.214
 20
282.513
 30
0.000000
  70
    32
  0
VERTEX
  8
0
  5
13335
 10
491.211
 20
282.512
 30
0.000000
  70
    32
  0
VERTEX
  8
0
  5
13336
 10
491.209
 20
282.510
 30
0.000000
  70
    32
  0
VERTEX
  8
0
  5
13337
 10
491.206
 20
282.509
 30
0.000000
  70
    32
  0
VERTEX
  8
0
  5
13338
 10
491.204
 20
282.507
 30
0.000000
  70
    32
  0
VERTEX
  8
0
  5
13339
 10
491.202
 20
282.506
 30
0.000000
  70
    32
  0
VERTEX
  8
0
  5
1333A
 10
491.199
 20
282.505
 30
0.000000
  70
    32
  0
VERTEX
  8
0
  5
1333B
 10
491.197
 20
282.503
 30
0.000000
  70
    32
  0
VERTEX
  8
0
  5
1333C
 10
491.194
 20
282.502
 30
0.000000
  70
    32
  0
VERTEX
  8
0
  5
1333D
 10
491.192
 20
282.500
 30
0.000000
  70
    32
  0
VERTEX
  8
0
  5
1333E
 10
491.189
 20
282.499
 30
0.000000
  70
    32
  0
VERTEX
  8
0
  5
1333F
 10
491.187
 20
282.498
 30
0.000000
  70
    32
  0
VERTEX
  8
0
  5
13340
 10
491.184
 20
282.496
 30
0.000000
  70
    32
  0
VERTEX
  8
0
  5
13341
 10
491.182
 20
282.495
 30
0.000000
  70
    32
  0
VERTEX
  8
0
  5
13342
 10
491.180
 20
282.494
 30
0.000000
  70
    32
  0
VERTEX
  8
0
  5
13343
 10
491.177
 20
282.492
 30
0.000000
  70
    32
  0
VERTEX
  8
0
  5
13344
 10
491.175
 20
282.491
 30
0.000000
  70
    32
  0
VERTEX
  8
0
  5
13345
 10
491.172
 20
282.489
 30
0.000000
  70
    32
  0
VERTEX
  8
0
  5
13346
 10
491.170
 20
282.488
 30
0.000000
  70
    32
  0
VERTEX
  8
0
  5
13347
 10
491.167
 20
282.487
 30
0.000000
  70
    32
  0
VERTEX
  8
0
  5
13348
 10
491.165
 20
282.485
 30
0.000000
  70
    32
  0
VERTEX
  8
0
  5
13349
 10
491.162
 20
282.484
 30
0.000000
  70
    32
  0
VERTEX
  8
0
  5
1334A
 10
491.160
 20
282.482
 30
0.000000
  70
    32
  0
VERTEX
  8
0
  5
1334B
 10
491.158
 20
282.481
 30
0.000000
  70
    32
  0
VERTEX
  8
0
  5
1334C
 10
491.155
 20
282.480
 30
0.000000
  70
    32
  0
VERTEX
  8
0
  5
1334D
 10
491.153
 20
282.478
 30
0.000000
  70
    32
  0
VERTEX
  8
0
  5
1334E
 10
491.150
 20
282.477
 30
0.000000
  70
    32
  0
VERTEX
  8
0
  5
1334F
 10
491.148
 20
282.475
 30
0.000000
  70
    32
  0
VERTEX
  8
0
  5
13350
 10
491.145
 20
282.474
 30
0.000000
  70
    32
  0
VERTEX
  8
0
  5
13351
 10
491.143
 20
282.473
 30
0.000000
  70
    32
  0
VERTEX
  8
0
  5
13352
 10
491.140
 20
282.471
 30
0.000000
  70
    32
  0
VERTEX
  8
0
  5
13353
 10
491.138
 20
282.470
 30
0.000000
  70
    32
  0
VERTEX
  8
0
  5
13354
 10
491.136
 20
282.468
 30
0.000000
  70
    32
  0
VERTEX
  8
0
  5
13355
 10
491.133
 20
282.467
 30
0.000000
  70
    32
  0
VERTEX
  8
0
  5
13356
 10
491.131
 20
282.465
 30
0.000000
  70
    32
  0
VERTEX
  8
0
  5
13357
 10
491.128
 20
282.464
 30
0.000000
  70
    32
  0
VERTEX
  8
0
  5
13358
 10
491.126
 20
282.463
 30
0.000000
  70
    32
  0
VERTEX
  8
0
  5
13359
 10
491.123
 20
282.461
 30
0.000000
  70
    32
  0
VERTEX
  8
0
  5
1335A
 10
491.121
 20
282.460
 30
0.000000
  70
    32
  0
VERTEX
  8
0
  5
1335B
 10
491.118
 20
282.458
 30
0.000000
  70
    32
  0
VERTEX
  8
0
  5
1335C
 10
491.116
 20
282.457
 30
0.000000
  70
    32
  0
VERTEX
  8
0
  5
1335D
 10
491.113
 20
282.456
 30
0.000000
  70
    32
  0
VERTEX
  8
0
  5
1335E
 10
491.111
 20
282.454
 30
0.000000
  70
    32
  0
VERTEX
  8
0
  5
1335F
 10
491.109
 20
282.453
 30
0.000000
  70
    32
  0
VERTEX
  8
0
  5
13360
 10
491.106
 20
282.451
 30
0.000000
  70
    32
  0
VERTEX
  8
0
  5
13361
 10
491.104
 20
282.450
 30
0.000000
  70
    32
  0
VERTEX
  8
0
  5
13362
 10
491.101
 20
282.448
 30
0.000000
  70
    32
  0
VERTEX
  8
0
  5
13363
 10
491.099
 20
282.447
 30
0.000000
  70
    32
  0
VERTEX
  8
0
  5
13364
 10
491.096
 20
282.446
 30
0.000000
  70
    32
  0
VERTEX
  8
0
  5
13365
 10
491.094
 20
282.444
 30
0.000000
  70
    32
  0
VERTEX
  8
0
  5
13366
 10
491.091
 20
282.443
 30
0.000000
  70
    32
  0
VERTEX
  8
0
  5
13367
 10
491.089
 20
282.441
 30
0.000000
  70
    32
  0
VERTEX
  8
0
  5
13368
 10
491.087
 20
282.440
 30
0.000000
  70
    32
  0
VERTEX
  8
0
  5
13369
 10
491.084
 20
282.438
 30
0.000000
  70
    32
  0
VERTEX
  8
0
  5
1336A
 10
491.082
 20
282.437
 30
0.000000
  70
    32
  0
VERTEX
  8
0
  5
1336B
 10
491.079
 20
282.435
 30
0.000000
  70
    32
  0
VERTEX
  8
0
  5
1336C
 10
491.077
 20
282.434
 30
0.000000
  70
    32
  0
VERTEX
  8
0
  5
1336D
 10
491.074
 20
282.433
 30
0.000000
  70
    32
  0
VERTEX
  8
0
  5
1336E
 10
491.072
 20
282.431
 30
0.000000
  70
    32
  0
VERTEX
  8
0
  5
1336F
 10
491.069
 20
282.430
 30
0.000000
  70
    32
  0
SEQEND
  8
0
  5
13370
  0
LINE
  5
12632
  8
0
 10
494.88302640072561
 20
283.27640164930608
 30
0.0
 11
497.49802652202078
 21
283.27640164930608
 31
0.0
  0
LINE
  5
12633
  8
0
 10
497.44802660695751
 20
253.27640045721321
 30
0.0
 11
494.88302640072561
 21
253.27640045721321
 31
0.0
  0
LINE
  5
12634
  8
0
 10
491.38302675835331
 20
253.27640045721321
 30
0.0
 11
491.06947931848021
 21
253.27640045721321
 31
0.0
  0
LINE
  5
12635
  8
0
 10
518.32699071071602
 20
282.08822775919219
 30
0.0
 11
517.92657415769531
 21
282.4297176702716
 31
0.0
  0
LINE
  5
12636
  8
0
 10
491.06947931848021
 20
282.4297176702716
 30
0.0
 11
490.66906276545961
 21
282.08822775919219
 31
0.0
  0
POLYLINE
  5
12637
  8
0
 66
     1
 10
0.0
 20
0.0
 30
0.0
 70
   128
  0
VERTEX
  5
12E45
  8
0
 10
518.38488637856688
 20
253.27640045721321
 30
0.0
  0
VERTEX
  5
12E46
  8
0
 10
518.49006901882137
 20
253.0986668570736
 30
0.0
  0
VERTEX
  5
12E47
  8
0
 10
518.49802717022146
 20
252.9386730893352
 30
0.0
  0
SEQEND
  5
12E48
  8
0
  0
POLYLINE
  5
12638
  8
0
 10
518.49802673808779
 20
281.62906631142209
 30
0.0
 66
     1
 70
     8
  0
VERTEX
  8
0
  5
13371
 10
518.498
 20
281.629
 30
0.000000
  70
    32
  0
VERTEX
  8
0
  5
13372
 10
518.498
 20
281.633
 30
0.000000
  70
    32
  0
VERTEX
  8
0
  5
13373
 10
518.498
 20
281.636
 30
0.000000
  70
    32
  0
VERTEX
  8
0
  5
13374
 10
518.498
 20
281.640
 30
0.000000
  70
    32
  0
VERTEX
  8
0
  5
13375
 10
518.498
 20
281.643
 30
0.000000
  70
    32
  0
VERTEX
  8
0
  5
13376
 10
518.498
 20
281.647
 30
0.000000
  70
    32
  0
VERTEX
  8
0
  5
13377
 10
518.498
 20
281.651
 30
0.000000
  70
    32
  0
VERTEX
  8
0
  5
13378
 10
518.498
 20
281.654
 30
0.000000
  70
    32
  0
VERTEX
  8
0
  5
13379
 10
518.497
 20
281.658
 30
0.000000
  70
    32
  0
VERTEX
  8
0
  5
1337A
 10
518.497
 20
281.662
 30
0.000000
  70
    32
  0
VERTEX
  8
0
  5
1337B
 10
518.497
 20
281.665
 30
0.000000
  70
    32
  0
VERTEX
  8
0
  5
1337C
 10
518.497
 20
281.669
 30
0.000000
  70
    32
  0
VERTEX
  8
0
  5
1337D
 10
518.497
 20
281.672
 30
0.000000
  70
    32
  0
VERTEX
  8
0
  5
1337E
 10
518.496
 20
281.676
 30
0.000000
  70
    32
  0
VERTEX
  8
0
  5
1337F
 10
518.496
 20
281.680
 30
0.000000
  70
    32
  0
VERTEX
  8
0
  5
13380
 10
518.496
 20
281.683
 30
0.000000
  70
    32
  0
VERTEX
  8
0
  5
13381
 10
518.495
 20
281.687
 30
0.000000
  70
    32
  0
VERTEX
  8
0
  5
13382
 10
518.495
 20
281.690
 30
0.000000
  70
    32
  0
VERTEX
  8
0
  5
13383
 10
518.495
 20
281.694
 30
0.000000
  70
    32
  0
VERTEX
  8
0
  5
13384
 10
518.494
 20
281.698
 30
0.000000
  70
    32
  0
VERTEX
  8
0
  5
13385
 10
518.494
 20
281.701
 30
0.000000
  70
    32
  0
VERTEX
  8
0
  5
13386
 10
518.493
 20
281.705
 30
0.000000
  70
    32
  0
VERTEX
  8
0
  5
13387
 10
518.493
 20
281.708
 30
0.000000
  70
    32
  0
VERTEX
  8
0
  5
13388
 10
518.492
 20
281.712
 30
0.000000
  70
    32
  0
VERTEX
  8
0
  5
13389
 10
518.492
 20
281.716
 30
0.000000
  70
    32
  0
VERTEX
  8
0
  5
1338A
 10
518.491
 20
281.719
 30
0.000000
  70
    32
  0
VERTEX
  8
0
  5
1338B
 10
518.491
 20
281.723
 30
0.000000
  70
    32
  0
VERTEX
  8
0
  5
1338C
 10
518.490
 20
281.726
 30
0.000000
  70
    32
  0
VERTEX
  8
0
  5
1338D
 10
518.490
 20
281.730
 30
0.000000
  70
    32
  0
VERTEX
  8
0
  5
1338E
 10
518.489
 20
281.734
 30
0.000000
  70
    32
  0
VERTEX
  8
0
  5
1338F
 10
518.489
 20
281.737
 30
0.000000
  70
    32
  0
VERTEX
  8
0
  5
13390
 10
518.488
 20
281.741
 30
0.000000
  70
    32
  0
VERTEX
  8
0
  5
13391
 10
518.487
 20
281.744
 30
0.000000
  70
    32
  0
VERTEX
  8
0
  5
13392
 10
518.487
 20
281.748
 30
0.000000
  70
    32
  0
VERTEX
  8
0
  5
13393
 10
518.486
 20
281.752
 30
0.000000
  70
    32
  0
VERTEX
  8
0
  5
13394
 10
518.485
 20
281.755
 30
0.000000
  70
    32
  0
VERTEX
  8
0
  5
13395
 10
518.484
 20
281.759
 30
0.000000
  70
    32
  0
VERTEX
  8
0
  5
13396
 10
518.484
 20
281.762
 30
0.000000
  70
    32
  0
VERTEX
  8
0
  5
13397
 10
518.483
 20
281.766
 30
0.000000
  70
    32
  0
VERTEX
  8
0
  5
13398
 10
518.482
 20
281.770
 30
0.000000
  70
    32
  0
VERTEX
  8
0
  5
13399
 10
518.481
 20
281.773
 30
0.000000
  70
    32
  0
VERTEX
  8
0
  5
1339A
 10
518.480
 20
281.777
 30
0.000000
  70
    32
  0
VERTEX
  8
0
  5
1339B
 10
518.480
 20
281.781
 30
0.000000
  70
    32
  0
VERTEX
  8
0
  5
1339C
 10
518.479
 20
281.784
 30
0.000000
  70
    32
  0
VERTEX
  8
0
  5
1339D
 10
518.478
 20
281.788
 30
0.000000
  70
    32
  0
VERTEX
  8
0
  5
1339E
 10
518.477
 20
281.791
 30
0.000000
  70
    32
  0
VERTEX
  8
0
  5
1339F
 10
518.476
 20
281.795
 30
0.000000
  70
    32
  0
VERTEX
  8
0
  5
133A0
 10
518.475
 20
281.799
 30
0.000000
  70
    32
  0
VERTEX
  8
0
  5
133A1
 10
518.474
 20
281.802
 30
0.000000
  70
    32
  0
VERTEX
  8
0
  5
133A2
 10
518.473
 20
281.806
 30
0.000000
  70
    32
  0
VERTEX
  8
0
  5
133A3
 10
518.472
 20
281.809
 30
0.000000
  70
    32
  0
VERTEX
  8
0
  5
133A4
 10
518.471
 20
281.813
 30
0.000000
  70
    32
  0
VERTEX
  8
0
  5
133A5
 10
518.470
 20
281.816
 30
0.000000
  70
    32
  0
VERTEX
  8
0
  5
133A6
 10
518.469
 20
281.820
 30
0.000000
  70
    32
  0
VERTEX
  8
0
  5
133A7
 10
518.468
 20
281.824
 30
0.000000
  70
    32
  0
VERTEX
  8
0
  5
133A8
 10
518.466
 20
281.827
 30
0.000000
  70
    32
  0
VERTEX
  8
0
  5
133A9
 10
518.465
 20
281.831
 30
0.000000
  70
    32
  0
VERTEX
  8
0
  5
133AA
 10
518.464
 20
281.834
 30
0.000000
  70
    32
  0
VERTEX
  8
0
  5
133AB
 10
518.463
 20
281.838
 30
0.000000
  70
    32
  0
VERTEX
  8
0
  5
133AC
 10
518.462
 20
281.842
 30
0.000000
  70
    32
  0
VERTEX
  8
0
  5
133AD
 10
518.460
 20
281.845
 30
0.000000
  70
    32
  0
VERTEX
  8
0
  5
133AE
 10
518.459
 20
281.849
 30
0.000000
  70
    32
  0
VERTEX
  8
0
  5
133AF
 10
518.458
 20
281.852
 30
0.000000
  70
    32
  0
VERTEX
  8
0
  5
133B0
 10
518.457
 20
281.856
 30
0.000000
  70
    32
  0
VERTEX
  8
0
  5
133B1
 10
518.455
 20
281.860
 30
0.000000
  70
    32
  0
VERTEX
  8
0
  5
133B2
 10
518.454
 20
281.863
 30
0.000000
  70
    32
  0
VERTEX
  8
0
  5
133B3
 10
518.452
 20
281.867
 30
0.000000
  70
    32
  0
VERTEX
  8
0
  5
133B4
 10
518.451
 20
281.870
 30
0.000000
  70
    32
  0
VERTEX
  8
0
  5
133B5
 10
518.450
 20
281.874
 30
0.000000
  70
    32
  0
VERTEX
  8
0
  5
133B6
 10
518.448
 20
281.878
 30
0.000000
  70
    32
  0
VERTEX
  8
0
  5
133B7
 10
518.447
 20
281.881
 30
0.000000
  70
    32
  0
VERTEX
  8
0
  5
133B8
 10
518.445
 20
281.885
 30
0.000000
  70
    32
  0
VERTEX
  8
0
  5
133B9
 10
518.444
 20
281.888
 30
0.000000
  70
    32
  0
VERTEX
  8
0
  5
133BA
 10
518.442
 20
281.892
 30
0.000000
  70
    32
  0
VERTEX
  8
0
  5
133BB
 10
518.441
 20
281.896
 30
0.000000
  70
    32
  0
VERTEX
  8
0
  5
133BC
 10
518.439
 20
281.899
 30
0.000000
  70
    32
  0
VERTEX
  8
0
  5
133BD
 10
518.438
 20
281.903
 30
0.000000
  70
    32
  0
VERTEX
  8
0
  5
133BE
 10
518.436
 20
281.906
 30
0.000000
  70
    32
  0
VERTEX
  8
0
  5
133BF
 10
518.434
 20
281.910
 30
0.000000
  70
    32
  0
VERTEX
  8
0
  5
133C0
 10
518.433
 20
281.913
 30
0.000000
  70
    32
  0
VERTEX
  8
0
  5
133C1
 10
518.431
 20
281.917
 30
0.000000
  70
    32
  0
VERTEX
  8
0
  5
133C2
 10
518.429
 20
281.921
 30
0.000000
  70
    32
  0
VERTEX
  8
0
  5
133C3
 10
518.428
 20
281.924
 30
0.000000
  70
    32
  0
VERTEX
  8
0
  5
133C4
 10
518.426
 20
281.928
 30
0.000000
  70
    32
  0
VERTEX
  8
0
  5
133C5
 10
518.424
 20
281.931
 30
0.000000
  70
    32
  0
VERTEX
  8
0
  5
133C6
 10
518.422
 20
281.935
 30
0.000000
  70
    32
  0
VERTEX
  8
0
  5
133C7
 10
518.421
 20
281.939
 30
0.000000
  70
    32
  0
VERTEX
  8
0
  5
133C8
 10
518.419
 20
281.942
 30
0.000000
  70
    32
  0
VERTEX
  8
0
  5
133C9
 10
518.417
 20
281.946
 30
0.000000
  70
    32
  0
VERTEX
  8
0
  5
133CA
 10
518.415
 20
281.949
 30
0.000000
  70
    32
  0
VERTEX
  8
0
  5
133CB
 10
518.413
 20
281.953
 30
0.000000
  70
    32
  0
VERTEX
  8
0
  5
133CC
 10
518.411
 20
281.956
 30
0.000000
  70
    32
  0
VERTEX
  8
0
  5
133CD
 10
518.410
 20
281.960
 30
0.000000
  70
    32
  0
VERTEX
  8
0
  5
133CE
 10
518.408
 20
281.964
 30
0.000000
  70
    32
  0
VERTEX
  8
0
  5
133CF
 10
518.406
 20
281.967
 30
0.000000
  70
    32
  0
VERTEX
  8
0
  5
133D0
 10
518.404
 20
281.971
 30
0.000000
  70
    32
  0
VERTEX
  8
0
  5
133D1
 10
518.402
 20
281.974
 30
0.000000
  70
    32
  0
VERTEX
  8
0
  5
133D2
 10
518.400
 20
281.978
 30
0.000000
  70
    32
  0
VERTEX
  8
0
  5
133D3
 10
518.398
 20
281.981
 30
0.000000
  70
    32
  0
VERTEX
  8
0
  5
133D4
 10
518.396
 20
281.985
 30
0.000000
  70
    32
  0
VERTEX
  8
0
  5
133D5
 10
518.394
 20
281.989
 30
0.000000
  70
    32
  0
VERTEX
  8
0
  5
133D6
 10
518.391
 20
281.992
 30
0.000000
  70
    32
  0
VERTEX
  8
0
  5
133D7
 10
518.389
 20
281.996
 30
0.000000
  70
    32
  0
VERTEX
  8
0
  5
133D8
 10
518.387
 20
281.999
 30
0.000000
  70
    32
  0
VERTEX
  8
0
  5
133D9
 10
518.385
 20
282.003
 30
0.000000
  70
    32
  0
VERTEX
  8
0
  5
133DA
 10
518.383
 20
282.006
 30
0.000000
  70
    32
  0
VERTEX
  8
0
  5
133DB
 10
518.381
 20
282.010
 30
0.000000
  70
    32
  0
VERTEX
  8
0
  5
133DC
 10
518.378
 20
282.014
 30
0.000000
  70
    32
  0
VERTEX
  8
0
  5
133DD
 10
518.376
 20
282.017
 30
0.000000
  70
    32
  0
VERTEX
  8
0
  5
133DE
 10
518.374
 20
282.021
 30
0.000000
  70
    32
  0
VERTEX
  8
0
  5
133DF
 10
518.372
 20
282.024
 30
0.000000
  70
    32
  0
VERTEX
  8
0
  5
133E0
 10
518.369
 20
282.028
 30
0.000000
  70
    32
  0
VERTEX
  8
0
  5
133E1
 10
518.367
 20
282.031
 30
0.000000
  70
    32
  0
VERTEX
  8
0
  5
133E2
 10
518.365
 20
282.035
 30
0.000000
  70
    32
  0
VERTEX
  8
0
  5
133E3
 10
518.362
 20
282.038
 30
0.000000
  70
    32
  0
VERTEX
  8
0
  5
133E4
 10
518.360
 20
282.042
 30
0.000000
  70
    32
  0
VERTEX
  8
0
  5
133E5
 10
518.357
 20
282.046
 30
0.000000
  70
    32
  0
VERTEX
  8
0
  5
133E6
 10
518.355
 20
282.049
 30
0.000000
  70
    32
  0
VERTEX
  8
0
  5
133E7
 10
518.353
 20
282.053
 30
0.000000
  70
    32
  0
VERTEX
  8
0
  5
133E8
 10
518.350
 20
282.056
 30
0.000000
  70
    32
  0
VERTEX
  8
0
  5
133E9
 10
518.348
 20
282.060
 30
0.000000
  70
    32
  0
VERTEX
  8
0
  5
133EA
 10
518.345
 20
282.063
 30
0.000000
  70
    32
  0
VERTEX
  8
0
  5
133EB
 10
518.343
 20
282.067
 30
0.000000
  70
    32
  0
VERTEX
  8
0
  5
133EC
 10
518.340
 20
282.070
 30
0.000000
  70
    32
  0
VERTEX
  8
0
  5
133ED
 10
518.337
 20
282.074
 30
0.000000
  70
    32
  0
VERTEX
  8
0
  5
133EE
 10
518.335
 20
282.078
 30
0.000000
  70
    32
  0
VERTEX
  8
0
  5
133EF
 10
518.332
 20
282.081
 30
0.000000
  70
    32
  0
VERTEX
  8
0
  5
133F0
 10
518.330
 20
282.085
 30
0.000000
  70
    32
  0
VERTEX
  8
0
  5
133F1
 10
518.327
 20
282.088
 30
0.000000
  70
    32
  0
SEQEND
  8
0
  5
133F2
  0
LINE
  5
1263A
  8
0
 10
518.38488637856688
 20
253.27640045721321
 30
0.0
 11
517.92657415769531
 21
253.27640045721321
 31
0.0
  0
POLYLINE
  5
1263B
  8
0
 66
     1
 10
0.0
 20
0.0
 30
0.0
 70
   128
  0
VERTEX
  5
12E49
  8
0
 10
490.49802630595423
 20
252.9386730893352
 30
0.0
  0
VERTEX
  5
12E4A
  8
0
 10
490.55592569909533
 20
253.2504426344135
 30
0.0
  0
VERTEX
  5
12E4B
  8
0
 10
490.61116709760859
 20
253.27640045721321
 30
0.0
  0
SEQEND
  5
12E4C
  8
0
  0
LINE
  5
1263C
  8
0
 10
490.49802630595423
 20
247.77639676172521
 30
0.0
 11
490.49802630595423
 21
281.62906337816497
 31
0.0
  0
POLYLINE
  5
1263D
  8
0
 10
490.66906263068756
 20
282.08822700247384
 30
0.0
 66
     1
 70
     8
  0
VERTEX
  8
0
  5
133F3
 10
490.669
 20
282.088
 30
0.000000
  70
    32
  0
VERTEX
  8
0
  5
133F4
 10
490.666
 20
282.085
 30
0.000000
  70
    32
  0
VERTEX
  8
0
  5
133F5
 10
490.664
 20
282.081
 30
0.000000
  70
    32
  0
VERTEX
  8
0
  5
133F6
 10
490.661
 20
282.078
 30
0.000000
  70
    32
  0
VERTEX
  8
0
  5
133F7
 10
490.659
 20
282.074
 30
0.000000
  70
    32
  0
VERTEX
  8
0
  5
133F8
 10
490.656
 20
282.070
 30
0.000000
  70
    32
  0
VERTEX
  8
0
  5
133F9
 10
490.653
 20
282.067
 30
0.000000
  70
    32
  0
VERTEX
  8
0
  5
133FA
 10
490.651
 20
282.063
 30
0.000000
  70
    32
  0
VERTEX
  8
0
  5
133FB
 10
490.648
 20
282.060
 30
0.000000
  70
    32
  0
VERTEX
  8
0
  5
133FC
 10
490.646
 20
282.056
 30
0.000000
  70
    32
  0
VERTEX
  8
0
  5
133FD
 10
490.643
 20
282.053
 30
0.000000
  70
    32
  0
VERTEX
  8
0
  5
133FE
 10
490.641
 20
282.049
 30
0.000000
  70
    32
  0
VERTEX
  8
0
  5
133FF
 10
490.639
 20
282.046
 30
0.000000
  70
    32
  0
VERTEX
  8
0
  5
13400
 10
490.636
 20
282.042
 30
0.000000
  70
    32
  0
VERTEX
  8
0
  5
13401
 10
490.634
 20
282.038
 30
0.000000
  70
    32
  0
VERTEX
  8
0
  5
13402
 10
490.631
 20
282.035
 30
0.000000
  70
    32
  0
VERTEX
  8
0
  5
13403
 10
490.629
 20
282.031
 30
0.000000
  70
    32
  0
VERTEX
  8
0
  5
13404
 10
490.627
 20
282.028
 30
0.000000
  70
    32
  0
VERTEX
  8
0
  5
13405
 10
490.624
 20
282.024
 30
0.000000
  70
    32
  0
VERTEX
  8
0
  5
13406
 10
490.622
 20
282.021
 30
0.000000
  70
    32
  0
VERTEX
  8
0
  5
13407
 10
490.620
 20
282.017
 30
0.000000
  70
    32
  0
VERTEX
  8
0
  5
13408
 10
490.618
 20
282.014
 30
0.000000
  70
    32
  0
VERTEX
  8
0
  5
13409
 10
490.615
 20
282.010
 30
0.000000
  70
    32
  0
VERTEX
  8
0
  5
1340A
 10
490.613
 20
282.006
 30
0.000000
  70
    32
  0
VERTEX
  8
0
  5
1340B
 10
490.611
 20
282.003
 30
0.000000
  70
    32
  0
VERTEX
  8
0
  5
1340C
 10
490.609
 20
281.999
 30
0.000000
  70
    32
  0
VERTEX
  8
0
  5
1340D
 10
490.607
 20
281.996
 30
0.000000
  70
    32
  0
VERTEX
  8
0
  5
1340E
 10
490.605
 20
281.992
 30
0.000000
  70
    32
  0
VERTEX
  8
0
  5
1340F
 10
490.603
 20
281.989
 30
0.000000
  70
    32
  0
VERTEX
  8
0
  5
13410
 10
490.600
 20
281.985
 30
0.000000
  70
    32
  0
VERTEX
  8
0
  5
13411
 10
490.598
 20
281.981
 30
0.000000
  70
    32
  0
VERTEX
  8
0
  5
13412
 10
490.596
 20
281.978
 30
0.000000
  70
    32
  0
VERTEX
  8
0
  5
13413
 10
490.594
 20
281.974
 30
0.000000
  70
    32
  0
VERTEX
  8
0
  5
13414
 10
490.592
 20
281.971
 30
0.000000
  70
    32
  0
VERTEX
  8
0
  5
13415
 10
490.590
 20
281.967
 30
0.000000
  70
    32
  0
VERTEX
  8
0
  5
13416
 10
490.588
 20
281.964
 30
0.000000
  70
    32
  0
VERTEX
  8
0
  5
13417
 10
490.587
 20
281.960
 30
0.000000
  70
    32
  0
VERTEX
  8
0
  5
13418
 10
490.585
 20
281.956
 30
0.000000
  70
    32
  0
VERTEX
  8
0
  5
13419
 10
490.583
 20
281.953
 30
0.000000
  70
    32
  0
VERTEX
  8
0
  5
1341A
 10
490.581
 20
281.949
 30
0.000000
  70
    32
  0
VERTEX
  8
0
  5
1341B
 10
490.579
 20
281.946
 30
0.000000
  70
    32
  0
VERTEX
  8
0
  5
1341C
 10
490.577
 20
281.942
 30
0.000000
  70
    32
  0
VERTEX
  8
0
  5
1341D
 10
490.575
 20
281.939
 30
0.000000
  70
    32
  0
VERTEX
  8
0
  5
1341E
 10
490.574
 20
281.935
 30
0.000000
  70
    32
  0
VERTEX
  8
0
  5
1341F
 10
490.572
 20
281.931
 30
0.000000
  70
    32
  0
VERTEX
  8
0
  5
13420
 10
490.570
 20
281.928
 30
0.000000
  70
    32
  0
VERTEX
  8
0
  5
13421
 10
490.568
 20
281.924
 30
0.000000
  70
    32
  0
VERTEX
  8
0
  5
13422
 10
490.567
 20
281.921
 30
0.000000
  70
    32
  0
VERTEX
  8
0
  5
13423
 10
490.565
 20
281.917
 30
0.000000
  70
    32
  0
VERTEX
  8
0
  5
13424
 10
490.563
 20
281.913
 30
0.000000
  70
    32
  0
VERTEX
  8
0
  5
13425
 10
490.562
 20
281.910
 30
0.000000
  70
    32
  0
VERTEX
  8
0
  5
13426
 10
490.560
 20
281.906
 30
0.000000
  70
    32
  0
VERTEX
  8
0
  5
13427
 10
490.558
 20
281.903
 30
0.000000
  70
    32
  0
VERTEX
  8
0
  5
13428
 10
490.557
 20
281.899
 30
0.000000
  70
    32
  0
VERTEX
  8
0
  5
13429
 10
490.555
 20
281.896
 30
0.000000
  70
    32
  0
VERTEX
  8
0
  5
1342A
 10
490.554
 20
281.892
 30
0.000000
  70
    32
  0
VERTEX
  8
0
  5
1342B
 10
490.552
 20
281.888
 30
0.000000
  70
    32
  0
VERTEX
  8
0
  5
1342C
 10
490.551
 20
281.885
 30
0.000000
  70
    32
  0
VERTEX
  8
0
  5
1342D
 10
490.549
 20
281.881
 30
0.000000
  70
    32
  0
VERTEX
  8
0
  5
1342E
 10
490.548
 20
281.878
 30
0.000000
  70
    32
  0
VERTEX
  8
0
  5
1342F
 10
490.546
 20
281.874
 30
0.000000
  70
    32
  0
VERTEX
  8
0
  5
13430
 10
490.545
 20
281.870
 30
0.000000
  70
    32
  0
VERTEX
  8
0
  5
13431
 10
490.544
 20
281.867
 30
0.000000
  70
    32
  0
VERTEX
  8
0
  5
13432
 10
490.542
 20
281.863
 30
0.000000
  70
    32
  0
VERTEX
  8
0
  5
13433
 10
490.541
 20
281.860
 30
0.000000
  70
    32
  0
VERTEX
  8
0
  5
13434
 10
490.540
 20
281.856
 30
0.000000
  70
    32
  0
VERTEX
  8
0
  5
13435
 10
490.538
 20
281.852
 30
0.000000
  70
    32
  0
VERTEX
  8
0
  5
13436
 10
490.537
 20
281.849
 30
0.000000
  70
    32
  0
VERTEX
  8
0
  5
13437
 10
490.536
 20
281.845
 30
0.000000
  70
    32
  0
VERTEX
  8
0
  5
13438
 10
490.534
 20
281.842
 30
0.000000
  70
    32
  0
VERTEX
  8
0
  5
13439
 10
490.533
 20
281.838
 30
0.000000
  70
    32
  0
VERTEX
  8
0
  5
1343A
 10
490.532
 20
281.834
 30
0.000000
  70
    32
  0
VERTEX
  8
0
  5
1343B
 10
490.531
 20
281.831
 30
0.000000
  70
    32
  0
VERTEX
  8
0
  5
1343C
 10
490.530
 20
281.827
 30
0.000000
  70
    32
  0
VERTEX
  8
0
  5
1343D
 10
490.529
 20
281.824
 30
0.000000
  70
    32
  0
VERTEX
  8
0
  5
1343E
 10
490.527
 20
281.820
 30
0.000000
  70
    32
  0
VERTEX
  8
0
  5
1343F
 10
490.526
 20
281.816
 30
0.000000
  70
    32
  0
VERTEX
  8
0
  5
13440
 10
490.525
 20
281.813
 30
0.000000
  70
    32
  0
VERTEX
  8
0
  5
13441
 10
490.524
 20
281.809
 30
0.000000
  70
    32
  0
VERTEX
  8
0
  5
13442
 10
490.523
 20
281.806
 30
0.000000
  70
    32
  0
VERTEX
  8
0
  5
13443
 10
490.522
 20
281.802
 30
0.000000
  70
    32
  0
VERTEX
  8
0
  5
13444
 10
490.521
 20
281.799
 30
0.000000
  70
    32
  0
VERTEX
  8
0
  5
13445
 10
490.520
 20
281.795
 30
0.000000
  70
    32
  0
VERTEX
  8
0
  5
13446
 10
490.519
 20
281.791
 30
0.000000
  70
    32
  0
VERTEX
  8
0
  5
13447
 10
490.518
 20
281.788
 30
0.000000
  70
    32
  0
VERTEX
  8
0
  5
13448
 10
490.517
 20
281.784
 30
0.000000
  70
    32
  0
VERTEX
  8
0
  5
13449
 10
490.516
 20
281.781
 30
0.000000
  70
    32
  0
VERTEX
  8
0
  5
1344A
 10
490.516
 20
281.777
 30
0.000000
  70
    32
  0
VERTEX
  8
0
  5
1344B
 10
490.515
 20
281.773
 30
0.000000
  70
    32
  0
VERTEX
  8
0
  5
1344C
 10
490.514
 20
281.770
 30
0.000000
  70
    32
  0
VERTEX
  8
0
  5
1344D
 10
490.513
 20
281.766
 30
0.000000
  70
    32
  0
VERTEX
  8
0
  5
1344E
 10
490.512
 20
281.762
 30
0.000000
  70
    32
  0
VERTEX
  8
0
  5
1344F
 10
490.512
 20
281.759
 30
0.000000
  70
    32
  0
VERTEX
  8
0
  5
13450
 10
490.511
 20
281.755
 30
0.000000
  70
    32
  0
VERTEX
  8
0
  5
13451
 10
490.510
 20
281.752
 30
0.000000
  70
    32
  0
VERTEX
  8
0
  5
13452
 10
490.509
 20
281.748
 30
0.000000
  70
    32
  0
VERTEX
  8
0
  5
13453
 10
490.509
 20
281.744
 30
0.000000
  70
    32
  0
VERTEX
  8
0
  5
13454
 10
490.508
 20
281.741
 30
0.000000
  70
    32
  0
VERTEX
  8
0
  5
13455
 10
490.507
 20
281.737
 30
0.000000
  70
    32
  0
VERTEX
  8
0
  5
13456
 10
490.507
 20
281.734
 30
0.000000
  70
    32
  0
VERTEX
  8
0
  5
13457
 10
490.506
 20
281.730
 30
0.000000
  70
    32
  0
VERTEX
  8
0
  5
13458
 10
490.506
 20
281.726
 30
0.000000
  70
    32
  0
VERTEX
  8
0
  5
13459
 10
490.505
 20
281.723
 30
0.000000
  70
    32
  0
VERTEX
  8
0
  5
1345A
 10
490.505
 20
281.719
 30
0.000000
  70
    32
  0
VERTEX
  8
0
  5
1345B
 10
490.504
 20
281.716
 30
0.000000
  70
    32
  0
VERTEX
  8
0
  5
1345C
 10
490.504
 20
281.712
 30
0.000000
  70
    32
  0
VERTEX
  8
0
  5
1345D
 10
490.503
 20
281.708
 30
0.000000
  70
    32
  0
VERTEX
  8
0
  5
1345E
 10
490.503
 20
281.705
 30
0.000000
  70
    32
  0
VERTEX
  8
0
  5
1345F
 10
490.502
 20
281.701
 30
0.000000
  70
    32
  0
VERTEX
  8
0
  5
13460
 10
490.502
 20
281.698
 30
0.000000
  70
    32
  0
VERTEX
  8
0
  5
13461
 10
490.501
 20
281.694
 30
0.000000
  70
    32
  0
VERTEX
  8
0
  5
13462
 10
490.501
 20
281.690
 30
0.000000
  70
    32
  0
VERTEX
  8
0
  5
13463
 10
490.501
 20
281.687
 30
0.000000
  70
    32
  0
VERTEX
  8
0
  5
13464
 10
490.500
 20
281.683
 30
0.000000
  70
    32
  0
VERTEX
  8
0
  5
13465
 10
490.500
 20
281.680
 30
0.000000
  70
    32
  0
VERTEX
  8
0
  5
13466
 10
490.500
 20
281.676
 30
0.000000
  70
    32
  0
VERTEX
  8
0
  5
13467
 10
490.500
 20
281.672
 30
0.000000
  70
    32
  0
VERTEX
  8
0
  5
13468
 10
490.499
 20
281.669
 30
0.000000
  70
    32
  0
VERTEX
  8
0
  5
13469
 10
490.499
 20
281.665
 30
0.000000
  70
    32
  0
VERTEX
  8
0
  5
1346A
 10
490.499
 20
281.662
 30
0.000000
  70
    32
  0
VERTEX
  8
0
  5
1346B
 10
490.499
 20
281.658
 30
0.000000
  70
    32
  0
VERTEX
  8
0
  5
1346C
 10
490.499
 20
281.654
 30
0.000000
  70
    32
  0
VERTEX
  8
0
  5
1346D
 10
490.498
 20
281.651
 30
0.000000
  70
    32
  0
VERTEX
  8
0
  5
1346E
 10
490.498
 20
281.647
 30
0.000000
  70
    32
  0
VERTEX
  8
0
  5
1346F
 10
490.498
 20
281.643
 30
0.000000
  70
    32
  0
VERTEX
  8
0
  5
13470
 10
490.498
 20
281.640
 30
0.000000
  70
    32
  0
VERTEX
  8
0
  5
13471
 10
490.498
 20
281.636
 30
0.000000
  70
    32
  0
VERTEX
  8
0
  5
13472
 10
490.498
 20
281.633
 30
0.000000
  70
    32
  0
VERTEX
  8
0
  5
13473
 10
490.498
 20
281.629
 30
0.000000
  70
    32
  0
SEQEND
  8
0
  5
13474
  0
LINE
  5
1263E
  8
0
 10
490.61116709760859
 20
253.27640045721321
 30
0.0
 11
491.06947931848021
 21
253.27640045721321
 31
0.0
  0
LINE
  5
12641
  8
0
 10
490.49802630595423
 20
247.77639676172521
 30
0.0
 11
491.38302675835342
 21
247.77639676172521
 31
0.0
  0
LINE
  5
12642
  8
0
 10
494.88302640072561
 20
247.77639676172521
 30
0.0
 11
497.44802660695751
 21
247.77639676172521
 31
0.0
  0
LINE
  5
12643
  8
0
 10
500.9480267149911
 20
247.77639676172521
 30
0.0
 11
508.0480267611847
 21
247.77639676172521
 31
0.0
  0
LINE
  5
12644
  8
0
 10
511.54802686921789
 20
247.77639676172521
 30
0.0
 11
514.11302707544996
 21
247.77639676172521
 31
0.0
  0
LINE
  5
12645
  8
0
 10
517.61302671782232
 20
247.77639676172521
 30
0.0
 11
518.49802717022146
 21
247.77639676172521
 31
0.0
  0
LINE
  5
12648
  8
0
 10
518.49802717022146
 20
247.77639676172521
 30
0.0
 11
518.49802673808756
 21
281.62906631142209
 31
0.0
  0
LINE
  5
12652
  8
0
 10
497.44802660695751
 20
211.2258860870102
 30
0.0
 11
497.47308942876271
 21
211.27639729816701
 31
0.0
  0
LINE
  5
12654
  8
0
 10
497.47308942876271
 20
243.2763950927951
 30
0.0
 11
497.44802660695751
 21
243.3269100292423
 31
0.0
  0
LINE
  5
12655
  8
0
 10
497.47308942876271
 20
243.2763950927951
 30
0.0
 11
511.54802686921812
 21
243.2763950927951
 31
0.0
  0
LINE
  5
12656
  8
0
 10
511.54802686921789
 20
211.27639729816701
 30
0.0
 11
497.47308942876271
 21
211.27639729816701
 31
0.0
  0
LINE
  5
12666
  8
0
 10
508.04802676118447
 20
178.21639795143389
 30
0.0
 11
511.54802686921789
 21
178.21639795143389
 31
0.0
  0
LINE
  5
12667
  8
0
 10
508.04802676118351
 20
211.27639729816701
 30
0.0
 11
508.04802676118447
 21
178.21639795143389
 31
0.0
  0
LINE
  5
1266C
  8
0
 10
508.04802676118447
 20
276.27639491398122
 30
0.0
 11
511.54802686921789
 21
276.27639491398122
 31
0.0
  0
LINE
  5
1266D
  8
0
 10
511.54802686921789
 20
178.21639795143381
 30
0.0
 11
511.54802686921789
 21
276.27639491398122
 31
0.0
  0
LINE
  5
1266F
  8
0
 10
497.44802660695751
 20
178.21639795143389
 30
0.0
 11
500.94802671499087
 21
178.21639795143389
 31
0.0
  0
LINE
  5
12671
  8
0
 10
500.94802671499087
 20
178.21639795143389
 30
0.0
 11
500.94802671499087
 21
211.27639729816701
 31
0.0
  0
LINE
  5
12672
  8
0
 10
497.44802660695751
 20
276.27639491398122
 30
0.0
 11
500.94802671499087
 21
276.27639491398122
 31
0.0
  0
LINE
  5
12674
  8
0
 10
497.44802660695751
 20
178.21639795143381
 30
0.0
 11
497.44802660695751
 21
276.27639491398122
 31
0.0
  0
LINE
  5
1267D
  8
0
 10
319.94802789218261
 20
48.216398621986741
 30
0.0
 11
319.94802789218261
 21
46.216398294161188
 31
0.0
  0
LINE
  5
1267E
  8
0
 10
333.948027858655
 20
46.216398294161188
 30
0.0
 11
333.948027858655
 21
48.216398621986741
 31
0.0
  0
LINE
  5
1267F
  8
0
 10
333.948027858655
 20
48.216398621986741
 30
0.0
 11
333.74802819840153
 21
48.416398282240259
 31
0.0
  0
LINE
  5
12680
  8
0
 10
320.14802801809742
 20
48.416398282240259
 30
0.0
 11
319.94802789218261
 21
48.216398621986741
 31
0.0
  0
LINE
  5
12681
  8
0
 10
319.94802789218261
 20
46.216398294161188
 30
0.0
 11
320.14802801809742
 21
46.01639863390767
 31
0.0
  0
LINE
  5
12682
  8
0
 10
333.74802819840153
 20
46.01639863390767
 30
0.0
 11
333.948027858655
 21
46.216398294161188
 31
0.0
  0
LINE
  5
12683
  8
0
 10
333.948027858655
 20
62.766398585478889
 30
0.0
 11
333.948027858655
 21
64.266398365686769
 31
0.0
  0
LINE
  5
12684
  8
0
 10
319.94802789218261
 20
64.266398365686769
 30
0.0
 11
319.94802789218261
 21
62.766398585478889
 31
0.0
  0
LINE
  5
12685
  8
0
 10
333.948027858655
 20
64.266398365686769
 30
0.0
 11
333.69802735201552
 21
64.516398872326249
 31
0.0
  0
LINE
  5
12686
  8
0
 10
320.1980279331608
 20
64.516398872326249
 30
0.0
 11
319.94802789218261
 21
64.266398365686769
 31
0.0
  0
LINE
  5
12687
  8
0
 10
319.94802789218261
 20
62.766398585478889
 30
0.0
 11
320.1980279331608
 21
62.516398544500703
 31
0.0
  0
LINE
  5
12688
  8
0
 10
333.69802735201552
 20
62.516398544500703
 30
0.0
 11
333.948027858655
 21
62.766398585478889
 31
0.0
  0
LINE
  5
12689
  8
0
 10
321.44802813805182
 20
45.966398718844289
 30
0.0
 11
321.56302784956529
 21
45.851398076008188
 31
0.0
  0
LINE
  5
1268A
  8
0
 10
332.33302790127232
 20
45.851398076008188
 30
0.0
 11
332.44802761278578
 21
45.966398718844289
 31
0.0
  0
LINE
  5
1268B
  8
0
 10
332.44802761278578
 20
45.966398718844289
 30
0.0
 11
332.44802761278578
 21
46.01639863390767
 31
0.0
  0
LINE
  5
1268C
  8
0
 10
332.44802761278578
 20
51.916398390273677
 30
0.0
 11
332.44802761278578
 21
59.016398436467277
 31
0.0
  0
LINE
  5
1268D
  8
0
 10
321.44802813805182
 20
59.016398436467277
 30
0.0
 11
321.44802813805182
 21
51.916398390273677
 31
0.0
  0
LINE
  5
1268E
  8
0
 10
321.44802813805182
 20
46.01639863390767
 30
0.0
 11
321.44802813805182
 21
45.966398718844289
 31
0.0
  0
ARC
  5
1268F
  8
0
 10
326.94802794806202
 20
10.46639841336582
 30
0.0
 40
60.000000000004917
 50
84.740503535583699
 51
90.0
  0
ARC
  5
12690
  8
0
 10
326.94802794806202
 20
10.46639841336582
 30
0.0
 40
60.000000000004917
 50
90.0
 51
95.259496464416316
  0
ARC
  5
12691
  8
0
 10
326.94802794806202
 20
100.4663984134035
 30
0.0
 40
60.00000000003331
 50
272.62697685498631
 51
275.25949646441632
  0
ARC
  5
12692
  8
0
 10
326.94802794806202
 20
100.4663984134035
 30
0.0
 40
60.00000000003331
 50
264.74050353558368
 51
267.3730231450138
  0
LINE
  5
12693
  8
0
 10
332.44802761278578
 20
40.719013477753037
 30
0.0
 11
332.44802761278578
 21
41.966398063193189
 31
0.0
  0
LINE
  5
12694
  8
0
 10
321.44802813805182
 20
41.966398063193189
 30
0.0
 11
321.44802813805182
 21
40.719013477753037
 31
0.0
  0
LINE
  5
12695
  8
0
 10
332.44802761278578
 20
68.966398763547772
 30
0.0
 11
332.44802761278578
 21
70.213783348987931
 31
0.0
  0
LINE
  5
12696
  8
0
 10
321.44802813805182
 20
70.213783348987931
 30
0.0
 11
321.44802813805182
 21
68.966398763547772
 31
0.0
  0
LINE
  5
12697
  8
0
 10
330.94802829823919
 20
41.966398063193189
 30
0.0
 11
330.94802829823919
 21
42.351398433636056
 31
0.0
  0
LINE
  5
12698
  8
0
 10
330.94802829823919
 20
64.516398872326249
 30
0.0
 11
330.94802829823919
 21
65.081398750732774
 31
0.0
  0
LINE
  5
12699
  8
0
 10
330.94802829823919
 20
68.581398393104905
 30
0.0
 11
330.94802829823919
 21
68.966398763547772
 31
0.0
  0
LINE
  5
1269A
  8
0
 10
322.94802791825958
 20
68.966398763547772
 30
0.0
 11
322.94802791825958
 21
68.581398393104905
 31
0.0
  0
LINE
  5
1269B
  8
0
 10
322.94802791825958
 20
65.081398750732774
 30
0.0
 11
322.94802791825958
 21
64.516398872326249
 31
0.0
  0
LINE
  5
1269C
  8
0
 10
322.94802791825958
 20
42.351398433636056
 30
0.0
 11
322.94802791825958
 21
41.966398063193189
 31
0.0
  0
LINE
  5
1269D
  8
0
 10
307.85694304309322
 20
78.216397951433919
 30
0.0
 11
307.85694304309322
 21
61.623093023041747
 31
0.0
  0
LINE
  5
1269E
  8
0
 10
307.85694304309322
 20
49.309703803698028
 30
0.0
 11
307.85694304309322
 21
32.71639887530592
 31
0.0
  0
LINE
  5
1269F
  8
0
 10
327.84802797637423
 20
32.71639887530592
 30
0.0
 11
340.34920349172779
 21
32.71639887530592
 31
0.0
  0
LINE
  5
126A0
  8
0
 10
307.85694304309322
 20
32.71639887530592
 30
0.0
 11
319.84802806205579
 21
32.71639887530592
 31
0.0
  0
LINE
  5
126A1
  8
0
 10
340.34920349172779
 20
32.71639887530592
 30
0.0
 11
340.34920349172779
 21
48.416398282239697
 31
0.0
  0
LINE
  5
126A2
  8
0
 10
340.34920349172779
 20
55.416398414633022
 30
0.0
 11
340.34920349172779
 21
55.51639841210681
 31
0.0
  0
LINE
  5
126A3
  8
0
 10
340.34920349172779
 20
62.516398544500127
 30
0.0
 11
340.34920349172779
 21
78.216397951433919
 31
0.0
  0
LINE
  5
126A4
  8
0
 10
319.84802806205579
 20
78.216397951433919
 30
0.0
 11
307.85694304309322
 21
78.216397951433919
 31
0.0
  0
LINE
  5
126A5
  8
0
 10
340.34920349172779
 20
78.216397951433919
 30
0.0
 11
327.84802797637423
 21
78.216397951433919
 31
0.0
  0
LINE
  5
126A6
  8
0
 10
319.84802806205579
 20
32.370738501737378
 30
0.0
 11
327.84802797637423
 21
32.370738501737378
 31
0.0
  0
LINE
  5
126A7
  8
0
 10
327.84802797637423
 20
78.562058325002454
 30
0.0
 11
319.84802806205579
 21
78.562058325002454
 31
0.0
  0
LINE
  5
126A8
  8
0
 10
319.84802806205579
 20
31.91739488680151
 30
0.0
 11
327.84802797637423
 21
31.91739488680151
 31
0.0
  0
LINE
  5
126A9
  8
0
 10
327.84802797637423
 20
79.015401939938329
 30
0.0
 11
319.84802806205579
 21
79.015401939938329
 31
0.0
  0
LINE
  5
126AA
  8
0
 10
319.84802806205579
 20
31.76639769513395
 30
0.0
 11
327.84802797637423
 21
31.76639769513395
 31
0.0
  0
LINE
  5
126AB
  8
0
 10
327.84802797637423
 20
79.166399131605829
 30
0.0
 11
319.84802806205579
 21
79.166399131605829
 31
0.0
  0
ARC
  5
126AC
  8
0
 10
360.94802794806168
 20
106.9663984133751
 30
0.0
 40
60.000000000004903
 50
264.74050353558368
 51
270.0
  0
ARC
  5
126AD
  8
0
 10
360.94802794806168
 20
106.9663984133751
 30
0.0
 40
60.000000000004903
 50
270.0
 51
275.25949646441632
  0
LINE
  5
126AE
  8
0
 10
355.44802672616669
 20
48.416398282240152
 30
0.0
 11
355.44802672616669
 21
47.219013611863367
 31
0.0
  0
LINE
  5
126AF
  8
0
 10
366.4480266665621
 20
47.219013611863367
 30
0.0
 11
366.4480266665621
 21
48.416398282240152
 31
0.0
  0
ARC
  5
126B0
  8
0
 10
360.94802794806168
 20
3.9663984133372869
 30
0.0
 40
60.000000000033289
 50
92.626976854986296
 51
95.259496464416316
  0
ARC
  5
126B1
  8
0
 10
360.94802794806168
 20
3.9663984133372869
 30
0.0
 40
60.000000000033317
 50
84.740503535583699
 51
87.373023145013676
  0
LINE
  5
126B2
  8
0
 10
355.44802672616669
 20
63.71378321487736
 30
0.0
 11
355.44802672616669
 21
62.516398544500589
 31
0.0
  0
LINE
  5
126B3
  8
0
 10
366.4480266665621
 20
62.516398544500589
 30
0.0
 11
366.4480266665621
 21
63.71378321487736
 31
0.0
  0
LINE
  5
126B4
  8
0
 10
334.94802802256783
 20
46.266398209224292
 30
0.0
 11
334.94802802256783
 21
48.266398537049838
 31
0.0
  0
LINE
  5
126B5
  8
0
 10
334.94802802256783
 20
48.266398537049838
 30
0.0
 11
334.79802734605499
 21
48.416398282239982
 31
0.0
  0
LINE
  5
126B6
  8
0
 10
334.74802836231419
 20
46.066398548970767
 30
0.0
 11
334.94802802256783
 21
46.266398209224292
 31
0.0
  0
LINE
  5
126B7
  8
0
 10
334.94802802256783
 20
62.716398204754
 30
0.0
 11
334.94802802256783
 21
64.216398450623146
 31
0.0
  0
LINE
  5
126B8
  8
0
 10
334.74802836231419
 20
62.516398544500419
 30
0.0
 11
334.94802802256783
 21
62.716398204754
 31
0.0
  0
LINE
  5
126B9
  8
0
 10
334.94802802256783
 20
64.216398450623146
 30
0.0
 11
334.69802751592829
 21
64.466398025940066
 31
0.0
  0
LINE
  5
126BA
  8
0
 10
333.44802870802118
 20
45.91639880378068
 30
0.0
 11
333.44802870802118
 21
46.016398633907379
 31
0.0
  0
LINE
  5
126BB
  8
0
 10
333.38302798024853
 20
45.851398076007911
 30
0.0
 11
333.44802870802118
 21
45.91639880378068
 31
0.0
  0
LINE
  5
126BC
  8
0
 10
307.64802783183291
 20
57.984792829188393
 30
0.0
 11
307.64802783183291
 21
52.948004149908968
 31
0.0
  0
LINE
  5
126BF
  8
0
 10
366.4480266665621
 20
55.41639841463347
 30
0.0
 11
366.4480266665621
 21
55.516398412107257
 31
0.0
  0
LINE
  5
126C0
  8
0
 10
355.44802672616669
 20
55.516398412107257
 30
0.0
 11
355.44802672616669
 21
55.41639841463347
 31
0.0
  0
LINE
  5
126C4
  8
0
 10
333.74802819840153
 20
46.01639863390767
 30
0.0
 11
320.14802801809742
 21
46.01639863390767
 31
0.0
  0
LINE
  5
126C8
  8
0
 10
320.1980279331608
 20
64.516398872326249
 30
0.0
 11
333.69802735201552
 21
64.516398872326249
 31
0.0
  0
LINE
  5
126CA
  8
0
 10
332.44802761278578
 20
70.213783348987931
 30
0.0
 11
321.44802813805182
 21
70.213783348987931
 31
0.0
  0
LINE
  5
126CC
  8
0
 10
324.19802812315061
 20
40.529452080915803
 30
0.0
 11
329.69802794806452
 21
40.52945237839122
 31
0.0
  0
LINE
  5
126CD
  8
0
 10
321.44802813805182
 20
40.719013477753037
 30
0.0
 11
332.44802761278578
 21
40.719013477753037
 31
0.0
  0
LINE
  5
126CE
  8
0
 10
321.44802813805182
 20
41.966398063193189
 30
0.0
 11
332.44802761278578
 21
41.966398063193189
 31
0.0
  0
LINE
  5
126CF
  8
0
 10
332.44802761278578
 20
68.966398763547772
 30
0.0
 11
321.44802813805182
 21
68.966398763547772
 31
0.0
  0
ARC
  5
126D0
  8
0
 10
342.26551739198021
 20
80.851401316232341
 30
0.0
 40
30.56273902468498
 50
207.28400242177369
 51
215.70644867626919
  0
ARC
  5
126D1
  8
0
 10
342.26551739198021
 20
30.081395510507718
 30
0.0
 40
30.562739024685001
 50
144.29355132373081
 51
152.71599757822619
  0
ARC
  5
126D9
  8
0
 10
301.91945126579259
 20
13.38748515940415
 30
0.0
 40
42.402234503855439
 50
31.852054105531451
 51
43.08441707102201
  0
ARC
  5
126DA
  8
0
 10
301.91945126578889
 20
97.545311667339206
 30
0.0
 40
42.40223450386025
 50
316.91558292897798
 51
328.14794589446848
  0
ARC
  5
126DC
  8
0
 10
917.29360060268937
 20
456.24300732705228
 30
0.0
 40
717.12418653387294
 50
212.0995997338288
 51
212.88839847857801
  0
ARC
  5
126DF
  8
0
 10
917.29360060269914
 20
-345.31021050031859
 30
0.0
 40
717.12418653388443
 50
147.11160152142469
 51
147.9004002661739
  0
ARC
  5
126E1
  8
0
 10
384.24386094377383
 20
124.7511608048864
 30
0.0
 40
89.44513538034748
 50
211.34972094173219
 51
213.66501156276101
  0
ARC
  5
126E2
  8
0
 10
381.52177543478319
 20
-12.05956766631504
 30
0.0
 40
86.204610438645275
 50
146.30500130556081
 51
148.70698189381201
  0
LINE
  5
126E3
  8
0
 10
319.84802806205579
 20
33.463228310535222
 30
0.0
 11
327.84802797637423
 21
33.463228310535222
 31
0.0
  0
ARC
  5
126E4
  8
0
 10
275.560919389726
 20
-16.0657697621076
 30
0.0
 40
81.099133411660148
 50
36.978322580711641
 51
39.724404563950998
  0
ARC
  5
126E6
  8
0
 10
273.58040572458111
 20
128.58924952404411
 30
0.0
 40
83.639009720861424
 50
320.30457212963728
 51
322.96770796024379
  0
LINE
  5
126E7
  8
0
 10
327.84802797637423
 20
77.469568516204617
 30
0.0
 11
319.84802806205579
 21
77.469568516204617
 31
0.0
  0
LINE
  5
126E8
  8
0
 10
319.84802806205579
 20
77.658107320854924
 30
0.0
 11
327.84802797637423
 21
77.658107320854924
 31
0.0
  0
LINE
  5
126E9
  8
0
 10
319.84802806205579
 20
77.469568516204617
 30
0.0
 11
319.84802806205579
 21
79.166399131605885
 31
0.0
  0
LINE
  5
126EA
  8
0
 10
327.84802797637388
 20
79.166399131605885
 30
0.0
 11
327.84802797637423
 21
77.469568516204617
 31
0.0
  0
LINE
  5
126EB
  8
0
 10
327.84802797637388
 20
31.76639769513395
 30
0.0
 11
327.84802797637423
 21
33.463228310535222
 31
0.0
  0
LINE
  5
126EC
  8
0
 10
327.84802797637423
 20
33.274689505884908
 30
0.0
 11
319.84802806205579
 21
33.274689505884908
 31
0.0
  0
LINE
  5
126ED
  8
0
 10
319.84802806205579
 20
31.76639769513395
 30
0.0
 11
319.84802806205579
 21
33.463228310535222
 31
0.0
  0
LINE
  5
126FB
  8
0
 10
336.4480273371143
 20
45.851398076008188
 30
0.0
 11
317.44802794806191
 21
45.851398076008188
 31
0.0
  0
LINE
  5
126FD
  8
0
 10
317.44802794806191
 20
42.351398433636056
 30
0.0
 11
336.4480273371143
 21
42.351398433636056
 31
0.0
  0
LINE
  5
126FF
  8
0
 10
317.44802794806191
 20
65.081398750732774
 30
0.0
 11
336.4480273371143
 21
65.081398750732774
 31
0.0
  0
LINE
  5
12701
  8
0
 10
317.44802794806191
 20
68.581398393104905
 30
0.0
 11
336.4480273371143
 21
68.581398393104905
 31
0.0
  0
LINE
  5
12706
  8
0
 10
336.4480273371143
 20
62.869676671067971
 30
0.0
 11
336.29311486534311
 21
62.516398544500362
 31
0.0
  0
LINE
  5
12707
  8
0
 10
317.60294011424298
 20
62.516398544500362
 30
0.0
 11
317.44802794806168
 21
62.869676671067971
 31
0.0
  0
LINE
  5
12708
  8
0
 10
336.44802733711413
 20
68.581398393104905
 30
0.0
 11
336.4480273371143
 21
62.869676671067971
 31
0.0
  0
LINE
  5
12709
  8
0
 10
317.44802794806191
 20
62.869676671067971
 30
0.0
 11
317.44802794806219
 21
68.581398393104905
 31
0.0
  0
LINE
  5
1270A
  8
0
 10
336.29311486534311
 20
48.416398282239932
 30
0.0
 11
336.4480273371143
 21
48.063120155672323
 31
0.0
  0
LINE
  5
1270B
  8
0
 10
317.44802794806191
 20
48.063120155672323
 30
0.0
 11
317.60294011424298
 21
48.416398282239932
 31
0.0
  0
LINE
  5
1270C
  8
0
 10
336.4480273371143
 20
48.063120155672323
 30
0.0
 11
336.44802733711413
 21
42.351398433636056
 31
0.0
  0
LINE
  5
1270D
  8
0
 10
317.44802794806219
 20
42.351398433636056
 30
0.0
 11
317.44802794806191
 21
48.063120155672323
 31
0.0
  0
LINE
  5
1270E
  8
0
 10
355.44802672616669
 20
47.219013611863367
 30
0.0
 11
366.4480266665621
 21
47.219013611863367
 31
0.0
  0
LINE
  5
1270F
  8
0
 10
363.69802854410841
 20
63.903344611714601
 30
0.0
 11
358.19802857391068
 21
63.903344611714601
 31
0.0
  0
LINE
  5
12710
  8
0
 10
366.4480266665621
 20
63.71378321487731
 30
0.0
 11
355.44802672616669
 21
63.71378321487736
 31
0.0
  0
ARC
  5
12712
  8
0
 10
215.94802794806199
 20
55.466398413370371
 30
0.0
 40
11.50000000000002
 50
328.25855450772212
 51
31.741445492277851
  0
ARC
  5
12713
  8
0
 10
215.94802794806199
 20
55.466398413370371
 30
0.0
 40
9.7679491924311641
 50
16.548857109432738
 51
38.270332206733919
  0
ARC
  5
12714
  8
0
 10
215.94802794806199
 20
55.466398413370371
 30
0.0
 40
9.7679491924311197
 50
321.72966779327669
 51
343.45114289056733
  0
LINE
  5
1271B
  8
0
 10
210.46320400587749
 20
45.966398718844403
 30
0.0
 11
221.4328577315016
 21
45.966398718844403
 31
0.0
  0
LINE
  5
12726
  8
0
 10
221.4328577315016
 20
64.966398107896794
 30
0.0
 11
210.46320400587729
 21
64.966398107896737
 31
0.0
  0
LINE
  5
12729
  8
0
 10
334.74802836231419
 20
46.066398548970767
 30
0.0
 11
333.79802718214228
 21
46.066398548970817
 31
0.0
  0
LINE
  5
1272C
  8
0
 10
333.74802819840153
 20
64.466398025940066
 30
0.0
 11
334.69802751592829
 21
64.466398025940066
 31
0.0
  0
LINE
  5
1272F
  8
0
 10
336.9480283503936
 20
55.516398412107321
 30
0.0
 11
336.94802835039332
 21
55.416398414633363
 31
0.0
  0
LINE
  5
12730
  8
0
 10
315.94802793502339
 20
55.553486396502649
 30
0.0
 11
315.94802793502339
 21
55.379310432141999
 31
0.0
  0
LINE
  5
12732
  8
0
 10
311.88220722056462
 20
56.488436835755181
 30
0.0
 11
311.88220722056462
 21
54.444360014128392
 31
0.0
  0
LINE
  5
12740
  8
0
 10
315.448027853067
 20
55.332806272742232
 30
0.0
 11
315.448027853067
 21
55.599990553998339
 31
0.0
  0
LINE
  5
12741
  8
0
 10
311.94802797786429
 20
56.465175867157882
 30
0.0
 11
311.94802797786429
 21
54.467620959582632
 31
0.0
  0
ARC
  5
12742
  8
0
 10
315.94802794806202
 20
58.466398413370307
 30
0.0
 40
4.0000000000000009
 50
112.024312837042
 51
156.51802873973759
  0
ARC
  5
12743
  8
0
 10
315.94802794806202
 20
52.46639841337025
 30
0.0
 40
4.0000000000000622
 50
203.4819712602594
 51
247.97568716295791
  0
ARC
  5
12744
  8
0
 10
269.94802794806202
 20
55.466398413370371
 30
0.0
 40
6.0500000000000389
 50
270.0
 51
90.0
  0
LINE
  5
12745
  8
0
 10
223.42471084944441
 20
61.51639838058788
 30
0.0
 11
269.94802854410841
 21
61.51639838058788
 31
0.0
  0
LINE
  5
12746
  8
0
 10
269.94802854410841
 20
49.416398446152982
 30
0.0
 11
223.42471084944441
 21
49.416398446152982
 31
0.0
  0
LINE
  5
12747
  8
0
 10
281.94802678577139
 20
69.466398845504102
 30
0.0
 11
281.94802678577139
 21
41.466397981236753
 31
0.0
  0
LINE
  5
12748
  8
0
 10
203.94802890173631
 20
41.466397981236753
 30
0.0
 11
283.94802711359989
 21
41.466397981236753
 31
0.0
  0
LINE
  5
12749
  8
0
 10
203.94802890173631
 20
69.466398845504102
 30
0.0
 11
283.94802711359688
 21
69.466398845504102
 31
0.0
  0
LINE
  5
1274A
  8
0
 10
203.94802890173631
 20
69.466398845504102
 30
0.0
 11
203.94802890173631
 21
41.466397981236753
 31
0.0
  0
POLYLINE
  5
1274B
  8
0
 66
     1
 10
0.0
 20
0.0
 30
0.0
 70
   128
  0
VERTEX
  5
12E4D
  8
0
 10
283.94802711359688
 20
44.966398554931402
 30
0.0
  0
VERTEX
  5
12E4E
  8
0
 10
284.95693630925848
 20
45.04517540622782
 30
0.0
  0
VERTEX
  5
12E4F
  8
0
 10
285.44802642814352
 20
45.141842964182672
 30
0.0
  0
SEQEND
  5
12E50
  8
0
  0
POLYLINE
  5
1274D
  8
0
 66
     1
 10
0.0
 20
0.0
 30
0.0
 70
   128
  0
VERTEX
  5
12E51
  8
0
 10
285.44802642814352
 20
41.579538772891333
 30
0.0
  0
VERTEX
  5
12E52
  8
0
 10
284.3468827699823
 20
41.474356132636778
 30
0.0
  0
VERTEX
  5
12E53
  8
0
 10
283.94802711359688
 20
41.466397981236689
 30
0.0
  0
SEQEND
  5
12E54
  8
0
  0
LINE
  5
1274E
  8
0
 10
283.94802711359688
 20
44.966398554931402
 30
0.0
 11
281.94802678577139
 21
44.966398554931452
 31
0.0
  0
POLYLINE
  5
12750
  8
0
 66
     1
 10
0.0
 20
0.0
 30
0.0
 70
   128
  0
VERTEX
  5
12E55
  8
0
 10
283.94802711359688
 20
65.966398271809339
 30
0.0
  0
VERTEX
  5
12E56
  8
0
 10
284.95693630925848
 20
65.887621420512971
 30
0.0
  0
VERTEX
  5
12E57
  8
0
 10
285.44802642814352
 20
65.790953862558126
 30
0.0
  0
SEQEND
  5
12E58
  8
0
  0
POLYLINE
  5
12751
  8
0
 66
     1
 10
0.0
 20
0.0
 30
0.0
 70
   128
  0
VERTEX
  5
12E59
  8
0
 10
283.94802711359688
 20
69.466398845504102
 30
0.0
  0
VERTEX
  5
12E5A
  8
0
 10
285.02256102315619
 20
69.408499452362776
 30
0.0
  0
VERTEX
  5
12E5B
  8
0
 10
285.44802642814352
 20
69.353258053849459
 30
0.0
  0
SEQEND
  5
12E5C
  8
0
  0
LINE
  5
12753
  8
0
 10
283.94802711359688
 20
65.966398271809339
 30
0.0
 11
281.94802678577139
 21
65.966398271809396
 31
0.0
  0
LINE
  5
12756
  8
0
 10
321.44802813805182
 20
55.41639841463347
 30
0.0
 11
316.94802792431318
 21
55.41639841463347
 31
0.0
  0
ARC
  5
12758
  8
0
 10
316.94802794806202
 20
41.916398413370523
 30
0.0
 40
9.9999999999999662
 50
104.47751218593019
 51
109.46337144831379
  0
LINE
  5
12759
  8
0
 10
312.4497714956803
 20
54.644936803339981
 30
0.0
 11
286.11385501376822
 21
45.337842593978159
 31
0.0
  0
ARC
  5
1275A
  8
0
 10
316.94802794806202
 20
41.916398413370644
 30
0.0
 40
13.499999999999821
 50
90.0
 51
109.46337144831379
  0
LINE
  5
1275B
  8
0
 10
287.28007018021771
 20
42.037850993762731
 30
0.0
 11
313.61598619646861
 21
51.344945377747528
 31
0.0
  0
ARC
  5
1275C
  8
0
 10
283.94802794806191
 20
51.466398413370477
 30
0.0
 40
6.5000000000000382
 50
283.34236379709108
 51
289.46337144831381
  0
ARC
  5
1275D
  8
0
 10
283.94802794806191
 20
51.466398413370371
 30
0.0
 40
9.9999999999999112
 50
278.62692655868352
 51
289.46337144831381
  0
LINE
  5
1275E
  8
0
 10
370.9480283354921
 20
55.41639841463347
 30
0.0
 11
332.44802761278578
 21
55.416398414633541
 31
0.0
  0
LINE
  5
1275F
  8
0
 10
370.9480283354921
 20
51.916398390273571
 30
0.0
 11
370.9480283354921
 21
55.41639841463347
 31
0.0
  0
LINE
  5
12760
  8
0
 10
370.9480283354921
 20
55.516398412107257
 30
0.0
 11
370.9480283354921
 21
59.016398436467171
 31
0.0
  0
LINE
  5
12761
  8
0
 10
332.44802761278578
 20
55.516398412107257
 30
0.0
 11
370.9480283354921
 21
55.516398412107257
 31
0.0
  0
LINE
  5
12763
  8
0
 10
313.61598619646861
 20
59.587851448993199
 30
0.0
 11
287.28007018021771
 21
68.894945832978067
 31
0.0
  0
ARC
  5
12764
  8
0
 10
316.94802794806202
 20
69.016398413370212
 30
0.0
 40
9.9999999999998508
 50
250.53662855168619
 51
255.52248781406971
  0
LINE
  5
12765
  8
0
 10
316.94802792431318
 20
55.516398412107257
 30
0.0
 11
321.44802813805182
 21
55.516398412107257
 31
0.0
  0
ARC
  5
12767
  8
0
 10
316.94802794806202
 20
69.016398413370425
 30
0.0
 40
13.50000000000002
 50
250.53662855168619
 51
270.0
  0
LINE
  5
12768
  8
0
 10
286.11385501376822
 20
65.594954232762575
 30
0.0
 11
312.4497714956803
 21
56.28786002340081
 31
0.0
  0
ARC
  5
12769
  8
0
 10
283.94802794806191
 20
59.466398413370371
 30
0.0
 40
6.5000000000000382
 50
70.536628551686192
 51
76.657636202908918
  0
ARC
  5
1276A
  8
0
 10
283.94802794806191
 20
59.466398413370491
 30
0.0
 40
9.9999999999999112
 50
70.536628551686192
 51
81.373073441329325
  0
LINE
  5
1276D
  8
0
 10
370.44802732221319
 20
48.416398282240429
 30
0.0
 11
370.44802732221319
 21
51.916398390273848
 31
0.0
  0
LINE
  5
1276F
  8
0
 10
317.44802794806191
 20
51.916398390273848
 30
0.0
 11
317.44802794806191
 21
48.416398282240429
 31
0.0
  0
LINE
  5
12776
  8
0
 10
317.44802794806191
 20
62.516398544500873
 30
0.0
 11
317.44802794806191
 21
59.016398436467448
 31
0.0
  0
LINE
  5
1277C
  8
0
 10
370.44802732221319
 20
62.516398544500873
 30
0.0
 11
370.44802732221319
 21
59.016398436467448
 31
0.0
  0
LINE
  5
1277F
  8
0
 10
372.9480286633177
 20
48.441461104045857
 30
0.0
 11
372.44802765003868
 21
48.416398282240323
 31
0.0
  0
LINE
  5
12780
  8
0
 10
372.9480286633177
 20
52.002184840928003
 30
0.0
 11
372.44802765003868
 21
51.916398390273741
 31
0.0
  0
LINE
  5
12782
  8
0
 10
314.44802792198487
 20
51.91639839027544
 30
0.0
 11
372.44802765003868
 21
51.916398390273741
 31
0.0
  0
LINE
  5
12783
  8
0
 10
314.44802792198487
 20
48.416398282240323
 30
0.0
 11
372.44802765003868
 21
48.416398282240323
 31
0.0
  0
LINE
  5
12784
  8
0
 10
372.44802765003868
 20
62.516398544500753
 30
0.0
 11
372.9480286633177
 21
62.491335722695283
 31
0.0
  0
LINE
  5
12786
  8
0
 10
372.44802765003868
 20
59.016398436467398
 30
0.0
 11
372.9480286633177
 21
58.93061198581313
 31
0.0
  0
LINE
  5
12787
  8
0
 10
314.44802792198487
 20
62.516398544500703
 30
0.0
 11
372.44802765003868
 21
62.516398544500753
 31
0.0
  0
LINE
  5
12788
  8
0
 10
372.44802765003868
 20
59.016398436467398
 30
0.0
 11
314.44802792198487
 21
59.016398436467398
 31
0.0
  0
LINE
  5
12789
  8
0
 10
373.94802696458532
 20
57.516398423428818
 30
0.0
 11
373.94802696458532
 21
53.41639840331225
 31
0.0
  0
LINE
  5
1278A
  8
0
 10
377.4480266069574
 20
53.41639840331225
 30
0.0
 11
377.4480266069574
 21
57.516398423428818
 31
0.0
  0
ARC
  5
1278B
  8
0
 10
372.44802794806202
 20
57.516398413370553
 30
0.0
 40
5.0
 50
0.0
 51
84.260829522725331
  0
ARC
  5
1278C
  8
0
 10
372.44802794806202
 20
53.41639841337053
 30
0.0
 40
5.0000000000000124
 50
275.73917047727468
 51
0.0
  0
ARC
  5
1278D
  8
0
 10
372.44802794806202
 20
57.516398413370553
 30
0.0
 40
1.500000000000056
 50
0.0
 51
70.528779365513174
  0
ARC
  5
1278E
  8
0
 10
372.44802794806202
 20
53.41639841337053
 30
0.0
 40
1.500000000000056
 50
289.47122063448683
 51
0.0
  0
LINE
  5
12795
  8
0
 10
314.44802792198487
 20
51.916398390273677
 30
0.0
 11
314.44802792198487
 21
48.416398282240259
 31
0.0
  0
LINE
  5
12798
  8
0
 10
314.44802792198487
 20
62.516398544500703
 30
0.0
 11
314.44802792198487
 21
59.016398436467277
 31
0.0
  0
CIRCLE
  5
12947
  8
0
 10
215.94802794806199
 20
566.50640126604878
 30
0.0
 40
6.0
  0
CIRCLE
  5
12948
  8
3
 10
215.94802794806199
 20
566.50640126604878
 30
0.0
 40
5.052999999999999
  0
LINE
  5
12957
  8
1
 10
198.94802890173631
 20
566.50640126604901
 30
0.0
 11
382.44802660695751
 21
566.50640126604901
 31
0.0
  0
LINE
  5
12958
  8
1
 10
215.94802794806199
 20
579.50640104253137
 30
0.0
 11
215.94802794806199
 21
553.50640148956631
 31
0.0
  0
LINE
  5
12959
  8
1
 10
269.94802794806202
 20
575.55640126604908
 30
0.0
 11
269.94802794806202
 21
557.45640126604872
 31
0.0
  0
LINE
  5
12B34
  8
0
 10
210.46320400587729
 20
64.966398107896737
 30
0.0
 11
204.9783696924849
 21
55.466398413370428
 31
0.0
  0
LINE
  5
12B35
  8
0
 10
204.9783696924849
 20
55.466398413370428
 30
0.0
 11
210.46320400587749
 21
45.966398718844403
 31
0.0
  0
LINE
  5
12B36
  8
0
 10
221.43285189024661
 20
64.966398107896737
 30
0.0
 11
226.91768620363911
 21
55.466398413370428
 31
0.0
  0
LINE
  5
12B37
  8
0
 10
226.91768620363911
 20
55.466398413370428
 30
0.0
 11
221.43285189024641
 21
45.966398718844403
 31
0.0
  0
CIRCLE
  5
12B38
  8
0
 10
215.94802794806199
 20
55.466398413370598
 30
0.0
 40
9.5
  0
LINE
  5
12B40
  8
1
 10
198.94802890173631
 20
55.466398413370371
 30
0.0
 11
382.44802660695751
 21
55.466398413370371
 31
0.0
  0
LINE
  5
12B41
  8
1
 10
215.94802794806199
 20
68.466398189852839
 30
0.0
 11
215.94802794806199
 21
42.466398636887668
 31
0.0
  0
LINE
  5
12B42
  8
1
 10
269.94802794806202
 20
64.516398413370439
 30
0.0
 11
269.94802794806202
 21
46.416398413370068
 31
0.0
  0
LINE
  5
12B61
  8
3
 10
221.0010279480621
 20
276.64989497990632
 30
0.0
 11
221.0010279480621
 21
268.07639766771581
 31
0.0
  0
LINE
  5
12B62
  8
3
 10
210.89502794806191
 20
276.64989658922059
 30
0.0
 11
210.89502794806191
 21
268.07639766771581
 31
0.0
  0
LINE
  5
12B6B
  8
3
 10
210.89502794806191
 20
241.7763995035389
 30
0.0
 11
210.89502794806191
 21
206.77639749188211
 31
0.0
  0
LINE
  5
12B6C
  8
3
 10
221.0010279480621
 20
241.7763995035389
 30
0.0
 11
221.0010279480621
 21
206.77639749188211
 31
0.0
  0
LINE
  5
12B6D
  8
1
 10
215.94802794806199
 20
279.77639592726018
 30
0.0
 11
215.94802794806199
 21
196.27639719385891
 31
0.0
  0
LINE
  5
12B6E
  8
1
 10
327.94802794806168
 20
192.6163979514339
 30
0.0
 11
327.94802794806168
 21
181.81639795143391
 31
0.0
  0
LINE
  5
12B6F
  8
1
 10
359.94802794806202
 20
192.61639795143381
 30
0.0
 11
359.94802794806202
 21
181.816397951434
 31
0.0
  0
LINE
  5
12B72
  8
1
 10
365.34802794806183
 20
187.21639795143389
 30
0.0
 11
354.5480279480621
 21
187.21639795143389
 31
0.0
  0
LINE
  5
12B75
  8
1
 10
333.3480279480616
 20
187.21639795143389
 30
0.0
 11
322.54802794806187
 21
187.21639795143389
 31
0.0
  0
LINE
  5
12B76
  8
1
 10
333.44802794806242
 20
311.27639795143398
 30
0.0
 11
320.44802794806151
 21
311.27639795143398
 31
0.0
  0
LINE
  5
12B77
  8
1
 10
326.94802794806202
 20
317.7763979514346
 30
0.0
 11
326.94802794806202
 21
304.77639795143341
 31
0.0
  0
LINE
  5
12B78
  8
1
 10
333.44802794806242
 20
230.27639795143389
 30
0.0
 11
320.44802794806151
 21
230.27639795143389
 31
0.0
  0
LINE
  5
12B79
  8
1
 10
326.94802794806202
 20
236.7763979514344
 30
0.0
 11
326.94802794806202
 21
223.7763979514333
 31
0.0
  0
LINE
  5
12B7A
  8
1
 10
367.44802794806242
 20
264.27639795143381
 30
0.0
 11
354.44802794806111
 21
264.27639795143381
 31
0.0
  0
LINE
  5
12B7B
  8
1
 10
360.94802794806168
 20
270.77639795143438
 30
0.0
 11
360.94802794806168
 21
257.7763979514333
 31
0.0
  0
LINE
  5
12B7C
  8
1
 10
353.58931535474522
 20
249.9581688211492
 30
0.0
 11
345.58931535474471
 21
249.9581688211492
 31
0.0
  0
LINE
  5
12B7D
  8
1
 10
349.589315354745
 20
253.9581688211494
 30
0.0
 11
349.589315354745
 21
245.95816882114909
 31
0.0
  0
LINE
  5
12B7F
  8
1
 10
358.5631735516352
 20
241.99833180611219
 30
0.0
 11
350.56317355163469
 21
241.99833180611219
 31
0.0
  0
LINE
  5
12B80
  8
1
 10
354.56317355163492
 20
245.9983318061123
 30
0.0
 11
354.56317355163492
 21
237.99833180611211
 31
0.0
  0
LINE
  5
12B81
  8
1
 10
360.83386889081447
 20
232.8910702338637
 30
0.0
 11
352.83386889081407
 21
232.8910702338637
 31
0.0
  0
LINE
  5
12B82
  8
1
 10
356.8338688908143
 20
236.89107023386379
 30
0.0
 11
356.8338688908143
 21
228.89107023386359
 31
0.0
  0
ARC
  5
12BAB
  8
0
 10
54.039463427626288
 20
394.82520691206622
 30
0.0
 40
0.200000000000042
 50
283.06202115754962
 51
2.6636745044497889
  0
ARC
  5
12BAC
  8
0
 10
54.17494413940949
 20
392.56168164563491
 30
0.0
 40
0.2000000000000524
 50
4.1963102059426971
 51
83.797978842441964
  0
ARC
  5
12BAE
  8
0
 10
54.426393000459939
 20
389.76681455975751
 30
0.0
 40
0.200000000000042
 50
286.48202115755657
 51
6.0836745044499079
  0
ARC
  5
12BAF
  8
0
 10
54.696966880217808
 20
387.51543909743339
 30
0.0
 40
0.2000000000000524
 50
7.6163102059430416
 51
87.21797884244782
  0
ARC
  5
12BB0
  8
0
 10
54.039463427626288
 20
402.6875889908016
 30
0.0
 40
0.200000000000042
 50
357.33632549555341
 51
76.937978842450477
  0
ARC
  5
12BB1
  8
0
 10
54.17494413940949
 20
404.9511142572328
 30
0.0
 40
0.2000000000000524
 50
276.20202115755802
 51
355.8036897940508
  0
ARC
  5
12BB2
  8
0
 10
54.426393000464479
 20
407.74598134310969
 30
0.0
 40
0.200000000000042
 50
353.91632549551451
 51
73.517978842415715
  0
ARC
  5
12BB3
  8
0
 10
54.696966880223499
 20
409.99735680543358
 30
0.0
 40
0.2000000000000524
 50
272.78202115752617
 51
352.38368979402469
  0
ARC
  5
12BB7
  8
0
 10
55.528202371661337
 20
415.04682779109919
 30
0.0
 40
0.200000000000042
 50
269.32202115755541
 51
348.92367450444749
  0
ARC
  5
12BB8
  8
0
 10
55.122365347723409
 20
412.81586432829602
 30
0.0
 40
0.2000000000000524
 50
350.45631020594459
 51
70.057978842443859
  0
ARC
  5
12BC0
  8
0
 10
99.840446504740839
 20
399.89018603374501
 30
0.0
 40
0.200000000000042
 50
180.7663254955512
 51
260.3679788424613
  0
ARC
  5
12BC1
  8
0
 10
99.840446504740839
 20
397.62260986912293
 30
0.0
 40
0.2000000000000524
 50
99.632021157538688
 51
179.23368979405569
  0
ARC
  5
12BC2
  8
0
 10
99.648028770606061
 20
398.75639795143388
 30
0.0
 40
0.9500000000000213
 50
279.6320211575387
 51
80.367978842461298
  0
ARC
  5
12BC3
  8
0
 10
99.496779767095646
 20
393.70494064752251
 30
0.0
 40
0.9500000000002211
 50
276.20772660839089
 51
76.943684293248467
  0
ARC
  5
12BC4
  8
0
 10
99.496779767095646
 20
403.80785525534498
 30
0.0
 40
0.9500000000002916
 50
283.0563157067777
 51
83.792273391609115
  0
ARC
  5
12BC5
  8
0
 10
99.043334620444512
 20
388.6640866774876
 30
0.0
 40
0.9500000000005071
 50
272.77835206366632
 51
73.514312722894744
  0
ARC
  5
12BC6
  8
0
 10
99.043334620438827
 20
408.84870922537931
 30
0.0
 40
0.9500000000005071
 50
286.4856902514212
 51
87.221647936359744
  0
ARC
  5
12BC7
  8
0
 10
98.281471468462755
 20
413.89686043328493
 30
0.0
 40
0.9500000000002826
 50
289.94495552174851
 51
90.680913206673836
  0
ARC
  5
12BC8
  8
0
 10
99.756594113585834
 20
394.82520691206622
 30
0.0
 40
0.200000000000042
 50
177.3363254955502
 51
256.93797884245038
  0
ARC
  5
12BC9
  8
0
 10
99.621113401802646
 20
392.56168164563491
 30
0.0
 40
0.2000000000000524
 50
96.202021157558022
 51
175.80368979405731
  0
ARC
  5
12BCA
  8
0
 10
99.369664540752183
 20
389.76681455975751
 30
0.0
 40
0.200000000000042
 50
173.91632549555001
 51
253.51797884244249
  0
ARC
  5
12BCB
  8
0
 10
99.099090660994307
 20
387.51543909743339
 30
0.0
 40
0.2000000000000524
 50
92.782021157552165
 51
172.38368979405689
  0
ARC
  5
12BCC
  8
0
 10
99.756594113585834
 20
402.6875889908016
 30
0.0
 40
0.200000000000042
 50
103.06202115754949
 51
182.6636745044465
  0
ARC
  5
12BCD
  8
0
 10
99.621113401802646
 20
404.9511142572328
 30
0.0
 40
0.2000000000000524
 50
184.1963102059492
 51
263.79797884244198
  0
ARC
  5
12BCE
  8
0
 10
99.369664540747635
 20
407.74598134310969
 30
0.0
 40
0.200000000000042
 50
106.4820211575843
 51
186.08367450448549
  0
ARC
  5
12BCF
  8
0
 10
99.099090660988622
 20
409.99735680543358
 30
0.0
 40
0.2000000000000524
 50
187.61631020597201
 51
267.21797884247383
  0
ARC
  5
12BD0
  8
0
 10
98.267855169550785
 20
415.04682779109919
 30
0.0
 40
0.200000000000042
 50
191.0763254955524
 51
270.67797884244459
  0
ARC
  5
12BD1
  8
0
 10
98.673692193488705
 20
412.81586432829602
 30
0.0
 40
0.2000000000000524
 50
109.9420211575428
 51
189.54368979405541
  0
ARC
  5
12BD2
  8
0
 10
481.55560900395278
 20
399.89018603374501
 30
0.0
 40
0.200000000000042
 50
279.63202115755212
 51
359.2336745044488
  0
ARC
  5
12BD3
  8
0
 10
481.55560900395278
 20
397.62260986912293
 30
0.0
 40
0.2000000000000524
 50
0.7663102059442557
 51
80.367978842447911
  0
ARC
  5
12BD4
  8
0
 10
481.74802673808767
 20
398.75639795143388
 30
0.0
 40
0.9500000000000213
 50
99.632021157525855
 51
260.3679788424613
  0
ARC
  5
12BD5
  8
0
 10
481.8992757415981
 20
393.70494064752251
 30
0.0
 40
0.9500000000002211
 50
103.05631570676491
 51
263.79227339159621
  0
ARC
  5
12BD6
  8
0
 10
481.8992757415981
 20
403.80785525534498
 30
0.0
 40
0.9500000000002916
 50
96.207726608403831
 51
256.94368429323509
  0
ARC
  5
12BD7
  8
0
 10
482.35272088824922
 20
388.6640866774876
 30
0.0
 40
0.9500000000005071
 50
106.4856872770918
 51
267.22164793634681
  0
ARC
  5
12BD8
  8
0
 10
482.35272088825479
 20
408.84870922537931
 30
0.0
 40
0.9500000000005071
 50
92.778352063653287
 51
253.5143097485788
  0
ARC
  5
12BD9
  8
0
 10
483.11458404023091
 20
413.89686043328493
 30
0.0
 40
0.9500000000002826
 50
89.319086793326207
 51
250.05504447825149
  0
ARC
  5
12BDA
  8
0
 10
481.6394613951079
 20
394.82520691206622
 30
0.0
 40
0.200000000000042
 50
283.06202115754962
 51
2.6636745044497889
  0
ARC
  5
12BDB
  8
0
 10
481.7749421068911
 20
392.56168164563491
 30
0.0
 40
0.2000000000000524
 50
4.1963102059426971
 51
83.797978842441964
  0
ARC
  5
12BDC
  8
0
 10
482.0263909679415
 20
389.76681455975751
 30
0.0
 40
0.200000000000042
 50
286.48202115755657
 51
6.0836745044499079
  0
ARC
  5
12BDD
  8
0
 10
482.29696484769943
 20
387.51543909743339
 30
0.0
 40
0.2000000000000524
 50
7.6163102059462693
 51
87.21797884244782
  0
ARC
  5
12BDE
  8
0
 10
481.6394613951079
 20
402.6875889908016
 30
0.0
 40
0.200000000000042
 50
357.33632549555341
 51
76.937978842450477
  0
ARC
  5
12BDF
  8
0
 10
481.7749421068911
 20
404.9511142572328
 30
0.0
 40
0.2000000000000524
 50
276.20202115755802
 51
355.8036897940508
  0
ARC
  5
12BE0
  8
0
 10
482.0263909679461
 20
407.74598134310969
 30
0.0
 40
0.200000000000042
 50
353.91632549551451
 51
73.517978842415715
  0
ARC
  5
12BE1
  8
0
 10
482.29696484770511
 20
409.99735680543358
 30
0.0
 40
0.2000000000000524
 50
272.78202115752617
 51
352.38368979402469
  0
ARC
  5
12BE2
  8
0
 10
483.12820033914289
 20
415.04682779109919
 30
0.0
 40
0.200000000000042
 50
269.32202115755541
 51
348.92367450444749
  0
ARC
  5
12BE3
  8
0
 10
482.72236331520497
 20
412.81586432829602
 30
0.0
 40
0.2000000000000524
 50
350.45631020594459
 51
70.057978842443859
  0
ARC
  5
12BE4
  8
0
 10
527.44044447222245
 20
399.89018603374501
 30
0.0
 40
0.200000000000042
 50
180.7663254955512
 51
260.3679788424613
  0
ARC
  5
12BE5
  8
0
 10
527.44044447222245
 20
397.62260986912293
 30
0.0
 40
0.2000000000000524
 50
99.632021157538688
 51
179.23368979405569
  0
ARC
  5
12BE6
  8
0
 10
527.24802673808767
 20
398.75639795143388
 30
0.0
 40
0.9500000000000213
 50
279.6320211575387
 51
80.367978842461298
  0
ARC
  5
12BE7
  8
0
 10
527.09677773457724
 20
393.70494064752251
 30
0.0
 40
0.9500000000002211
 50
276.20772660839089
 51
76.943684293248467
  0
ARC
  5
12BE8
  8
0
 10
527.09677773457724
 20
403.80785525534498
 30
0.0
 40
0.9500000000002916
 50
283.05631570677838
 51
83.792273391609115
  0
ARC
  5
12BE9
  8
0
 10
526.64333258792612
 20
388.6640866774876
 30
0.0
 40
0.9500000000005071
 50
272.77835206366632
 51
73.514312722894744
  0
ARC
  5
12BEA
  8
0
 10
526.64333258792044
 20
408.84870922537931
 30
0.0
 40
0.9500000000005071
 50
286.4856902514212
 51
87.221647936359744
  0
ARC
  5
12BEB
  8
0
 10
525.88146943594427
 20
413.89686043328493
 30
0.0
 40
0.9500000000002826
 50
289.94495552174851
 51
90.680913206673836
  0
ARC
  5
12BEC
  8
0
 10
527.35659208106745
 20
394.82520691206622
 30
0.0
 40
0.200000000000042
 50
177.3363254955502
 51
256.93797884245038
  0
ARC
  5
12BED
  8
0
 10
527.22111136928424
 20
392.56168164563491
 30
0.0
 40
0.2000000000000524
 50
96.202021157558022
 51
175.80368979405731
  0
ARC
  5
12BEE
  8
0
 10
526.9696625082338
 20
389.76681455975751
 30
0.0
 40
0.200000000000042
 50
173.91632549555001
 51
253.51797884244249
  0
ARC
  5
12BEF
  8
0
 10
526.69908862847592
 20
387.51543909743339
 30
0.0
 40
0.2000000000000524
 50
92.782021157552165
 51
172.38368979405689
  0
ARC
  5
12BF0
  8
0
 10
527.35659208106745
 20
402.6875889908016
 30
0.0
 40
0.200000000000042
 50
103.06202115754949
 51
182.6636745044465
  0
ARC
  5
12BF1
  8
0
 10
527.22111136928424
 20
404.9511142572328
 30
0.0
 40
0.2000000000000524
 50
184.1963102059492
 51
263.79797884244198
  0
ARC
  5
12BF2
  8
0
 10
526.96966250822925
 20
407.74598134310969
 30
0.0
 40
0.200000000000042
 50
106.4820211575843
 51
186.08367450448549
  0
ARC
  5
12BF3
  8
0
 10
526.69908862847024
 20
409.99735680543358
 30
0.0
 40
0.2000000000000524
 50
187.61631020597531
 51
267.21797884247383
  0
ARC
  5
12BF4
  8
0
 10
525.8678531370324
 20
415.04682779109919
 30
0.0
 40
0.200000000000042
 50
191.0763254955524
 51
270.67797884244459
  0
ARC
  5
12BF5
  8
0
 10
526.27369016097032
 20
412.81586432829602
 30
0.0
 40
0.2000000000000524
 50
109.9420211575428
 51
189.54368979405541
  0
LINE
  5
12BFD
  8
3
 10
81.951028770606626
 20
276.64989497990632
 30
0.0
 11
81.951028770606626
 21
268.07639766771581
 31
0.0
  0
LINE
  5
12BFE
  8
3
 10
81.951028770606626
 20
241.7763995035389
 30
0.0
 11
81.951028770606626
 21
206.77639749188211
 31
0.0
  0
LINE
  5
12BFF
  8
3
 10
71.845028770606405
 20
276.64989658922059
 30
0.0
 11
71.845028770606405
 21
268.07639766771581
 31
0.0
  0
LINE
  5
12C00
  8
3
 10
71.845028770606405
 20
241.7763995035389
 30
0.0
 11
71.845028770606405
 21
206.77639749188211
 31
0.0
  0
LINE
  5
12C01
  8
1
 10
76.898028770606516
 20
448.7588832410915
 30
0.0
 11
76.898028770606516
 21
173.21639795143389
 31
0.0
  0
LINE
  5
12C1B
  8
0
 10
508.04802676118447
 20
283.27640164930608
 30
0.0
 11
508.04802676118447
 21
243.2763950927953
 31
0.0
  0
LINE
  5
12C23
  8
1
 10
504.49802673808767
 20
448.7588832410915
 30
0.0
 11
504.49802673808767
 21
173.21639795143389
 31
0.0
  0
LINE
  5
12C3E
  8
1
 10
68.848028639475842
 20
187.21639795143389
 30
0.0
 11
74.348028747509261
 21
187.21639795143389
 31
0.0
  0
LINE
  5
12C43
  8
1
 10
79.448028793702861
 20
187.21639795143389
 30
0.0
 11
84.948028901736279
 21
187.21639795143389
 31
0.0
  0
LINE
  5
12C44
  8
1
 10
496.4480266069574
 20
187.216397951434
 30
0.0
 11
501.94802671499087
 21
187.216397951434
 31
0.0
  0
LINE
  5
12C45
  8
1
 10
507.04802676118442
 20
187.216397951434
 30
0.0
 11
512.54802686921789
 21
187.216397951434
 31
0.0
  0
TEXT
  5
12CD3
  8
0
 62
     3
 10
0.0
 20
0.0
 30
0.0
 40
10.0
  1
TCDVS12280
  7
STANDARD1
  0
ENDSEC
  0
EOF
