  0
SECTION
  2
HEADER
  9
$ACADVER
  1
AC1009
  9
$INSBASE
 10
0.0
 20
0.0
 30
0.0
  9
$EXTMIN
 10
0.0
 20
-2.960436562073669
 30
0.0
  9
$EXTMAX
 10
529.65086100394205
 20
364.7169493683021
 30
0.0
  9
$LIMMIN
 10
0.0
 20
0.0
  9
$LIMMAX
 10
420.0
 20
297.0
  9
$ORTHOMODE
 70
     1
  9
$REGENMODE
 70
     1
  9
$FILLMODE
 70
     1
  9
$QTEXTMODE
 70
     0
  9
$MIRRTEXT
 70
     0
  9
$DRAGMODE
 70
     2
  9
$LTSCALE
 40
10.0
  9
$OSMODE
 70
    55
  9
$ATTMODE
 70
     1
  9
$TEXTSIZE
 40
2.5
  9
$TRACEWID
 40
1.0
  9
$TEXTSTYLE
  7
STANDARD
  9
$CLAYER
  8
0
  9
$CELTYPE
  6
BYLAYER
  9
$CECOLOR
 62
   256
  9
$DIMSCALE
 40
1.0
  9
$DIMASZ
 40
2.5
  9
$DIMEXO
 40
0.625
  9
$DIMDLI
 40
3.75
  9
$DIMRND
 40
0.0
  9
$DIMDLE
 40
0.0
  9
$DIMEXE
 40
1.25
  9
$DIMTP
 40
0.0
  9
$DIMTM
 40
0.0
  9
$DIMTXT
 40
2.5
  9
$DIMCEN
 40
2.5
  9
$DIMTSZ
 40
0.0
  9
$DIMTOL
 70
     0
  9
$DIMLIM
 70
     0
  9
$DIMTIH
 70
     0
  9
$DIMTOH
 70
     0
  9
$DIMSE1
 70
     0
  9
$DIMSE2
 70
     0
  9
$DIMTAD
 70
     1
  9
$DIMZIN
 70
     8
  9
$DIMBLK
  1

  9
$DIMASO
 70
     1
  9
$DIMSHO
 70
     1
  9
$DIMPOST
  1

  9
$DIMAPOST
  1

  9
$DIMALT
 70
     0
  9
$DIMALTD
 70
     3
  9
$DIMALTF
 40
0.03937007874016
  9
$DIMLFAC
 40
1.0
  9
$DIMTOFL
 70
     1
  9
$DIMTVP
 40
0.0
  9
$DIMTIX
 70
     0
  9
$DIMSOXD
 70
     0
  9
$DIMSAH
 70
     0
  9
$DIMBLK1
  1

  9
$DIMBLK2
  1

  9
$DIMSTYLE
  2
ISO-25
  9
$DIMCLRD
 70
     0
  9
$DIMCLRE
 70
     0
  9
$DIMCLRT
 70
     0
  9
$DIMTFAC
 40
1.0
  9
$DIMGAP
 40
0.625
  9
$LUNITS
 70
     2
  9
$LUPREC
 70
     2
  9
$SKETCHINC
 40
1.0
  9
$FILLETRAD
 40
0.0
  9
$AUNITS
 70
     0
  9
$AUPREC
 70
     2
  9
$MENU
  1
.
  9
$ELEVATION
 40
0.0
  9
$PELEVATION
 40
0.0
  9
$THICKNESS
 40
0.0
  9
$LIMCHECK
 70
     0
  9
$BLIPMODE
 70
     0
  9
$CHAMFERA
 40
0.0
  9
$CHAMFERB
 40
0.0
  9
$SKPOLY
 70
     0
  9
$TDCREATE
 40
2454083.4444627082
  9
$TDUPDATE
 40
2456598.429438761
  9
$TDINDWG
 40
1.1235034491
  9
$TDUSRTIMER
 40
1.1235034491
  9
$USRTIMER
 70
     1
  9
$ANGBASE
 50
0.0
  9
$ANGDIR
 70
     0
  9
$PDMODE
 70
     0
  9
$PDSIZE
 40
0.0
  9
$PLINEWID
 40
0.0
  9
$COORDS
 70
     1
  9
$SPLFRAME
 70
     0
  9
$SPLINETYPE
 70
     6
  9
$SPLINESEGS
 70
     8
  9
$ATTDIA
 70
     0
  9
$ATTREQ
 70
     1
  9
$HANDLING
 70
     1
  9
$HANDSEED
  5
ACE1
  9
$SURFTAB1
 70
     6
  9
$SURFTAB2
 70
     6
  9
$SURFTYPE
 70
     6
  9
$SURFU
 70
     6
  9
$SURFV
 70
     6
  9
$UCSNAME
  2

  9
$UCSORG
 10
0.0
 20
0.0
 30
0.0
  9
$UCSXDIR
 10
1.0
 20
0.0
 30
0.0
  9
$UCSYDIR
 10
0.0
 20
1.0
 30
0.0
  9
$PUCSNAME
  2

  9
$PUCSORG
 10
0.0
 20
0.0
 30
0.0
  9
$PUCSXDIR
 10
1.0
 20
0.0
 30
0.0
  9
$PUCSYDIR
 10
0.0
 20
1.0
 30
0.0
  9
$USERI1
 70
     0
  9
$USERI2
 70
     0
  9
$USERI3
 70
     0
  9
$USERI4
 70
     0
  9
$USERI5
 70
     0
  9
$USERR1
 40
0.0
  9
$USERR2
 40
0.0
  9
$USERR3
 40
0.0
  9
$USERR4
 40
0.0
  9
$USERR5
 40
0.0
  9
$WORLDVIEW
 70
     1
  9
$SHADEDGE
 70
     3
  9
$SHADEDIF
 70
    70
  9
$TILEMODE
 70
     1
  9
$MAXACTVP
 70
    64
  9
$PLIMCHECK
 70
     0
  9
$PEXTMIN
 10
0.0
 20
0.0
 30
0.0
  9
$PEXTMAX
 10
0.0
 20
0.0
 30
0.0
  9
$PLIMMIN
 10
0.0
 20
0.0
  9
$PLIMMAX
 10
12.0
 20
9.0
  9
$UNITMODE
 70
     0
  9
$VISRETAIN
 70
     1
  9
$PLINEGEN
 70
     0
  9
$PSLTSCALE
 70
     1
  0
ENDSEC
  0
SECTION
  2
TABLES
  0
TABLE
  2
VPORT
 70
     1
  0
VPORT
  2
*ACTIVE
 70
     0
 10
0.0
 20
0.0
 11
1.0
 21
1.0
 12
264.82543173516058
 22
266.46778345805268
 13
0.0
 23
0.0
 14
10.0
 24
10.0
 15
10.0
 25
10.0
 16
0.0
 26
0.0
 36
1.0
 17
0.0
 27
0.0
 37
0.0
 40
543.60124387453584
 41
1.7807262569832401
 42
50.0
 43
0.0
 44
0.0
 50
0.0
 51
0.0
 71
     0
 72
  1000
 73
     1
 74
     3
 75
     0
 76
     0
 77
     0
 78
     0
  0
ENDTAB
  0
TABLE
  2
LTYPE
 70
     2
  0
LTYPE
  2
CONTINUOUS
 70
     0
  3
Solid line
 72
    65
 73
     0
 40
0.0
  0
LTYPE
  2
CENTER
 70
     0
  3
____ _ ____ _ ____ _ ____ _ ____ _ ____ _ ____
 72
    65
 73
     4
 40
2.0
 49
1.25
 49
-0.25
 49
0.25
 49
-0.25
  0
ENDTAB
  0
TABLE
  2
LAYER
 70
     4
  0
LAYER
  2
0
 70
     0
 62
     7
  6
CONTINUOUS
  0
LAYER
  2
DEFPOINTS
 70
     0
 62
     7
  6
CONTINUOUS
  0
LAYER
  2
1
 70
     0
 62
     1
  6
CENTER
  0
LAYER
  2
3
 70
     0
 62
     3
  6
CONTINUOUS
  0
ENDTAB
  0
TABLE
  2
STYLE
 70
     2
  0
STYLE
  2
STANDARD
 70
     0
 40
0.0
 41
1.0
 50
0.0
 71
     0
 42
2.5
  3
txt
  4

  0
STYLE
  2
STANDARD1
 70
     0
 40
0.0
 41
1.0
 50
0.0
 71
     0
 42
3.0
  3
txt
  4

  0
ENDTAB
  0
TABLE
  2
VIEW
 70
     1
  0
VIEW
  2
OLE1
 70
     0
 40
17.336203194614189
 10
1078.262703908531
 20
377.67444865954309
 41
31.074911629702001
 11
0.0
 21
0.0
 31
1.0
 12
0.0
 22
0.0
 32
0.0
 42
50.0
 43
0.0
 44
0.0
 50
0.0
 71
     0
  0
ENDTAB
  0
TABLE
  2
UCS
 70
     0
  0
ENDTAB
  0
TABLE
  2
APPID
 70
    42
  0
APPID
  2
ACAD
 70
     0
  0
APPID
  2
_FTCNV
 70
     0
  0
APPID
  2
DCO15
 70
     0
  0
APPID
  2
GENIUS_GENOREF_13
 70
     0
  0
APPID
  2
GENIUS_GENOENT_13
 70
     0
  0
APPID
  2
GENIUS_GENBH_13
 70
     0
  0
APPID
  2
GENIUS_GENOBJ_13
 70
     0
  0
APPID
  2
GENIUS_GENODEF_13
 70
     0
  0
APPID
  2
GENIUS_GENOLIS_13
 70
     0
  0
APPID
  2
GENIUS_GENOBJ-NBEHI-BHF_13
 70
     0
  0
APPID
  2
GENIUS_GENOBJ-NBEHI-BHB_13
 70
     0
  0
APPID
  2
GENIUS_GENOBJ-F-PART_13
 70
     0
  0
APPID
  2
GENIUS_GEFSTDP_13
 70
     0
  0
APPID
  2
GENIUS_GENOBJ-N-RSSYM_13
 70
     0
  0
APPID
  2
GENIUS_GENSYMENT_13
 70
     0
  0
APPID
  2
GENIUS_GENOBJ-N-TIT_13
 70
     0
  0
APPID
  2
GENIUS_GENTITLE_13
 70
     0
  0
APPID
  2
GENIUS_GENZVEED_13
 70
     0
  0
APPID
  2
GENIUS_GENOBJ-N-LEADER_13
 70
     0
  0
APPID
  2
GENIUS_GENOBJ-N-FIL_13
 70
     0
  0
APPID
  2
GENIUS_GENOBJ-N-SEC_13
 70
     0
  0
APPID
  2
GENIUS_GENOBJ-N-CRS_13
 70
     0
  0
APPID
  2
GENIUS_GENOBJ-N-ZOO_13
 70
     0
  0
APPID
  2
GENIUS_GENZOO_13
 70
     0
  0
APPID
  2
GENIUS_GENOBJ-F-TOL_13
 70
     0
  0
APPID
  2
GENIUS_GENFIL_13
 70
     0
  0
APPID
  2
GENIUS_GENOBJ-N-CHA_13
 70
     0
  0
APPID
  2
_CALL_MAC$
 70
     0
  0
APPID
  2
ASM_BASE
 70
     0
  0
APPID
  2
ASM_EXPLO_VER_2_00
 70
     0
  0
APPID
  2
ASM_CADM_VER_12_00
 70
     0
  0
APPID
  2
ASM_BASEFORO
 70
     0
  0
APPID
  2
ASM_BASETRAVI
 70
     0
  0
APPID
  2
ASM_BASETRAVI1
 70
     0
  0
APPID
  2
ASM_GRUPPI
 70
     0
  0
APPID
  2
ASM_CADM_ALBERO
 70
     0
  0
APPID
  2
ASM_GOLE
 70
     0
  0
APPID
  2
ACAD_MLEADERVER
 70
     0
  0
APPID
  2
ACAD_EXEMPT_FROM_CAD_STANDARDS
 70
     0
  0
APPID
  2
ACAD_DSTYLE_DIMJAG
 70
     0
  0
APPID
  2
ACAD_DSTYLE_DIMTALN
 70
     0
  0
APPID
  2
ACAD_NAV_VCDISPLAY
 70
     0
  0
ENDTAB
  0
TABLE
  2
DIMSTYLE
 70
     2
  0
DIMSTYLE
  2
ISO-25
 70
     0
  3

  4

  5

  6

  7

 40
1.0
 41
2.5
 42
0.625
 43
3.75
 44
1.25
 45
0.0
 46
0.0
 47
0.0
 48
0.0
140
2.5
141
2.5
142
0.0
143
0.03937007874016
144
1.0
145
0.0
146
1.0
147
0.625
 71
     0
 72
     0
 73
     0
 74
     0
 75
     0
 76
     0
 77
     1
 78
     8
170
     0
171
     3
172
     1
173
     0
174
     0
175
     0
176
     0
177
     0
178
     0
  0
DIMSTYLE
  2
STANDARD
 70
     0
  3

  4

  5

  6

  7

 40
1.0
 41
0.18
 42
0.0625
 43
0.38
 44
0.18
 45
0.0
 46
0.0
 47
0.0
 48
0.0
140
0.18
141
0.09
142
0.0
143
25.399999999999999
144
1.0
145
0.0
146
1.0
147
0.09
 71
     0
 72
     0
 73
     1
 74
     1
 75
     0
 76
     0
 77
     0
 78
     0
170
     0
171
     2
172
     0
173
     0
174
     0
175
     0
176
     0
177
     0
178
     0
  0
ENDTAB
  0
ENDSEC
  0
SECTION
  2
BLOCKS
  0
BLOCK
  8
0
  2
$MODEL_SPACE
 70
     0
 10
0.0
 20
0.0
 30
0.0
  3
$MODEL_SPACE
  1

  0
ENDBLK
  5
21
  8
0
  0
BLOCK
 67
     1
  8
0
  2
$PAPER_SPACE
 70
     0
 10
0.0
 20
0.0
 30
0.0
  3
$PAPER_SPACE
  1

  0
ENDBLK
  5
53
 67
     1
  8
0
  0
ENDSEC
  0
SECTION
  2
ENTITIES
  0
LINE
  5
8729
  8
0
 10
180.06086100394089
 20
203.17602315272401
 30
0.0
 11
180.56086100394089
 21
202.30999774893959
 31
0.0
  0
LINE
  5
872A
  8
0
 10
180.060861003941
 20
211.6132770859177
 30
0.0
 11
180.060861003941
 21
203.17602315272401
 31
0.0
  0
ARC
  5
872B
  8
0
 10
189.060861003941
 20
203.6760231527239
 30
0.0
 40
12.000000000000091
 50
109.66663821504039
 51
138.5903778907302
  0
ARC
  5
872C
  8
0
 10
189.060861003941
 20
203.6760231527239
 30
0.0
 40
12.00000000000011
 50
58.992994420976693
 51
70.333361784962634
  0
LINE
  5
872D
  8
0
 10
181.55530750447591
 20
196.2565797363248
 30
0.0
 11
182.56086100394111
 21
195.67602315272401
 31
0.0
  0
LINE
  5
872E
  8
0
 10
195.560861003941
 20
195.67602315272401
 30
0.0
 11
196.56641450340609
 21
196.2565797363248
 31
0.0
  0
LINE
  5
872F
  8
0
 10
196.56641449674191
 20
199.09546657297079
 30
0.0
 11
195.560861003941
 21
199.67602315272401
 31
0.0
  0
LINE
  5
8730
  8
0
 10
182.560861003941
 20
199.67602315272401
 30
0.0
 11
181.5553075261351
 21
199.09546658162819
 31
0.0
  0
LINE
  5
8731
  8
0
 10
183.26086100394099
 20
173.17602315272401
 30
0.0
 11
183.26086100394099
 21
172.67602315272401
 31
0.0
  0
LINE
  5
8732
  8
0
 10
194.86086100394101
 20
172.67602315272401
 30
0.0
 11
194.86086100394101
 21
173.17602315272401
 31
0.0
  0
LINE
  5
8733
  8
0
 10
185.060861003941
 20
217.40902315272399
 30
0.0
 11
185.06086100394111
 21
214.97602315272411
 31
0.0
  0
LINE
  5
8734
  8
0
 10
185.060861003941
 20
195.67602315272401
 30
0.0
 11
185.060861003941
 21
173.17602315272401
 31
0.0
  0
LINE
  5
8735
  8
0
 10
193.060861003941
 20
173.17602315272401
 30
0.0
 11
193.060861003941
 21
195.67602315272401
 31
0.0
  0
LINE
  5
8736
  8
0
 10
193.060861003941
 20
214.9760231527242
 30
0.0
 11
193.060861003941
 21
217.40902315272399
 31
0.0
  0
LINE
  5
8737
  8
0
 10
193.06086100388711
 20
217.40902315272399
 30
0.0
 11
192.29386100396829
 21
218.1760231527094
 31
0.0
  0
LINE
  5
8738
  8
0
 10
185.8278610039136
 20
218.1760231527094
 30
0.0
 11
185.0608610039948
 21
217.40902315272399
 31
0.0
  0
LINE
  5
8739
  8
0
 10
195.560861003941
 20
167.87602315272409
 30
0.0
 11
196.56641450340609
 21
168.14546040085199
 31
0.0
  0
LINE
  5
873A
  8
0
 10
181.55530750447591
 20
168.14546040085199
 30
0.0
 11
182.560861003941
 21
167.87602315272409
 31
0.0
  0
LINE
  5
873B
  8
0
 10
184.3198168151572
 20
211.0099977802889
 30
0.0
 11
184.3198168151572
 21
211.6132770859179
 31
0.0
  0
ARC
  5
873C
  8
0
 10
189.060861003941
 20
203.6760231527241
 30
0.0
 40
9.2454042637411185
 50
79.219577602090226
 51
120.8505233450019
  0
LINE
  5
873D
  8
0
 10
180.060861003941
 20
203.17602315272401
 30
0.0
 11
180.560861003941
 21
203.17602315272401
 31
0.0
  0
LINE
  5
873E
  8
0
 10
180.060861003941
 20
211.6132770859179
 30
0.0
 11
184.3198168151572
 21
211.6132770859179
 31
0.0
  0
LINE
  5
873F
  8
0
 10
193.09942510520241
 20
214.9760231527242
 30
0.0
 11
185.02229690267961
 21
214.97602315272411
 31
0.0
  0
LINE
  5
8742
  8
0
 10
236.560861003941
 20
203.66602315272399
 30
0.0
 11
237.573467914345
 21
203.66602315272399
 31
0.0
  0
LINE
  5
8745
  8
0
 10
234.560861003941
 20
224.58488787206429
 30
0.0
 11
237.57346791434509
 21
225.39887986523999
 31
0.0
  0
ARC
  5
8746
  8
0
 10
236.560861003941
 20
200.66602315272391
 30
0.0
 40
3.0000000000000941
 50
90.0
 51
127.31268606276041
  0
LINE
  5
8748
  8
0
 10
233.56086100394111
 20
199.67602315272401
 30
0.0
 11
233.560861003941
 21
200.66602315272411
 31
0.0
  0
LINE
  5
8749
  8
0
 10
180.560861003941
 20
199.67602315272401
 30
0.0
 11
233.56086100394111
 21
199.67602315272401
 31
0.0
  0
LINE
  5
874A
  8
0
 10
180.560861003941
 20
199.67602315272401
 30
0.0
 11
180.560861003941
 21
203.17602315272401
 31
0.0
  0
ARC
  5
874B
  8
0
 10
236.56086100394111
 20
200.66602315272411
 30
0.0
 40
3.0000000000001461
 50
127.31268606276041
 51
180.0
  0
LINE
  5
874C
  8
0
 10
184.25665347249151
 20
210.99293134689049
 30
0.0
 11
234.560861003941
 21
224.58488787206429
 31
0.0
  0
ARC
  5
874D
  8
0
 10
185.560861003941
 20
206.16602315272419
 30
0.0
 40
5.0
 50
105.1200000000015
 51
180.0
  0
LINE
  5
874E
  8
0
 10
180.560861003941
 20
203.17602315272401
 30
0.0
 11
180.560861003941
 21
206.16602315272419
 31
0.0
  0
ARC
  5
8750
  8
0
 10
251.26290203280831
 20
196.66602315272399
 30
0.0
 40
7.0000000000000249
 50
77.162119930448497
 51
90.0
  0
LINE
  5
8751
  8
0
 10
251.26290203280831
 20
203.66602315272399
 30
0.0
 11
237.573467914345
 21
203.66602315272399
 31
0.0
  0
LINE
  5
8752
  8
0
 10
237.57346791434509
 20
225.39887986523999
 30
0.0
 11
252.81825409353701
 21
229.5179482523844
 31
0.0
  0
ARC
  5
8754
  8
0
 10
251.2629020328082
 20
196.6660231527238
 30
0.0
 40
7.0000000000001492
 50
52.121131074473823
 51
77.162119930448497
  0
LINE
  5
8755
  8
0
 10
252.81825409353701
 20
229.5179482523844
 30
0.0
 11
255.83086100394101
 21
230.33194024556011
 31
0.0
  0
LINE
  5
875B
  8
0
 10
256.47631808559129
 20
230.5063396650753
 30
0.0
 11
264.15086100394097
 21
234.9372390848917
 31
0.0
  0
ARC
  5
875C
  8
0
 10
268.40086100394097
 20
227.5760231527241
 30
0.0
 40
8.4999999999999432
 50
90.0
 51
120.0000000000005
  0
LINE
  5
875D
  8
0
 10
268.40086100394097
 20
236.0760231527241
 30
0.0
 11
271.90086100394097
 21
236.07602315272399
 31
0.0
  0
ARC
  5
875E
  8
0
 10
271.90086100394092
 20
227.0760231527241
 30
0.0
 40
9.0000000000000213
 50
22.789786440877791
 51
90.0
  0
LINE
  5
8764
  8
0
 10
275.1109404155597
 20
208.65302155990929
 30
0.0
 11
274.74236846268309
 21
208.19379042427431
 31
0.0
  0
LINE
  5
8768
  8
0
 10
255.83086100394101
 20
230.33194024556011
 30
0.0
 11
256.47631808559129
 21
230.5063396650753
 31
0.0
  0
POLYLINE
  5
876A
  8
0
 66
     1
 10
0.0
 20
0.0
 30
0.0
 70
   128
  0
VERTEX
  5
A725
  8
0
 10
196.56641450340609
 20
196.2565797363248
 30
0.0
  0
VERTEX
  5
A726
  8
0
 10
195.64711881126931
 20
195.83536882836529
 30
0.0
  0
VERTEX
  5
A727
  8
0
 10
194.6900261285399
 20
195.67602315272401
 30
0.0
  0
SEQEND
  5
A728
  8
0
  0
POLYLINE
  5
876B
  8
0
 66
     1
 10
0.0
 20
0.0
 30
0.0
 70
   128
  0
VERTEX
  5
A729
  8
0
 10
194.6900261285399
 20
195.67602315272401
 30
0.0
  0
VERTEX
  5
A72A
  8
0
 10
193.7518319411067
 20
195.82926028474409
 30
0.0
  0
VERTEX
  5
A72B
  8
0
 10
192.81363775367359
 20
196.2565797363248
 30
0.0
  0
SEQEND
  5
A72C
  8
0
  0
LINE
  5
876C
  8
0
 10
192.81363774534279
 20
199.0954665643136
 30
0.0
 11
192.81363775367359
 21
196.2565797363248
 31
0.0
  0
POLYLINE
  5
876D
  8
0
 66
     1
 10
0.0
 20
0.0
 30
0.0
 70
   128
  0
VERTEX
  5
A72D
  8
0
 10
192.81363773701199
 20
199.09546655950371
 30
0.0
  0
VERTEX
  5
A72E
  8
0
 10
193.73293343707101
 20
199.5166774742321
 30
0.0
  0
VERTEX
  5
A72F
  8
0
 10
194.6900261285399
 20
199.67602315272401
 30
0.0
  0
SEQEND
  5
A730
  8
0
  0
POLYLINE
  5
876E
  8
0
 66
     1
 10
0.0
 20
0.0
 30
0.0
 70
   128
  0
VERTEX
  5
A731
  8
0
 10
194.6900261285399
 20
199.67602315272401
 30
0.0
  0
VERTEX
  5
A732
  8
0
 10
195.6282203093088
 20
199.5227860228382
 30
0.0
  0
VERTEX
  5
A733
  8
0
 10
196.5664144900777
 20
199.09546657681841
 30
0.0
  0
SEQEND
  5
A734
  8
0
  0
LINE
  5
876F
  8
0
 10
196.56641450340609
 20
196.2565797363248
 30
0.0
 11
196.56641449674191
 21
199.09546657297079
 31
0.0
  0
POLYLINE
  5
8770
  8
0
 66
     1
 10
0.0
 20
0.0
 30
0.0
 70
   128
  0
VERTEX
  5
A735
  8
0
 10
189.060861003941
 20
195.67602315272401
 30
0.0
  0
VERTEX
  5
A736
  8
0
 10
187.18447262907469
 20
195.82926028474409
 30
0.0
  0
VERTEX
  5
A737
  8
0
 10
185.30808425420841
 20
196.2565797363248
 30
0.0
  0
SEQEND
  5
A738
  8
0
  0
LINE
  5
8771
  8
0
 10
185.30808425420841
 20
196.2565797363248
 30
0.0
 11
185.30808423754689
 21
199.09546656431351
 31
0.0
  0
POLYLINE
  5
8772
  8
0
 66
     1
 10
0.0
 20
0.0
 30
0.0
 70
   128
  0
VERTEX
  5
A739
  8
0
 10
185.30808422088529
 20
199.09546655950371
 30
0.0
  0
VERTEX
  5
A73A
  8
0
 10
187.14667562100331
 20
199.5166774742321
 30
0.0
  0
VERTEX
  5
A73B
  8
0
 10
189.060861003941
 20
199.67602315272401
 30
0.0
  0
SEQEND
  5
A73C
  8
0
  0
POLYLINE
  5
8773
  8
0
 66
     1
 10
0.0
 20
0.0
 30
0.0
 70
   128
  0
VERTEX
  5
A73D
  8
0
 10
189.060861003941
 20
199.67602315272401
 30
0.0
  0
VERTEX
  5
A73E
  8
0
 10
190.9372493354887
 20
199.52278602764059
 30
0.0
  0
VERTEX
  5
A73F
  8
0
 10
192.81363766703649
 20
199.09546659413331
 30
0.0
  0
SEQEND
  5
A740
  8
0
  0
POLYLINE
  5
8774
  8
0
 66
     1
 10
0.0
 20
0.0
 30
0.0
 70
   128
  0
VERTEX
  5
A741
  8
0
 10
192.81363775367359
 20
196.2565797363248
 30
0.0
  0
VERTEX
  5
A742
  8
0
 10
190.97504636939991
 20
195.83536882836529
 30
0.0
  0
VERTEX
  5
A743
  8
0
 10
189.060861003941
 20
195.67602315272401
 30
0.0
  0
SEQEND
  5
A744
  8
0
  0
POLYLINE
  5
8776
  8
0
 66
     1
 10
0.0
 20
0.0
 30
0.0
 70
   128
  0
VERTEX
  5
A745
  8
0
 10
183.4316958793421
 20
199.67602315272401
 30
0.0
  0
VERTEX
  5
A746
  8
0
 10
184.36989004511599
 20
199.52278602764059
 30
0.0
  0
VERTEX
  5
A747
  8
0
 10
185.30808421088989
 20
199.09546659413331
 30
0.0
  0
SEQEND
  5
A748
  8
0
  0
POLYLINE
  5
8777
  8
0
 66
     1
 10
0.0
 20
0.0
 30
0.0
 70
   128
  0
VERTEX
  5
A749
  8
0
 10
185.30808425420841
 20
196.2565797363248
 30
0.0
  0
VERTEX
  5
A74A
  8
0
 10
184.3887885620716
 20
195.83536882836529
 30
0.0
  0
VERTEX
  5
A74B
  8
0
 10
183.43169587934219
 20
195.67602315272401
 30
0.0
  0
SEQEND
  5
A74C
  8
0
  0
POLYLINE
  5
8779
  8
0
 66
     1
 10
0.0
 20
0.0
 30
0.0
 70
   128
  0
VERTEX
  5
A74D
  8
0
 10
183.43169587934219
 20
195.67602315272401
 30
0.0
  0
VERTEX
  5
A74E
  8
0
 10
182.49350169190899
 20
195.82926028474409
 30
0.0
  0
VERTEX
  5
A74F
  8
0
 10
181.55530750447591
 20
196.2565797363248
 30
0.0
  0
SEQEND
  5
A750
  8
0
  0
LINE
  5
877A
  8
0
 10
181.55530750447591
 20
196.2565797363248
 30
0.0
 11
181.5553075261351
 21
199.09546658162819
 31
0.0
  0
POLYLINE
  5
877B
  8
0
 66
     1
 10
0.0
 20
0.0
 30
0.0
 70
   128
  0
VERTEX
  5
A751
  8
0
 10
181.55530754779431
 20
199.0954665941332
 30
0.0
  0
VERTEX
  5
A752
  8
0
 10
182.47460321933431
 20
199.51667748449461
 30
0.0
  0
VERTEX
  5
A753
  8
0
 10
183.4316958793421
 20
199.67602315272401
 30
0.0
  0
SEQEND
  5
A754
  8
0
  0
LINE
  5
877D
  8
0
 10
182.56086100394089
 20
195.6760231527241
 30
0.0
 11
195.560861003941
 21
195.67602315272401
 31
0.0
  0
LINE
  5
877F
  8
0
 10
192.81363775367359
 20
168.14546040085199
 30
0.0
 11
192.81363775367359
 21
172.67602315272401
 31
0.0
  0
POLYLINE
  5
8780
  8
0
 66
     1
 10
0.0
 20
0.0
 30
0.0
 70
   128
  0
VERTEX
  5
A755
  8
0
 10
192.81363775367359
 20
168.14546040085199
 30
0.0
  0
VERTEX
  5
A756
  8
0
 10
190.9456861262008
 20
167.94776903694139
 30
0.0
  0
VERTEX
  5
A757
  8
0
 10
189.06086100394089
 20
167.87602315272409
 30
0.0
  0
SEQEND
  5
A758
  8
0
  0
POLYLINE
  5
8781
  8
0
 66
     1
 10
0.0
 20
0.0
 30
0.0
 70
   128
  0
VERTEX
  5
A759
  8
0
 10
189.06086100394089
 20
167.87602315272409
 30
0.0
  0
VERTEX
  5
A75A
  8
0
 10
187.18447262907469
 20
167.94714075319371
 30
0.0
  0
VERTEX
  5
A75B
  8
0
 10
185.3080842542085
 20
168.14546040085199
 30
0.0
  0
SEQEND
  5
A75C
  8
0
  0
LINE
  5
8782
  8
0
 10
185.3080842542085
 20
168.14546040085199
 30
0.0
 11
185.30808425420841
 21
172.67602315272401
 31
0.0
  0
LINE
  5
8784
  8
0
 10
196.56641450340609
 20
168.14546040085199
 30
0.0
 11
196.56641450340609
 21
172.67602315272401
 31
0.0
  0
POLYLINE
  5
8785
  8
0
 66
     1
 10
0.0
 20
0.0
 30
0.0
 70
   128
  0
VERTEX
  5
A75D
  8
0
 10
196.56641450340609
 20
168.14546040085199
 30
0.0
  0
VERTEX
  5
A75E
  8
0
 10
195.63243868966981
 20
167.94776903694131
 30
0.0
  0
VERTEX
  5
A75F
  8
0
 10
194.6900261285399
 20
167.87602315272409
 30
0.0
  0
SEQEND
  5
A760
  8
0
  0
POLYLINE
  5
8786
  8
0
 66
     1
 10
0.0
 20
0.0
 30
0.0
 70
   128
  0
VERTEX
  5
A761
  8
0
 10
194.6900261285399
 20
167.87602315272409
 30
0.0
  0
VERTEX
  5
A762
  8
0
 10
193.7518319411067
 20
167.94714075319371
 30
0.0
  0
VERTEX
  5
A763
  8
0
 10
192.81363775367359
 20
168.14546040085199
 30
0.0
  0
SEQEND
  5
A764
  8
0
  0
POLYLINE
  5
8787
  8
0
 66
     1
 10
0.0
 20
0.0
 30
0.0
 70
   128
  0
VERTEX
  5
A765
  8
0
 10
185.30808425420841
 20
168.14546040085199
 30
0.0
  0
VERTEX
  5
A766
  8
0
 10
184.3741084404721
 20
167.94776903694139
 30
0.0
  0
VERTEX
  5
A767
  8
0
 10
183.4316958793421
 20
167.87602315272409
 30
0.0
  0
SEQEND
  5
A768
  8
0
  0
POLYLINE
  5
8788
  8
0
 66
     1
 10
0.0
 20
0.0
 30
0.0
 70
   128
  0
VERTEX
  5
A769
  8
0
 10
183.4316958793421
 20
167.87602315272409
 30
0.0
  0
VERTEX
  5
A76A
  8
0
 10
182.49350169190899
 20
167.94714075319371
 30
0.0
  0
VERTEX
  5
A76B
  8
0
 10
181.55530750447591
 20
168.14546040085199
 30
0.0
  0
SEQEND
  5
A76C
  8
0
  0
LINE
  5
8789
  8
0
 10
181.55530750447591
 20
168.14546040085199
 30
0.0
 11
181.55530750447591
 21
172.67602315272401
 31
0.0
  0
LINE
  5
878A
  8
0
 10
181.55530750447579
 20
172.67602315272401
 30
0.0
 11
196.56641450340609
 21
172.67602315272401
 31
0.0
  0
LINE
  5
878D
  8
0
 10
183.26086100394099
 20
173.17602315272401
 30
0.0
 11
194.86086100394101
 21
173.17602315272401
 31
0.0
  0
LINE
  5
878E
  8
0
 10
193.060861003941
 20
217.40902315272399
 30
0.0
 11
185.060861003941
 21
217.40902315272399
 31
0.0
  0
LINE
  5
878F
  8
0
 10
192.29386100396829
 20
218.1760231527094
 30
0.0
 11
185.8278610039136
 21
218.1760231527094
 31
0.0
  0
LINE
  5
8790
  8
0
 10
182.5608610039406
 20
167.87602315272409
 30
0.0
 11
195.560861003941
 21
167.87602315272409
 31
0.0
  0
ARC
  5
8794
  8
0
 10
189.06086100394111
 20
339.16694936830208
 30
0.0
 40
9.0000000000000053
 50
301.7883306170516
 51
58.211669382948379
  0
LINE
  5
8795
  8
0
 10
184.31981681515731
 20
331.51694936830211
 30
0.0
 11
193.8019051927248
 21
331.51694936830211
 31
0.0
  0
ARC
  5
8796
  8
0
 10
189.06086100394111
 20
339.16694936830208
 30
0.0
 40
9.0000000000000266
 50
121.7883306170516
 51
238.2116693829484
  0
LINE
  5
8797
  8
0
 10
193.8019051927248
 20
346.81694936830212
 30
0.0
 11
184.31981681515731
 21
346.81694936830212
 31
0.0
  0
ARC
  5
87A5
  8
0
 10
255.83086100394101
 20
331.61694936830202
 30
0.0
 40
7.499999999999984
 50
89.064353442241966
 51
113.002741716909
  0
LINE
  5
87A6
  8
0
 10
255.9533314085304
 20
339.21794936830202
 30
0.0
 11
255.9533314085304
 21
339.11594936830198
 31
0.0
  0
ARC
  5
87A7
  8
0
 10
255.83086100394101
 20
346.71694936830198
 30
0.0
 40
7.5000000000000124
 50
246.99725828309101
 51
270.9356465577581
  0
LINE
  5
87A8
  8
0
 10
236.51473688408311
 20
346.76938014399002
 30
0.0
 11
252.90004718372811
 21
339.81330320477008
 31
0.0
  0
ARC
  5
87A9
  8
0
 10
234.560861003941
 20
342.16694936830208
 30
0.0
 40
4.999999999999984
 50
66.997258283090986
 51
90.0
  0
LINE
  5
87AA
  8
0
 10
180.56086100394111
 20
347.16694936830203
 30
0.0
 11
234.560861003941
 21
347.16694936830208
 31
0.0
  0
LINE
  5
87AC
  8
0
 10
234.56086100394111
 20
349.66694936830203
 30
0.0
 11
180.56086100394111
 21
349.66694936830203
 31
0.0
  0
ARC
  5
87AD
  8
0
 10
234.56086100394111
 20
342.16694936830208
 30
0.0
 40
7.499999999999968
 50
66.316696874028324
 51
90.0
  0
LINE
  5
87AE
  8
0
 10
252.81825409353709
 20
342.34860170649972
 30
0.0
 11
237.57346791434509
 21
349.0352970301044
 31
0.0
  0
ARC
  5
87AF
  8
0
 10
255.8308610039411
 20
349.21694936830193
 30
0.0
 40
7.4999999999999138
 50
246.31669687402831
 51
270.0
  0
ARC
  5
87B0
  8
0
 10
255.8308610039411
 20
329.11694936830202
 30
0.0
 40
7.5000000000000062
 50
90.0
 51
113.68330312597161
  0
LINE
  5
87B1
  8
0
 10
237.57346791434509
 20
329.2986017064996
 30
0.0
 11
252.81825409353709
 21
335.98529703010439
 31
0.0
  0
ARC
  5
87B2
  8
0
 10
234.56086100394111
 20
336.16694936830208
 30
0.0
 40
7.5000000000000577
 50
270.0
 51
293.68330312597158
  0
LINE
  5
87B3
  8
0
 10
180.56086100394111
 20
328.6669493683022
 30
0.0
 11
234.56086100394111
 21
328.66694936830208
 31
0.0
  0
LINE
  5
87B5
  8
0
 10
234.560861003941
 20
331.16694936830208
 30
0.0
 11
180.56086100394111
 21
331.16694936830203
 31
0.0
  0
ARC
  5
87B6
  8
0
 10
234.560861003941
 20
336.16694936830203
 30
0.0
 40
4.9999999999999041
 50
270.0
 51
293.00274171690899
  0
LINE
  5
87B7
  8
0
 10
252.90004718372811
 20
338.52059553183392
 30
0.0
 11
236.51473688408311
 21
331.56451859261409
 31
0.0
  0
LINE
  5
87B8
  8
0
 10
255.8308610039411
 20
336.61694936830202
 30
0.0
 11
280.79366494190231
 21
336.6169493683019
 31
0.0
  0
LINE
  5
87B9
  8
0
 10
280.79366494190231
 20
341.7169493683021
 30
0.0
 11
255.8308610039411
 21
341.7169493683021
 31
0.0
  0
LINE
  5
87C2
  8
0
 10
233.96858401256841
 20
331.16694936830208
 30
0.0
 11
233.96858401256841
 21
347.16694936830203
 31
0.0
  0
LINE
  5
87C3
  8
0
 10
226.060861003941
 20
335.06694936830212
 30
0.0
 11
197.07272720352279
 21
335.06694936830212
 31
0.0
  0
ARC
  5
87C4
  8
0
 10
226.060861003941
 20
339.16694936830208
 30
0.0
 40
4.1000000000000218
 50
270.0
 51
90.0
  0
LINE
  5
87C5
  8
0
 10
197.07272720352279
 20
343.26694936830211
 30
0.0
 11
226.060861003941
 21
343.26694936830211
 31
0.0
  0
LINE
  5
87C6
  8
0
 10
180.560861003941
 20
328.6669493683022
 30
0.0
 11
180.560861003941
 21
336.20890947675241
 31
0.0
  0
LINE
  5
87C7
  8
0
 10
180.560861003941
 20
342.12498925985182
 30
0.0
 11
180.560861003941
 21
349.66694936830203
 31
0.0
  0
LINE
  5
87C8
  8
0
 10
255.580297080751
 20
339.22113602214699
 30
0.0
 11
255.580297080751
 21
339.11276271445701
 31
0.0
  0
ARC
  5
87CB
  8
0
 10
80.56086100394171
 20
203.6760231527239
 30
0.0
 40
12.00000000000011
 50
109.6645740520642
 51
129.60565239386679
  0
ARC
  5
87CC
  8
0
 10
80.56086100394171
 20
203.6760231527239
 30
0.0
 40
12.000000000000099
 50
50.394347606133188
 51
70.331619325699194
  0
LINE
  5
87CD
  8
0
 10
80.610861003941352
 20
230.33194024556011
 30
0.0
 11
80.610861003941395
 21
218.1760231527094
 31
0.0
  0
LINE
  5
87CE
  8
0
 10
80.510861003941443
 20
218.1760231527094
 30
0.0
 11
80.510861003941386
 21
230.33194024556011
 31
0.0
  0
LINE
  5
87CF
  8
0
 10
74.760861003941812
 20
173.17602315272401
 30
0.0
 11
74.760861003941841
 21
172.67602315272401
 31
0.0
  0
LINE
  5
87D0
  8
0
 10
86.360861003941835
 20
172.67602315272401
 30
0.0
 11
86.360861003941807
 21
173.17602315272401
 31
0.0
  0
LINE
  5
87D1
  8
0
 10
76.560861003941653
 20
217.40902315272399
 30
0.0
 11
76.560861003941682
 21
214.97602315272411
 31
0.0
  0
LINE
  5
87D2
  8
0
 10
76.560861003941739
 20
195.67602315272401
 30
0.0
 11
76.560861003941824
 21
173.17602315272401
 31
0.0
  0
LINE
  5
87D3
  8
0
 10
84.560861003941824
 20
173.17602315272401
 30
0.0
 11
84.560861003941724
 21
195.67602315272401
 31
0.0
  0
LINE
  5
87D4
  8
0
 10
84.560861003941639
 20
214.97602315272411
 30
0.0
 11
84.560861003941639
 21
217.40902315272399
 31
0.0
  0
LINE
  5
87D5
  8
0
 10
84.560861003887766
 20
217.40902315272399
 30
0.0
 11
83.793861003969027
 21
218.1760231527094
 31
0.0
  0
LINE
  5
87D6
  8
0
 10
77.327861003914279
 20
218.1760231527094
 30
0.0
 11
76.560861003995512
 21
217.40902315272399
 31
0.0
  0
LINE
  5
87D7
  8
0
 10
84.599425105203395
 20
214.97602315272411
 30
0.0
 11
76.522296902679926
 21
214.97602315272411
 31
0.0
  0
LINE
  5
87D8
  8
0
 10
88.210861003941886
 20
202.1760231527239
 30
0.0
 11
88.210861003941659
 21
212.92142741646509
 31
0.0
  0
LINE
  5
87D9
  8
0
 10
72.910861003941704
 20
211.6132770859179
 30
0.0
 11
88.210861003941673
 21
211.6132770859179
 31
0.0
  0
LINE
  5
87DA
  8
0
 10
72.910861003941676
 20
212.92142741646501
 30
0.0
 11
72.910861003941932
 21
202.17602315272379
 31
0.0
  0
LINE
  5
87DC
  8
0
 10
72.910861003941733
 20
203.1760231527239
 30
0.0
 11
88.210861003941716
 21
203.17602315272401
 31
0.0
  0
LINE
  5
87E0
  8
0
 10
88.560861003941739
 20
202.17602315272401
 30
0.0
 11
72.560861003941739
 21
202.1760231527239
 31
0.0
  0
ARC
  5
87E2
  8
0
 10
87.560861003941739
 20
203.17602315272401
 30
0.0
 40
3.4999999999999849
 50
270.0
 51
0.0
  0
LINE
  5
87E3
  8
0
 10
73.560861003941739
 20
199.67602315272401
 30
0.0
 11
87.560861003941767
 21
199.67602315272401
 31
0.0
  0
ARC
  5
87E4
  8
0
 10
73.56086100394171
 20
203.1760231527239
 30
0.0
 40
3.4999999999999849
 50
180.0
 51
270.0
  0
LINE
  5
87E6
  8
0
 10
91.060861003941739
 20
203.17602315272401
 30
0.0
 11
91.060861003941739
 21
224.5848878720642
 31
0.0
  0
LINE
  5
87E7
  8
0
 10
70.060861003941739
 20
224.5848878720642
 30
0.0
 11
70.060861003941739
 21
203.17602315272401
 31
0.0
  0
LINE
  5
87E8
  8
0
 10
88.560861003941739
 20
224.5848878720642
 30
0.0
 11
88.560861003941739
 21
202.17602315272401
 31
0.0
  0
LINE
  5
87E9
  8
0
 10
72.560861003941739
 20
202.1760231527239
 30
0.0
 11
72.560861003941739
 21
224.5848878720642
 31
0.0
  0
POLYLINE
  5
87F0
  8
0
 10
80.611861003941385
 20
230.36503116372543
 30
0.0
 66
     1
 70
     8
  0
VERTEX
  8
0
  5
A84F
 10
80.6119
 20
230.365
 30
0.000000
  70
    32
  0
VERTEX
  8
0
  5
A850
 10
80.6115
 20
230.358
 30
0.000000
  70
    32
  0
VERTEX
  8
0
  5
A851
 10
80.6112
 20
230.352
 30
0.000000
  70
    32
  0
VERTEX
  8
0
  5
A852
 10
80.6110
 20
230.345
 30
0.000000
  70
    32
  0
VERTEX
  8
0
  5
A853
 10
80.6109
 20
230.339
 30
0.000000
  70
    32
  0
VERTEX
  8
0
  5
A854
 10
80.6109
 20
230.332
 30
0.000000
  70
    32
  0
VERTEX
  8
0
  5
A855
 10
80.6109
 20
230.325
 30
0.000000
  70
    32
  0
VERTEX
  8
0
  5
A856
 10
80.6110
 20
230.319
 30
0.000000
  70
    32
  0
VERTEX
  8
0
  5
A857
 10
80.6112
 20
230.312
 30
0.000000
  70
    32
  0
VERTEX
  8
0
  5
A858
 10
80.6115
 20
230.306
 30
0.000000
  70
    32
  0
VERTEX
  8
0
  5
A859
 10
80.6119
 20
230.299
 30
0.000000
  70
    32
  0
VERTEX
  8
0
  5
A85A
 10
80.6123
 20
230.292
 30
0.000000
  70
    32
  0
VERTEX
  8
0
  5
A85B
 10
80.6128
 20
230.286
 30
0.000000
  70
    32
  0
VERTEX
  8
0
  5
A85C
 10
80.6134
 20
230.279
 30
0.000000
  70
    32
  0
VERTEX
  8
0
  5
A85D
 10
80.6141
 20
230.272
 30
0.000000
  70
    32
  0
VERTEX
  8
0
  5
A85E
 10
80.6149
 20
230.266
 30
0.000000
  70
    32
  0
VERTEX
  8
0
  5
A85F
 10
80.6157
 20
230.259
 30
0.000000
  70
    32
  0
VERTEX
  8
0
  5
A860
 10
80.6166
 20
230.253
 30
0.000000
  70
    32
  0
VERTEX
  8
0
  5
A861
 10
80.6176
 20
230.246
 30
0.000000
  70
    32
  0
VERTEX
  8
0
  5
A862
 10
80.6187
 20
230.239
 30
0.000000
  70
    32
  0
VERTEX
  8
0
  5
A863
 10
80.6198
 20
230.233
 30
0.000000
  70
    32
  0
VERTEX
  8
0
  5
A864
 10
80.6211
 20
230.226
 30
0.000000
  70
    32
  0
VERTEX
  8
0
  5
A865
 10
80.6224
 20
230.220
 30
0.000000
  70
    32
  0
VERTEX
  8
0
  5
A866
 10
80.6238
 20
230.213
 30
0.000000
  70
    32
  0
VERTEX
  8
0
  5
A867
 10
80.6253
 20
230.206
 30
0.000000
  70
    32
  0
VERTEX
  8
0
  5
A868
 10
80.6268
 20
230.200
 30
0.000000
  70
    32
  0
VERTEX
  8
0
  5
A869
 10
80.6285
 20
230.193
 30
0.000000
  70
    32
  0
VERTEX
  8
0
  5
A86A
 10
80.6302
 20
230.187
 30
0.000000
  70
    32
  0
VERTEX
  8
0
  5
A86B
 10
80.6320
 20
230.180
 30
0.000000
  70
    32
  0
VERTEX
  8
0
  5
A86C
 10
80.6339
 20
230.173
 30
0.000000
  70
    32
  0
VERTEX
  8
0
  5
A86D
 10
80.6358
 20
230.167
 30
0.000000
  70
    32
  0
VERTEX
  8
0
  5
A86E
 10
80.6378
 20
230.160
 30
0.000000
  70
    32
  0
VERTEX
  8
0
  5
A86F
 10
80.6400
 20
230.154
 30
0.000000
  70
    32
  0
VERTEX
  8
0
  5
A870
 10
80.6422
 20
230.147
 30
0.000000
  70
    32
  0
VERTEX
  8
0
  5
A871
 10
80.6444
 20
230.140
 30
0.000000
  70
    32
  0
VERTEX
  8
0
  5
A872
 10
80.6468
 20
230.134
 30
0.000000
  70
    32
  0
VERTEX
  8
0
  5
A873
 10
80.6492
 20
230.127
 30
0.000000
  70
    32
  0
VERTEX
  8
0
  5
A874
 10
80.6517
 20
230.121
 30
0.000000
  70
    32
  0
VERTEX
  8
0
  5
A875
 10
80.6543
 20
230.114
 30
0.000000
  70
    32
  0
VERTEX
  8
0
  5
A876
 10
80.6570
 20
230.108
 30
0.000000
  70
    32
  0
VERTEX
  8
0
  5
A877
 10
80.6597
 20
230.101
 30
0.000000
  70
    32
  0
VERTEX
  8
0
  5
A878
 10
80.6626
 20
230.094
 30
0.000000
  70
    32
  0
VERTEX
  8
0
  5
A879
 10
80.6655
 20
230.088
 30
0.000000
  70
    32
  0
VERTEX
  8
0
  5
A87A
 10
80.6685
 20
230.081
 30
0.000000
  70
    32
  0
VERTEX
  8
0
  5
A87B
 10
80.6715
 20
230.075
 30
0.000000
  70
    32
  0
VERTEX
  8
0
  5
A87C
 10
80.6747
 20
230.068
 30
0.000000
  70
    32
  0
VERTEX
  8
0
  5
A87D
 10
80.6779
 20
230.062
 30
0.000000
  70
    32
  0
VERTEX
  8
0
  5
A87E
 10
80.6812
 20
230.055
 30
0.000000
  70
    32
  0
VERTEX
  8
0
  5
A87F
 10
80.6846
 20
230.048
 30
0.000000
  70
    32
  0
VERTEX
  8
0
  5
A880
 10
80.6881
 20
230.042
 30
0.000000
  70
    32
  0
VERTEX
  8
0
  5
A881
 10
80.6916
 20
230.035
 30
0.000000
  70
    32
  0
VERTEX
  8
0
  5
A882
 10
80.6952
 20
230.029
 30
0.000000
  70
    32
  0
VERTEX
  8
0
  5
A883
 10
80.6989
 20
230.022
 30
0.000000
  70
    32
  0
VERTEX
  8
0
  5
A884
 10
80.7027
 20
230.016
 30
0.000000
  70
    32
  0
VERTEX
  8
0
  5
A885
 10
80.7066
 20
230.009
 30
0.000000
  70
    32
  0
VERTEX
  8
0
  5
A886
 10
80.7105
 20
230.003
 30
0.000000
  70
    32
  0
VERTEX
  8
0
  5
A887
 10
80.7145
 20
229.996
 30
0.000000
  70
    32
  0
VERTEX
  8
0
  5
A888
 10
80.7186
 20
229.990
 30
0.000000
  70
    32
  0
VERTEX
  8
0
  5
A889
 10
80.7228
 20
229.983
 30
0.000000
  70
    32
  0
VERTEX
  8
0
  5
A88A
 10
80.7271
 20
229.977
 30
0.000000
  70
    32
  0
VERTEX
  8
0
  5
A88B
 10
80.7314
 20
229.970
 30
0.000000
  70
    32
  0
VERTEX
  8
0
  5
A88C
 10
80.7358
 20
229.964
 30
0.000000
  70
    32
  0
VERTEX
  8
0
  5
A88D
 10
80.7403
 20
229.957
 30
0.000000
  70
    32
  0
VERTEX
  8
0
  5
A88E
 10
80.7449
 20
229.951
 30
0.000000
  70
    32
  0
VERTEX
  8
0
  5
A88F
 10
80.7495
 20
229.944
 30
0.000000
  70
    32
  0
VERTEX
  8
0
  5
A890
 10
80.7542
 20
229.938
 30
0.000000
  70
    32
  0
VERTEX
  8
0
  5
A891
 10
80.7590
 20
229.931
 30
0.000000
  70
    32
  0
VERTEX
  8
0
  5
A892
 10
80.7639
 20
229.925
 30
0.000000
  70
    32
  0
VERTEX
  8
0
  5
A893
 10
80.7689
 20
229.918
 30
0.000000
  70
    32
  0
VERTEX
  8
0
  5
A894
 10
80.7739
 20
229.912
 30
0.000000
  70
    32
  0
VERTEX
  8
0
  5
A895
 10
80.7790
 20
229.905
 30
0.000000
  70
    32
  0
VERTEX
  8
0
  5
A896
 10
80.7842
 20
229.899
 30
0.000000
  70
    32
  0
VERTEX
  8
0
  5
A897
 10
80.7895
 20
229.892
 30
0.000000
  70
    32
  0
VERTEX
  8
0
  5
A898
 10
80.7948
 20
229.886
 30
0.000000
  70
    32
  0
VERTEX
  8
0
  5
A899
 10
80.8003
 20
229.879
 30
0.000000
  70
    32
  0
VERTEX
  8
0
  5
A89A
 10
80.8058
 20
229.873
 30
0.000000
  70
    32
  0
VERTEX
  8
0
  5
A89B
 10
80.8114
 20
229.867
 30
0.000000
  70
    32
  0
VERTEX
  8
0
  5
A89C
 10
80.8170
 20
229.860
 30
0.000000
  70
    32
  0
VERTEX
  8
0
  5
A89D
 10
80.8228
 20
229.854
 30
0.000000
  70
    32
  0
VERTEX
  8
0
  5
A89E
 10
80.8286
 20
229.847
 30
0.000000
  70
    32
  0
VERTEX
  8
0
  5
A89F
 10
80.8345
 20
229.841
 30
0.000000
  70
    32
  0
VERTEX
  8
0
  5
A8A0
 10
80.8404
 20
229.834
 30
0.000000
  70
    32
  0
VERTEX
  8
0
  5
A8A1
 10
80.8465
 20
229.828
 30
0.000000
  70
    32
  0
VERTEX
  8
0
  5
A8A2
 10
80.8526
 20
229.822
 30
0.000000
  70
    32
  0
VERTEX
  8
0
  5
A8A3
 10
80.8588
 20
229.815
 30
0.000000
  70
    32
  0
VERTEX
  8
0
  5
A8A4
 10
80.8651
 20
229.809
 30
0.000000
  70
    32
  0
VERTEX
  8
0
  5
A8A5
 10
80.8715
 20
229.802
 30
0.000000
  70
    32
  0
VERTEX
  8
0
  5
A8A6
 10
80.8779
 20
229.796
 30
0.000000
  70
    32
  0
VERTEX
  8
0
  5
A8A7
 10
80.8844
 20
229.790
 30
0.000000
  70
    32
  0
VERTEX
  8
0
  5
A8A8
 10
80.8910
 20
229.783
 30
0.000000
  70
    32
  0
VERTEX
  8
0
  5
A8A9
 10
80.8977
 20
229.777
 30
0.000000
  70
    32
  0
VERTEX
  8
0
  5
A8AA
 10
80.9044
 20
229.771
 30
0.000000
  70
    32
  0
VERTEX
  8
0
  5
A8AB
 10
80.9112
 20
229.764
 30
0.000000
  70
    32
  0
VERTEX
  8
0
  5
A8AC
 10
80.9181
 20
229.758
 30
0.000000
  70
    32
  0
VERTEX
  8
0
  5
A8AD
 10
80.9251
 20
229.752
 30
0.000000
  70
    32
  0
VERTEX
  8
0
  5
A8AE
 10
80.9321
 20
229.745
 30
0.000000
  70
    32
  0
VERTEX
  8
0
  5
A8AF
 10
80.9393
 20
229.739
 30
0.000000
  70
    32
  0
VERTEX
  8
0
  5
A8B0
 10
80.9465
 20
229.733
 30
0.000000
  70
    32
  0
VERTEX
  8
0
  5
A8B1
 10
80.9538
 20
229.726
 30
0.000000
  70
    32
  0
VERTEX
  8
0
  5
A8B2
 10
80.9611
 20
229.720
 30
0.000000
  70
    32
  0
VERTEX
  8
0
  5
A8B3
 10
80.9685
 20
229.714
 30
0.000000
  70
    32
  0
VERTEX
  8
0
  5
A8B4
 10
80.9760
 20
229.707
 30
0.000000
  70
    32
  0
VERTEX
  8
0
  5
A8B5
 10
80.9836
 20
229.701
 30
0.000000
  70
    32
  0
VERTEX
  8
0
  5
A8B6
 10
80.9913
 20
229.695
 30
0.000000
  70
    32
  0
VERTEX
  8
0
  5
A8B7
 10
80.9990
 20
229.688
 30
0.000000
  70
    32
  0
VERTEX
  8
0
  5
A8B8
 10
81.0068
 20
229.682
 30
0.000000
  70
    32
  0
VERTEX
  8
0
  5
A8B9
 10
81.0147
 20
229.676
 30
0.000000
  70
    32
  0
VERTEX
  8
0
  5
A8BA
 10
81.0227
 20
229.670
 30
0.000000
  70
    32
  0
VERTEX
  8
0
  5
A8BB
 10
81.0307
 20
229.663
 30
0.000000
  70
    32
  0
VERTEX
  8
0
  5
A8BC
 10
81.0388
 20
229.657
 30
0.000000
  70
    32
  0
VERTEX
  8
0
  5
A8BD
 10
81.0470
 20
229.651
 30
0.000000
  70
    32
  0
VERTEX
  8
0
  5
A8BE
 10
81.0553
 20
229.645
 30
0.000000
  70
    32
  0
VERTEX
  8
0
  5
A8BF
 10
81.0636
 20
229.639
 30
0.000000
  70
    32
  0
VERTEX
  8
0
  5
A8C0
 10
81.0720
 20
229.632
 30
0.000000
  70
    32
  0
VERTEX
  8
0
  5
A8C1
 10
81.0805
 20
229.626
 30
0.000000
  70
    32
  0
VERTEX
  8
0
  5
A8C2
 10
81.0891
 20
229.620
 30
0.000000
  70
    32
  0
VERTEX
  8
0
  5
A8C3
 10
81.0977
 20
229.614
 30
0.000000
  70
    32
  0
VERTEX
  8
0
  5
A8C4
 10
81.1065
 20
229.608
 30
0.000000
  70
    32
  0
VERTEX
  8
0
  5
A8C5
 10
81.1152
 20
229.601
 30
0.000000
  70
    32
  0
VERTEX
  8
0
  5
A8C6
 10
81.1241
 20
229.595
 30
0.000000
  70
    32
  0
VERTEX
  8
0
  5
A8C7
 10
81.1330
 20
229.589
 30
0.000000
  70
    32
  0
VERTEX
  8
0
  5
A8C8
 10
81.1421
 20
229.583
 30
0.000000
  70
    32
  0
VERTEX
  8
0
  5
A8C9
 10
81.1511
 20
229.577
 30
0.000000
  70
    32
  0
VERTEX
  8
0
  5
A8CA
 10
81.1603
 20
229.571
 30
0.000000
  70
    32
  0
VERTEX
  8
0
  5
A8CB
 10
81.1695
 20
229.564
 30
0.000000
  70
    32
  0
VERTEX
  8
0
  5
A8CC
 10
81.1788
 20
229.558
 30
0.000000
  70
    32
  0
VERTEX
  8
0
  5
A8CD
 10
81.1882
 20
229.552
 30
0.000000
  70
    32
  0
VERTEX
  8
0
  5
A8CE
 10
81.1977
 20
229.546
 30
0.000000
  70
    32
  0
VERTEX
  8
0
  5
A8CF
 10
81.2072
 20
229.540
 30
0.000000
  70
    32
  0
SEQEND
  8
0
  5
A8D0
  0
LINE
  5
87F1
  8
0
 10
80.509861003941396
 20
230.36503116372549
 30
0.0
 11
80.611861003941385
 21
230.36503116372549
 31
0.0
  0
POLYLINE
  5
87F2
  8
0
 10
79.91450716747346
 20
229.54004835455274
 30
0.0
 66
     1
 70
     8
  0
VERTEX
  8
0
  5
A8D1
 10
79.9145
 20
229.540
 30
0.000000
  70
    32
  0
VERTEX
  8
0
  5
A8D2
 10
79.9240
 20
229.546
 30
0.000000
  70
    32
  0
VERTEX
  8
0
  5
A8D3
 10
79.9335
 20
229.552
 30
0.000000
  70
    32
  0
VERTEX
  8
0
  5
A8D4
 10
79.9429
 20
229.558
 30
0.000000
  70
    32
  0
VERTEX
  8
0
  5
A8D5
 10
79.9522
 20
229.564
 30
0.000000
  70
    32
  0
VERTEX
  8
0
  5
A8D6
 10
79.9614
 20
229.571
 30
0.000000
  70
    32
  0
VERTEX
  8
0
  5
A8D7
 10
79.9706
 20
229.577
 30
0.000000
  70
    32
  0
VERTEX
  8
0
  5
A8D8
 10
79.9797
 20
229.583
 30
0.000000
  70
    32
  0
VERTEX
  8
0
  5
A8D9
 10
79.9887
 20
229.589
 30
0.000000
  70
    32
  0
VERTEX
  8
0
  5
A8DA
 10
79.9976
 20
229.595
 30
0.000000
  70
    32
  0
VERTEX
  8
0
  5
A8DB
 10
80.0065
 20
229.601
 30
0.000000
  70
    32
  0
VERTEX
  8
0
  5
A8DC
 10
80.0153
 20
229.608
 30
0.000000
  70
    32
  0
VERTEX
  8
0
  5
A8DD
 10
80.0240
 20
229.614
 30
0.000000
  70
    32
  0
VERTEX
  8
0
  5
A8DE
 10
80.0326
 20
229.620
 30
0.000000
  70
    32
  0
VERTEX
  8
0
  5
A8DF
 10
80.0412
 20
229.626
 30
0.000000
  70
    32
  0
VERTEX
  8
0
  5
A8E0
 10
80.0497
 20
229.632
 30
0.000000
  70
    32
  0
VERTEX
  8
0
  5
A8E1
 10
80.0581
 20
229.639
 30
0.000000
  70
    32
  0
VERTEX
  8
0
  5
A8E2
 10
80.0664
 20
229.645
 30
0.000000
  70
    32
  0
VERTEX
  8
0
  5
A8E3
 10
80.0747
 20
229.651
 30
0.000000
  70
    32
  0
VERTEX
  8
0
  5
A8E4
 10
80.0829
 20
229.657
 30
0.000000
  70
    32
  0
VERTEX
  8
0
  5
A8E5
 10
80.0910
 20
229.663
 30
0.000000
  70
    32
  0
VERTEX
  8
0
  5
A8E6
 10
80.0990
 20
229.670
 30
0.000000
  70
    32
  0
VERTEX
  8
0
  5
A8E7
 10
80.1070
 20
229.676
 30
0.000000
  70
    32
  0
VERTEX
  8
0
  5
A8E8
 10
80.1149
 20
229.682
 30
0.000000
  70
    32
  0
VERTEX
  8
0
  5
A8E9
 10
80.1227
 20
229.688
 30
0.000000
  70
    32
  0
VERTEX
  8
0
  5
A8EA
 10
80.1304
 20
229.695
 30
0.000000
  70
    32
  0
VERTEX
  8
0
  5
A8EB
 10
80.1381
 20
229.701
 30
0.000000
  70
    32
  0
VERTEX
  8
0
  5
A8EC
 10
80.1457
 20
229.707
 30
0.000000
  70
    32
  0
VERTEX
  8
0
  5
A8ED
 10
80.1532
 20
229.714
 30
0.000000
  70
    32
  0
VERTEX
  8
0
  5
A8EE
 10
80.1606
 20
229.720
 30
0.000000
  70
    32
  0
VERTEX
  8
0
  5
A8EF
 10
80.1680
 20
229.726
 30
0.000000
  70
    32
  0
VERTEX
  8
0
  5
A8F0
 10
80.1752
 20
229.733
 30
0.000000
  70
    32
  0
VERTEX
  8
0
  5
A8F1
 10
80.1825
 20
229.739
 30
0.000000
  70
    32
  0
VERTEX
  8
0
  5
A8F2
 10
80.1896
 20
229.745
 30
0.000000
  70
    32
  0
VERTEX
  8
0
  5
A8F3
 10
80.1966
 20
229.752
 30
0.000000
  70
    32
  0
VERTEX
  8
0
  5
A8F4
 10
80.2036
 20
229.758
 30
0.000000
  70
    32
  0
VERTEX
  8
0
  5
A8F5
 10
80.2105
 20
229.764
 30
0.000000
  70
    32
  0
VERTEX
  8
0
  5
A8F6
 10
80.2173
 20
229.771
 30
0.000000
  70
    32
  0
VERTEX
  8
0
  5
A8F7
 10
80.2241
 20
229.777
 30
0.000000
  70
    32
  0
VERTEX
  8
0
  5
A8F8
 10
80.2307
 20
229.783
 30
0.000000
  70
    32
  0
VERTEX
  8
0
  5
A8F9
 10
80.2373
 20
229.790
 30
0.000000
  70
    32
  0
VERTEX
  8
0
  5
A8FA
 10
80.2438
 20
229.796
 30
0.000000
  70
    32
  0
VERTEX
  8
0
  5
A8FB
 10
80.2503
 20
229.802
 30
0.000000
  70
    32
  0
VERTEX
  8
0
  5
A8FC
 10
80.2566
 20
229.809
 30
0.000000
  70
    32
  0
VERTEX
  8
0
  5
A8FD
 10
80.2629
 20
229.815
 30
0.000000
  70
    32
  0
VERTEX
  8
0
  5
A8FE
 10
80.2691
 20
229.822
 30
0.000000
  70
    32
  0
VERTEX
  8
0
  5
A8FF
 10
80.2752
 20
229.828
 30
0.000000
  70
    32
  0
VERTEX
  8
0
  5
A900
 10
80.2813
 20
229.834
 30
0.000000
  70
    32
  0
VERTEX
  8
0
  5
A901
 10
80.2873
 20
229.841
 30
0.000000
  70
    32
  0
VERTEX
  8
0
  5
A902
 10
80.2932
 20
229.847
 30
0.000000
  70
    32
  0
VERTEX
  8
0
  5
A903
 10
80.2990
 20
229.854
 30
0.000000
  70
    32
  0
VERTEX
  8
0
  5
A904
 10
80.3047
 20
229.860
 30
0.000000
  70
    32
  0
VERTEX
  8
0
  5
A905
 10
80.3104
 20
229.867
 30
0.000000
  70
    32
  0
VERTEX
  8
0
  5
A906
 10
80.3160
 20
229.873
 30
0.000000
  70
    32
  0
VERTEX
  8
0
  5
A907
 10
80.3215
 20
229.879
 30
0.000000
  70
    32
  0
VERTEX
  8
0
  5
A908
 10
80.3269
 20
229.886
 30
0.000000
  70
    32
  0
VERTEX
  8
0
  5
A909
 10
80.3322
 20
229.892
 30
0.000000
  70
    32
  0
VERTEX
  8
0
  5
A90A
 10
80.3375
 20
229.899
 30
0.000000
  70
    32
  0
VERTEX
  8
0
  5
A90B
 10
80.3427
 20
229.905
 30
0.000000
  70
    32
  0
VERTEX
  8
0
  5
A90C
 10
80.3478
 20
229.912
 30
0.000000
  70
    32
  0
VERTEX
  8
0
  5
A90D
 10
80.3529
 20
229.918
 30
0.000000
  70
    32
  0
VERTEX
  8
0
  5
A90E
 10
80.3578
 20
229.925
 30
0.000000
  70
    32
  0
VERTEX
  8
0
  5
A90F
 10
80.3627
 20
229.931
 30
0.000000
  70
    32
  0
VERTEX
  8
0
  5
A910
 10
80.3675
 20
229.938
 30
0.000000
  70
    32
  0
VERTEX
  8
0
  5
A911
 10
80.3722
 20
229.944
 30
0.000000
  70
    32
  0
VERTEX
  8
0
  5
A912
 10
80.3769
 20
229.951
 30
0.000000
  70
    32
  0
VERTEX
  8
0
  5
A913
 10
80.3814
 20
229.957
 30
0.000000
  70
    32
  0
VERTEX
  8
0
  5
A914
 10
80.3859
 20
229.964
 30
0.000000
  70
    32
  0
VERTEX
  8
0
  5
A915
 10
80.3903
 20
229.970
 30
0.000000
  70
    32
  0
VERTEX
  8
0
  5
A916
 10
80.3947
 20
229.977
 30
0.000000
  70
    32
  0
VERTEX
  8
0
  5
A917
 10
80.3989
 20
229.983
 30
0.000000
  70
    32
  0
VERTEX
  8
0
  5
A918
 10
80.4031
 20
229.990
 30
0.000000
  70
    32
  0
VERTEX
  8
0
  5
A919
 10
80.4072
 20
229.996
 30
0.000000
  70
    32
  0
VERTEX
  8
0
  5
A91A
 10
80.4112
 20
230.003
 30
0.000000
  70
    32
  0
VERTEX
  8
0
  5
A91B
 10
80.4151
 20
230.009
 30
0.000000
  70
    32
  0
VERTEX
  8
0
  5
A91C
 10
80.4190
 20
230.016
 30
0.000000
  70
    32
  0
VERTEX
  8
0
  5
A91D
 10
80.4228
 20
230.022
 30
0.000000
  70
    32
  0
VERTEX
  8
0
  5
A91E
 10
80.4265
 20
230.029
 30
0.000000
  70
    32
  0
VERTEX
  8
0
  5
A91F
 10
80.4301
 20
230.035
 30
0.000000
  70
    32
  0
VERTEX
  8
0
  5
A920
 10
80.4337
 20
230.042
 30
0.000000
  70
    32
  0
VERTEX
  8
0
  5
A921
 10
80.4371
 20
230.048
 30
0.000000
  70
    32
  0
VERTEX
  8
0
  5
A922
 10
80.4405
 20
230.055
 30
0.000000
  70
    32
  0
VERTEX
  8
0
  5
A923
 10
80.4438
 20
230.062
 30
0.000000
  70
    32
  0
VERTEX
  8
0
  5
A924
 10
80.4470
 20
230.068
 30
0.000000
  70
    32
  0
VERTEX
  8
0
  5
A925
 10
80.4502
 20
230.075
 30
0.000000
  70
    32
  0
VERTEX
  8
0
  5
A926
 10
80.4533
 20
230.081
 30
0.000000
  70
    32
  0
VERTEX
  8
0
  5
A927
 10
80.4562
 20
230.088
 30
0.000000
  70
    32
  0
VERTEX
  8
0
  5
A928
 10
80.4591
 20
230.094
 30
0.000000
  70
    32
  0
VERTEX
  8
0
  5
A929
 10
80.4620
 20
230.101
 30
0.000000
  70
    32
  0
VERTEX
  8
0
  5
A92A
 10
80.4647
 20
230.108
 30
0.000000
  70
    32
  0
VERTEX
  8
0
  5
A92B
 10
80.4674
 20
230.114
 30
0.000000
  70
    32
  0
VERTEX
  8
0
  5
A92C
 10
80.4700
 20
230.121
 30
0.000000
  70
    32
  0
VERTEX
  8
0
  5
A92D
 10
80.4725
 20
230.127
 30
0.000000
  70
    32
  0
VERTEX
  8
0
  5
A92E
 10
80.4749
 20
230.134
 30
0.000000
  70
    32
  0
VERTEX
  8
0
  5
A92F
 10
80.4773
 20
230.140
 30
0.000000
  70
    32
  0
VERTEX
  8
0
  5
A930
 10
80.4796
 20
230.147
 30
0.000000
  70
    32
  0
VERTEX
  8
0
  5
A931
 10
80.4818
 20
230.154
 30
0.000000
  70
    32
  0
VERTEX
  8
0
  5
A932
 10
80.4839
 20
230.160
 30
0.000000
  70
    32
  0
VERTEX
  8
0
  5
A933
 10
80.4859
 20
230.167
 30
0.000000
  70
    32
  0
VERTEX
  8
0
  5
A934
 10
80.4879
 20
230.173
 30
0.000000
  70
    32
  0
VERTEX
  8
0
  5
A935
 10
80.4897
 20
230.180
 30
0.000000
  70
    32
  0
VERTEX
  8
0
  5
A936
 10
80.4915
 20
230.187
 30
0.000000
  70
    32
  0
VERTEX
  8
0
  5
A937
 10
80.4933
 20
230.193
 30
0.000000
  70
    32
  0
VERTEX
  8
0
  5
A938
 10
80.4949
 20
230.200
 30
0.000000
  70
    32
  0
VERTEX
  8
0
  5
A939
 10
80.4964
 20
230.206
 30
0.000000
  70
    32
  0
VERTEX
  8
0
  5
A93A
 10
80.4979
 20
230.213
 30
0.000000
  70
    32
  0
VERTEX
  8
0
  5
A93B
 10
80.4993
 20
230.220
 30
0.000000
  70
    32
  0
VERTEX
  8
0
  5
A93C
 10
80.5006
 20
230.226
 30
0.000000
  70
    32
  0
VERTEX
  8
0
  5
A93D
 10
80.5019
 20
230.233
 30
0.000000
  70
    32
  0
VERTEX
  8
0
  5
A93E
 10
80.5030
 20
230.239
 30
0.000000
  70
    32
  0
VERTEX
  8
0
  5
A93F
 10
80.5041
 20
230.246
 30
0.000000
  70
    32
  0
VERTEX
  8
0
  5
A940
 10
80.5051
 20
230.253
 30
0.000000
  70
    32
  0
VERTEX
  8
0
  5
A941
 10
80.5060
 20
230.259
 30
0.000000
  70
    32
  0
VERTEX
  8
0
  5
A942
 10
80.5069
 20
230.266
 30
0.000000
  70
    32
  0
VERTEX
  8
0
  5
A943
 10
80.5076
 20
230.272
 30
0.000000
  70
    32
  0
VERTEX
  8
0
  5
A944
 10
80.5083
 20
230.279
 30
0.000000
  70
    32
  0
VERTEX
  8
0
  5
A945
 10
80.5089
 20
230.286
 30
0.000000
  70
    32
  0
VERTEX
  8
0
  5
A946
 10
80.5094
 20
230.292
 30
0.000000
  70
    32
  0
VERTEX
  8
0
  5
A947
 10
80.5099
 20
230.299
 30
0.000000
  70
    32
  0
VERTEX
  8
0
  5
A948
 10
80.5102
 20
230.306
 30
0.000000
  70
    32
  0
VERTEX
  8
0
  5
A949
 10
80.5105
 20
230.312
 30
0.000000
  70
    32
  0
VERTEX
  8
0
  5
A94A
 10
80.5107
 20
230.319
 30
0.000000
  70
    32
  0
VERTEX
  8
0
  5
A94B
 10
80.5108
 20
230.325
 30
0.000000
  70
    32
  0
VERTEX
  8
0
  5
A94C
 10
80.5109
 20
230.332
 30
0.000000
  70
    32
  0
VERTEX
  8
0
  5
A94D
 10
80.5108
 20
230.339
 30
0.000000
  70
    32
  0
VERTEX
  8
0
  5
A94E
 10
80.5107
 20
230.345
 30
0.000000
  70
    32
  0
VERTEX
  8
0
  5
A94F
 10
80.5105
 20
230.352
 30
0.000000
  70
    32
  0
VERTEX
  8
0
  5
A950
 10
80.5102
 20
230.358
 30
0.000000
  70
    32
  0
VERTEX
  8
0
  5
A951
 10
80.5099
 20
230.365
 30
0.000000
  70
    32
  0
SEQEND
  8
0
  5
A952
  0
LINE
  5
87F3
  8
0
 10
72.958430228253505
 20
225.11281579940251
 30
0.0
 11
79.914507167473289
 21
229.5400483545526
 31
0.0
  0
POLYLINE
  5
87F4
  8
0
 10
72.958430228253476
 20
225.11281579940251
 30
0.0
 66
     1
 70
     8
  0
VERTEX
  8
0
  5
A953
 10
72.9584
 20
225.113
 30
0.000000
  70
    32
  0
VERTEX
  8
0
  5
A954
 10
72.9523
 20
225.109
 30
0.000000
  70
    32
  0
VERTEX
  8
0
  5
A955
 10
72.9463
 20
225.105
 30
0.000000
  70
    32
  0
VERTEX
  8
0
  5
A956
 10
72.9402
 20
225.101
 30
0.000000
  70
    32
  0
VERTEX
  8
0
  5
A957
 10
72.9343
 20
225.097
 30
0.000000
  70
    32
  0
VERTEX
  8
0
  5
A958
 10
72.9284
 20
225.093
 30
0.000000
  70
    32
  0
VERTEX
  8
0
  5
A959
 10
72.9225
 20
225.089
 30
0.000000
  70
    32
  0
VERTEX
  8
0
  5
A95A
 10
72.9166
 20
225.085
 30
0.000000
  70
    32
  0
VERTEX
  8
0
  5
A95B
 10
72.9109
 20
225.081
 30
0.000000
  70
    32
  0
VERTEX
  8
0
  5
A95C
 10
72.9051
 20
225.078
 30
0.000000
  70
    32
  0
VERTEX
  8
0
  5
A95D
 10
72.8994
 20
225.074
 30
0.000000
  70
    32
  0
VERTEX
  8
0
  5
A95E
 10
72.8938
 20
225.070
 30
0.000000
  70
    32
  0
VERTEX
  8
0
  5
A95F
 10
72.8882
 20
225.066
 30
0.000000
  70
    32
  0
VERTEX
  8
0
  5
A960
 10
72.8826
 20
225.062
 30
0.000000
  70
    32
  0
VERTEX
  8
0
  5
A961
 10
72.8771
 20
225.058
 30
0.000000
  70
    32
  0
VERTEX
  8
0
  5
A962
 10
72.8716
 20
225.054
 30
0.000000
  70
    32
  0
VERTEX
  8
0
  5
A963
 10
72.8662
 20
225.050
 30
0.000000
  70
    32
  0
VERTEX
  8
0
  5
A964
 10
72.8608
 20
225.046
 30
0.000000
  70
    32
  0
VERTEX
  8
0
  5
A965
 10
72.8555
 20
225.042
 30
0.000000
  70
    32
  0
VERTEX
  8
0
  5
A966
 10
72.8502
 20
225.038
 30
0.000000
  70
    32
  0
VERTEX
  8
0
  5
A967
 10
72.8450
 20
225.034
 30
0.000000
  70
    32
  0
VERTEX
  8
0
  5
A968
 10
72.8398
 20
225.030
 30
0.000000
  70
    32
  0
VERTEX
  8
0
  5
A969
 10
72.8347
 20
225.026
 30
0.000000
  70
    32
  0
VERTEX
  8
0
  5
A96A
 10
72.8296
 20
225.022
 30
0.000000
  70
    32
  0
VERTEX
  8
0
  5
A96B
 10
72.8245
 20
225.018
 30
0.000000
  70
    32
  0
VERTEX
  8
0
  5
A96C
 10
72.8195
 20
225.014
 30
0.000000
  70
    32
  0
VERTEX
  8
0
  5
A96D
 10
72.8146
 20
225.010
 30
0.000000
  70
    32
  0
VERTEX
  8
0
  5
A96E
 10
72.8097
 20
225.006
 30
0.000000
  70
    32
  0
VERTEX
  8
0
  5
A96F
 10
72.8048
 20
225.002
 30
0.000000
  70
    32
  0
VERTEX
  8
0
  5
A970
 10
72.8000
 20
224.998
 30
0.000000
  70
    32
  0
VERTEX
  8
0
  5
A971
 10
72.7952
 20
224.994
 30
0.000000
  70
    32
  0
VERTEX
  8
0
  5
A972
 10
72.7905
 20
224.990
 30
0.000000
  70
    32
  0
VERTEX
  8
0
  5
A973
 10
72.7858
 20
224.986
 30
0.000000
  70
    32
  0
VERTEX
  8
0
  5
A974
 10
72.7812
 20
224.982
 30
0.000000
  70
    32
  0
VERTEX
  8
0
  5
A975
 10
72.7766
 20
224.977
 30
0.000000
  70
    32
  0
VERTEX
  8
0
  5
A976
 10
72.7721
 20
224.973
 30
0.000000
  70
    32
  0
VERTEX
  8
0
  5
A977
 10
72.7676
 20
224.969
 30
0.000000
  70
    32
  0
VERTEX
  8
0
  5
A978
 10
72.7631
 20
224.965
 30
0.000000
  70
    32
  0
VERTEX
  8
0
  5
A979
 10
72.7588
 20
224.961
 30
0.000000
  70
    32
  0
VERTEX
  8
0
  5
A97A
 10
72.7544
 20
224.957
 30
0.000000
  70
    32
  0
VERTEX
  8
0
  5
A97B
 10
72.7501
 20
224.953
 30
0.000000
  70
    32
  0
VERTEX
  8
0
  5
A97C
 10
72.7459
 20
224.949
 30
0.000000
  70
    32
  0
VERTEX
  8
0
  5
A97D
 10
72.7417
 20
224.945
 30
0.000000
  70
    32
  0
VERTEX
  8
0
  5
A97E
 10
72.7375
 20
224.941
 30
0.000000
  70
    32
  0
VERTEX
  8
0
  5
A97F
 10
72.7334
 20
224.937
 30
0.000000
  70
    32
  0
VERTEX
  8
0
  5
A980
 10
72.7293
 20
224.933
 30
0.000000
  70
    32
  0
VERTEX
  8
0
  5
A981
 10
72.7253
 20
224.929
 30
0.000000
  70
    32
  0
VERTEX
  8
0
  5
A982
 10
72.7214
 20
224.924
 30
0.000000
  70
    32
  0
VERTEX
  8
0
  5
A983
 10
72.7174
 20
224.920
 30
0.000000
  70
    32
  0
VERTEX
  8
0
  5
A984
 10
72.7136
 20
224.916
 30
0.000000
  70
    32
  0
VERTEX
  8
0
  5
A985
 10
72.7097
 20
224.912
 30
0.000000
  70
    32
  0
VERTEX
  8
0
  5
A986
 10
72.7060
 20
224.908
 30
0.000000
  70
    32
  0
VERTEX
  8
0
  5
A987
 10
72.7022
 20
224.904
 30
0.000000
  70
    32
  0
VERTEX
  8
0
  5
A988
 10
72.6986
 20
224.900
 30
0.000000
  70
    32
  0
VERTEX
  8
0
  5
A989
 10
72.6949
 20
224.896
 30
0.000000
  70
    32
  0
VERTEX
  8
0
  5
A98A
 10
72.6914
 20
224.892
 30
0.000000
  70
    32
  0
VERTEX
  8
0
  5
A98B
 10
72.6878
 20
224.887
 30
0.000000
  70
    32
  0
VERTEX
  8
0
  5
A98C
 10
72.6843
 20
224.883
 30
0.000000
  70
    32
  0
VERTEX
  8
0
  5
A98D
 10
72.6809
 20
224.879
 30
0.000000
  70
    32
  0
VERTEX
  8
0
  5
A98E
 10
72.6775
 20
224.875
 30
0.000000
  70
    32
  0
VERTEX
  8
0
  5
A98F
 10
72.6742
 20
224.871
 30
0.000000
  70
    32
  0
VERTEX
  8
0
  5
A990
 10
72.6709
 20
224.867
 30
0.000000
  70
    32
  0
VERTEX
  8
0
  5
A991
 10
72.6676
 20
224.863
 30
0.000000
  70
    32
  0
VERTEX
  8
0
  5
A992
 10
72.6644
 20
224.858
 30
0.000000
  70
    32
  0
VERTEX
  8
0
  5
A993
 10
72.6613
 20
224.854
 30
0.000000
  70
    32
  0
VERTEX
  8
0
  5
A994
 10
72.6582
 20
224.850
 30
0.000000
  70
    32
  0
VERTEX
  8
0
  5
A995
 10
72.6551
 20
224.846
 30
0.000000
  70
    32
  0
VERTEX
  8
0
  5
A996
 10
72.6521
 20
224.842
 30
0.000000
  70
    32
  0
VERTEX
  8
0
  5
A997
 10
72.6491
 20
224.838
 30
0.000000
  70
    32
  0
VERTEX
  8
0
  5
A998
 10
72.6462
 20
224.833
 30
0.000000
  70
    32
  0
VERTEX
  8
0
  5
A999
 10
72.6434
 20
224.829
 30
0.000000
  70
    32
  0
VERTEX
  8
0
  5
A99A
 10
72.6406
 20
224.825
 30
0.000000
  70
    32
  0
VERTEX
  8
0
  5
A99B
 10
72.6378
 20
224.821
 30
0.000000
  70
    32
  0
VERTEX
  8
0
  5
A99C
 10
72.6351
 20
224.817
 30
0.000000
  70
    32
  0
VERTEX
  8
0
  5
A99D
 10
72.6324
 20
224.813
 30
0.000000
  70
    32
  0
VERTEX
  8
0
  5
A99E
 10
72.6298
 20
224.808
 30
0.000000
  70
    32
  0
VERTEX
  8
0
  5
A99F
 10
72.6272
 20
224.804
 30
0.000000
  70
    32
  0
VERTEX
  8
0
  5
A9A0
 10
72.6247
 20
224.800
 30
0.000000
  70
    32
  0
VERTEX
  8
0
  5
A9A1
 10
72.6222
 20
224.796
 30
0.000000
  70
    32
  0
VERTEX
  8
0
  5
A9A2
 10
72.6198
 20
224.792
 30
0.000000
  70
    32
  0
VERTEX
  8
0
  5
A9A3
 10
72.6174
 20
224.788
 30
0.000000
  70
    32
  0
VERTEX
  8
0
  5
A9A4
 10
72.6151
 20
224.783
 30
0.000000
  70
    32
  0
VERTEX
  8
0
  5
A9A5
 10
72.6128
 20
224.779
 30
0.000000
  70
    32
  0
VERTEX
  8
0
  5
A9A6
 10
72.6106
 20
224.775
 30
0.000000
  70
    32
  0
VERTEX
  8
0
  5
A9A7
 10
72.6084
 20
224.771
 30
0.000000
  70
    32
  0
VERTEX
  8
0
  5
A9A8
 10
72.6063
 20
224.767
 30
0.000000
  70
    32
  0
VERTEX
  8
0
  5
A9A9
 10
72.6042
 20
224.762
 30
0.000000
  70
    32
  0
VERTEX
  8
0
  5
A9AA
 10
72.6021
 20
224.758
 30
0.000000
  70
    32
  0
VERTEX
  8
0
  5
A9AB
 10
72.6002
 20
224.754
 30
0.000000
  70
    32
  0
VERTEX
  8
0
  5
A9AC
 10
72.5982
 20
224.750
 30
0.000000
  70
    32
  0
VERTEX
  8
0
  5
A9AD
 10
72.5963
 20
224.746
 30
0.000000
  70
    32
  0
VERTEX
  8
0
  5
A9AE
 10
72.5945
 20
224.741
 30
0.000000
  70
    32
  0
VERTEX
  8
0
  5
A9AF
 10
72.5927
 20
224.737
 30
0.000000
  70
    32
  0
VERTEX
  8
0
  5
A9B0
 10
72.5910
 20
224.733
 30
0.000000
  70
    32
  0
VERTEX
  8
0
  5
A9B1
 10
72.5893
 20
224.729
 30
0.000000
  70
    32
  0
VERTEX
  8
0
  5
A9B2
 10
72.5876
 20
224.724
 30
0.000000
  70
    32
  0
VERTEX
  8
0
  5
A9B3
 10
72.5860
 20
224.720
 30
0.000000
  70
    32
  0
VERTEX
  8
0
  5
A9B4
 10
72.5845
 20
224.716
 30
0.000000
  70
    32
  0
VERTEX
  8
0
  5
A9B5
 10
72.5830
 20
224.712
 30
0.000000
  70
    32
  0
VERTEX
  8
0
  5
A9B6
 10
72.5815
 20
224.708
 30
0.000000
  70
    32
  0
VERTEX
  8
0
  5
A9B7
 10
72.5801
 20
224.703
 30
0.000000
  70
    32
  0
VERTEX
  8
0
  5
A9B8
 10
72.5788
 20
224.699
 30
0.000000
  70
    32
  0
VERTEX
  8
0
  5
A9B9
 10
72.5775
 20
224.695
 30
0.000000
  70
    32
  0
VERTEX
  8
0
  5
A9BA
 10
72.5762
 20
224.691
 30
0.000000
  70
    32
  0
VERTEX
  8
0
  5
A9BB
 10
72.5750
 20
224.686
 30
0.000000
  70
    32
  0
VERTEX
  8
0
  5
A9BC
 10
72.5739
 20
224.682
 30
0.000000
  70
    32
  0
VERTEX
  8
0
  5
A9BD
 10
72.5728
 20
224.678
 30
0.000000
  70
    32
  0
VERTEX
  8
0
  5
A9BE
 10
72.5717
 20
224.674
 30
0.000000
  70
    32
  0
VERTEX
  8
0
  5
A9BF
 10
72.5707
 20
224.670
 30
0.000000
  70
    32
  0
VERTEX
  8
0
  5
A9C0
 10
72.5697
 20
224.665
 30
0.000000
  70
    32
  0
VERTEX
  8
0
  5
A9C1
 10
72.5688
 20
224.661
 30
0.000000
  70
    32
  0
VERTEX
  8
0
  5
A9C2
 10
72.5680
 20
224.657
 30
0.000000
  70
    32
  0
VERTEX
  8
0
  5
A9C3
 10
72.5672
 20
224.653
 30
0.000000
  70
    32
  0
VERTEX
  8
0
  5
A9C4
 10
72.5664
 20
224.648
 30
0.000000
  70
    32
  0
VERTEX
  8
0
  5
A9C5
 10
72.5657
 20
224.644
 30
0.000000
  70
    32
  0
VERTEX
  8
0
  5
A9C6
 10
72.5650
 20
224.640
 30
0.000000
  70
    32
  0
VERTEX
  8
0
  5
A9C7
 10
72.5644
 20
224.636
 30
0.000000
  70
    32
  0
VERTEX
  8
0
  5
A9C8
 10
72.5638
 20
224.631
 30
0.000000
  70
    32
  0
VERTEX
  8
0
  5
A9C9
 10
72.5633
 20
224.627
 30
0.000000
  70
    32
  0
VERTEX
  8
0
  5
A9CA
 10
72.5629
 20
224.623
 30
0.000000
  70
    32
  0
VERTEX
  8
0
  5
A9CB
 10
72.5624
 20
224.619
 30
0.000000
  70
    32
  0
VERTEX
  8
0
  5
A9CC
 10
72.5621
 20
224.615
 30
0.000000
  70
    32
  0
VERTEX
  8
0
  5
A9CD
 10
72.5617
 20
224.610
 30
0.000000
  70
    32
  0
VERTEX
  8
0
  5
A9CE
 10
72.5615
 20
224.606
 30
0.000000
  70
    32
  0
VERTEX
  8
0
  5
A9CF
 10
72.5613
 20
224.602
 30
0.000000
  70
    32
  0
VERTEX
  8
0
  5
A9D0
 10
72.5611
 20
224.598
 30
0.000000
  70
    32
  0
VERTEX
  8
0
  5
A9D1
 10
72.5610
 20
224.593
 30
0.000000
  70
    32
  0
VERTEX
  8
0
  5
A9D2
 10
72.5609
 20
224.589
 30
0.000000
  70
    32
  0
VERTEX
  8
0
  5
A9D3
 10
72.5609
 20
224.585
 30
0.000000
  70
    32
  0
SEQEND
  8
0
  5
A9D4
  0
POLYLINE
  5
87F5
  8
0
 10
70.692513342139094
 20
225.39887986523988
 30
0.0
 66
     1
 70
     8
  0
VERTEX
  8
0
  5
A9D5
 10
70.6925
 20
225.399
 30
0.000000
  70
    32
  0
VERTEX
  8
0
  5
A9D6
 10
70.6828
 20
225.393
 30
0.000000
  70
    32
  0
VERTEX
  8
0
  5
A9D7
 10
70.6732
 20
225.387
 30
0.000000
  70
    32
  0
VERTEX
  8
0
  5
A9D8
 10
70.6637
 20
225.381
 30
0.000000
  70
    32
  0
VERTEX
  8
0
  5
A9D9
 10
70.6542
 20
225.375
 30
0.000000
  70
    32
  0
VERTEX
  8
0
  5
A9DA
 10
70.6448
 20
225.369
 30
0.000000
  70
    32
  0
VERTEX
  8
0
  5
A9DB
 10
70.6354
 20
225.363
 30
0.000000
  70
    32
  0
VERTEX
  8
0
  5
A9DC
 10
70.6262
 20
225.357
 30
0.000000
  70
    32
  0
VERTEX
  8
0
  5
A9DD
 10
70.6170
 20
225.351
 30
0.000000
  70
    32
  0
VERTEX
  8
0
  5
A9DE
 10
70.6079
 20
225.345
 30
0.000000
  70
    32
  0
VERTEX
  8
0
  5
A9DF
 10
70.5988
 20
225.339
 30
0.000000
  70
    32
  0
VERTEX
  8
0
  5
A9E0
 10
70.5899
 20
225.332
 30
0.000000
  70
    32
  0
VERTEX
  8
0
  5
A9E1
 10
70.5810
 20
225.326
 30
0.000000
  70
    32
  0
VERTEX
  8
0
  5
A9E2
 10
70.5721
 20
225.320
 30
0.000000
  70
    32
  0
VERTEX
  8
0
  5
A9E3
 10
70.5634
 20
225.314
 30
0.000000
  70
    32
  0
VERTEX
  8
0
  5
A9E4
 10
70.5547
 20
225.308
 30
0.000000
  70
    32
  0
VERTEX
  8
0
  5
A9E5
 10
70.5461
 20
225.302
 30
0.000000
  70
    32
  0
VERTEX
  8
0
  5
A9E6
 10
70.5376
 20
225.296
 30
0.000000
  70
    32
  0
VERTEX
  8
0
  5
A9E7
 10
70.5291
 20
225.290
 30
0.000000
  70
    32
  0
VERTEX
  8
0
  5
A9E8
 10
70.5207
 20
225.284
 30
0.000000
  70
    32
  0
VERTEX
  8
0
  5
A9E9
 10
70.5124
 20
225.277
 30
0.000000
  70
    32
  0
VERTEX
  8
0
  5
A9EA
 10
70.5042
 20
225.271
 30
0.000000
  70
    32
  0
VERTEX
  8
0
  5
A9EB
 10
70.4960
 20
225.265
 30
0.000000
  70
    32
  0
VERTEX
  8
0
  5
A9EC
 10
70.4879
 20
225.259
 30
0.000000
  70
    32
  0
VERTEX
  8
0
  5
A9ED
 10
70.4799
 20
225.253
 30
0.000000
  70
    32
  0
VERTEX
  8
0
  5
A9EE
 10
70.4719
 20
225.247
 30
0.000000
  70
    32
  0
VERTEX
  8
0
  5
A9EF
 10
70.4641
 20
225.240
 30
0.000000
  70
    32
  0
VERTEX
  8
0
  5
A9F0
 10
70.4563
 20
225.234
 30
0.000000
  70
    32
  0
VERTEX
  8
0
  5
A9F1
 10
70.4485
 20
225.228
 30
0.000000
  70
    32
  0
VERTEX
  8
0
  5
A9F2
 10
70.4409
 20
225.222
 30
0.000000
  70
    32
  0
VERTEX
  8
0
  5
A9F3
 10
70.4333
 20
225.216
 30
0.000000
  70
    32
  0
VERTEX
  8
0
  5
A9F4
 10
70.4258
 20
225.209
 30
0.000000
  70
    32
  0
VERTEX
  8
0
  5
A9F5
 10
70.4184
 20
225.203
 30
0.000000
  70
    32
  0
VERTEX
  8
0
  5
A9F6
 10
70.4110
 20
225.197
 30
0.000000
  70
    32
  0
VERTEX
  8
0
  5
A9F7
 10
70.4038
 20
225.191
 30
0.000000
  70
    32
  0
VERTEX
  8
0
  5
A9F8
 10
70.3966
 20
225.184
 30
0.000000
  70
    32
  0
VERTEX
  8
0
  5
A9F9
 10
70.3894
 20
225.178
 30
0.000000
  70
    32
  0
VERTEX
  8
0
  5
A9FA
 10
70.3824
 20
225.172
 30
0.000000
  70
    32
  0
VERTEX
  8
0
  5
A9FB
 10
70.3754
 20
225.166
 30
0.000000
  70
    32
  0
VERTEX
  8
0
  5
A9FC
 10
70.3685
 20
225.159
 30
0.000000
  70
    32
  0
VERTEX
  8
0
  5
A9FD
 10
70.3617
 20
225.153
 30
0.000000
  70
    32
  0
VERTEX
  8
0
  5
A9FE
 10
70.3549
 20
225.147
 30
0.000000
  70
    32
  0
VERTEX
  8
0
  5
A9FF
 10
70.3482
 20
225.140
 30
0.000000
  70
    32
  0
VERTEX
  8
0
  5
AA00
 10
70.3416
 20
225.134
 30
0.000000
  70
    32
  0
VERTEX
  8
0
  5
AA01
 10
70.3351
 20
225.128
 30
0.000000
  70
    32
  0
VERTEX
  8
0
  5
AA02
 10
70.3287
 20
225.122
 30
0.000000
  70
    32
  0
VERTEX
  8
0
  5
AA03
 10
70.3223
 20
225.115
 30
0.000000
  70
    32
  0
VERTEX
  8
0
  5
AA04
 10
70.3160
 20
225.109
 30
0.000000
  70
    32
  0
VERTEX
  8
0
  5
AA05
 10
70.3098
 20
225.103
 30
0.000000
  70
    32
  0
VERTEX
  8
0
  5
AA06
 10
70.3036
 20
225.096
 30
0.000000
  70
    32
  0
VERTEX
  8
0
  5
AA07
 10
70.2975
 20
225.090
 30
0.000000
  70
    32
  0
VERTEX
  8
0
  5
AA08
 10
70.2915
 20
225.084
 30
0.000000
  70
    32
  0
VERTEX
  8
0
  5
AA09
 10
70.2856
 20
225.077
 30
0.000000
  70
    32
  0
VERTEX
  8
0
  5
AA0A
 10
70.2798
 20
225.071
 30
0.000000
  70
    32
  0
VERTEX
  8
0
  5
AA0B
 10
70.2740
 20
225.065
 30
0.000000
  70
    32
  0
VERTEX
  8
0
  5
AA0C
 10
70.2683
 20
225.058
 30
0.000000
  70
    32
  0
VERTEX
  8
0
  5
AA0D
 10
70.2627
 20
225.052
 30
0.000000
  70
    32
  0
VERTEX
  8
0
  5
AA0E
 10
70.2571
 20
225.045
 30
0.000000
  70
    32
  0
VERTEX
  8
0
  5
AA0F
 10
70.2517
 20
225.039
 30
0.000000
  70
    32
  0
VERTEX
  8
0
  5
AA10
 10
70.2463
 20
225.033
 30
0.000000
  70
    32
  0
VERTEX
  8
0
  5
AA11
 10
70.2410
 20
225.026
 30
0.000000
  70
    32
  0
VERTEX
  8
0
  5
AA12
 10
70.2357
 20
225.020
 30
0.000000
  70
    32
  0
VERTEX
  8
0
  5
AA13
 10
70.2306
 20
225.014
 30
0.000000
  70
    32
  0
VERTEX
  8
0
  5
AA14
 10
70.2255
 20
225.007
 30
0.000000
  70
    32
  0
VERTEX
  8
0
  5
AA15
 10
70.2205
 20
225.001
 30
0.000000
  70
    32
  0
VERTEX
  8
0
  5
AA16
 10
70.2155
 20
224.994
 30
0.000000
  70
    32
  0
VERTEX
  8
0
  5
AA17
 10
70.2107
 20
224.988
 30
0.000000
  70
    32
  0
VERTEX
  8
0
  5
AA18
 10
70.2059
 20
224.982
 30
0.000000
  70
    32
  0
VERTEX
  8
0
  5
AA19
 10
70.2012
 20
224.975
 30
0.000000
  70
    32
  0
VERTEX
  8
0
  5
AA1A
 10
70.1966
 20
224.969
 30
0.000000
  70
    32
  0
VERTEX
  8
0
  5
AA1B
 10
70.1920
 20
224.962
 30
0.000000
  70
    32
  0
VERTEX
  8
0
  5
AA1C
 10
70.1876
 20
224.956
 30
0.000000
  70
    32
  0
VERTEX
  8
0
  5
AA1D
 10
70.1832
 20
224.949
 30
0.000000
  70
    32
  0
VERTEX
  8
0
  5
AA1E
 10
70.1788
 20
224.943
 30
0.000000
  70
    32
  0
VERTEX
  8
0
  5
AA1F
 10
70.1746
 20
224.936
 30
0.000000
  70
    32
  0
VERTEX
  8
0
  5
AA20
 10
70.1704
 20
224.930
 30
0.000000
  70
    32
  0
VERTEX
  8
0
  5
AA21
 10
70.1664
 20
224.924
 30
0.000000
  70
    32
  0
VERTEX
  8
0
  5
AA22
 10
70.1623
 20
224.917
 30
0.000000
  70
    32
  0
VERTEX
  8
0
  5
AA23
 10
70.1584
 20
224.911
 30
0.000000
  70
    32
  0
VERTEX
  8
0
  5
AA24
 10
70.1546
 20
224.904
 30
0.000000
  70
    32
  0
VERTEX
  8
0
  5
AA25
 10
70.1508
 20
224.898
 30
0.000000
  70
    32
  0
VERTEX
  8
0
  5
AA26
 10
70.1471
 20
224.891
 30
0.000000
  70
    32
  0
VERTEX
  8
0
  5
AA27
 10
70.1435
 20
224.885
 30
0.000000
  70
    32
  0
VERTEX
  8
0
  5
AA28
 10
70.1399
 20
224.878
 30
0.000000
  70
    32
  0
VERTEX
  8
0
  5
AA29
 10
70.1364
 20
224.872
 30
0.000000
  70
    32
  0
VERTEX
  8
0
  5
AA2A
 10
70.1331
 20
224.865
 30
0.000000
  70
    32
  0
VERTEX
  8
0
  5
AA2B
 10
70.1297
 20
224.859
 30
0.000000
  70
    32
  0
VERTEX
  8
0
  5
AA2C
 10
70.1265
 20
224.852
 30
0.000000
  70
    32
  0
VERTEX
  8
0
  5
AA2D
 10
70.1233
 20
224.846
 30
0.000000
  70
    32
  0
VERTEX
  8
0
  5
AA2E
 10
70.1203
 20
224.839
 30
0.000000
  70
    32
  0
VERTEX
  8
0
  5
AA2F
 10
70.1173
 20
224.833
 30
0.000000
  70
    32
  0
VERTEX
  8
0
  5
AA30
 10
70.1143
 20
224.826
 30
0.000000
  70
    32
  0
VERTEX
  8
0
  5
AA31
 10
70.1115
 20
224.820
 30
0.000000
  70
    32
  0
VERTEX
  8
0
  5
AA32
 10
70.1087
 20
224.813
 30
0.000000
  70
    32
  0
VERTEX
  8
0
  5
AA33
 10
70.1060
 20
224.807
 30
0.000000
  70
    32
  0
VERTEX
  8
0
  5
AA34
 10
70.1034
 20
224.800
 30
0.000000
  70
    32
  0
VERTEX
  8
0
  5
AA35
 10
70.1009
 20
224.794
 30
0.000000
  70
    32
  0
VERTEX
  8
0
  5
AA36
 10
70.0984
 20
224.787
 30
0.000000
  70
    32
  0
VERTEX
  8
0
  5
AA37
 10
70.0960
 20
224.781
 30
0.000000
  70
    32
  0
VERTEX
  8
0
  5
AA38
 10
70.0937
 20
224.774
 30
0.000000
  70
    32
  0
VERTEX
  8
0
  5
AA39
 10
70.0915
 20
224.768
 30
0.000000
  70
    32
  0
VERTEX
  8
0
  5
AA3A
 10
70.0894
 20
224.761
 30
0.000000
  70
    32
  0
VERTEX
  8
0
  5
AA3B
 10
70.0873
 20
224.755
 30
0.000000
  70
    32
  0
VERTEX
  8
0
  5
AA3C
 10
70.0853
 20
224.748
 30
0.000000
  70
    32
  0
VERTEX
  8
0
  5
AA3D
 10
70.0834
 20
224.742
 30
0.000000
  70
    32
  0
VERTEX
  8
0
  5
AA3E
 10
70.0815
 20
224.735
 30
0.000000
  70
    32
  0
VERTEX
  8
0
  5
AA3F
 10
70.0798
 20
224.729
 30
0.000000
  70
    32
  0
VERTEX
  8
0
  5
AA40
 10
70.0781
 20
224.722
 30
0.000000
  70
    32
  0
VERTEX
  8
0
  5
AA41
 10
70.0765
 20
224.716
 30
0.000000
  70
    32
  0
VERTEX
  8
0
  5
AA42
 10
70.0750
 20
224.709
 30
0.000000
  70
    32
  0
VERTEX
  8
0
  5
AA43
 10
70.0735
 20
224.703
 30
0.000000
  70
    32
  0
VERTEX
  8
0
  5
AA44
 10
70.0722
 20
224.696
 30
0.000000
  70
    32
  0
VERTEX
  8
0
  5
AA45
 10
70.0709
 20
224.690
 30
0.000000
  70
    32
  0
VERTEX
  8
0
  5
AA46
 10
70.0697
 20
224.683
 30
0.000000
  70
    32
  0
VERTEX
  8
0
  5
AA47
 10
70.0685
 20
224.676
 30
0.000000
  70
    32
  0
VERTEX
  8
0
  5
AA48
 10
70.0675
 20
224.670
 30
0.000000
  70
    32
  0
VERTEX
  8
0
  5
AA49
 10
70.0665
 20
224.663
 30
0.000000
  70
    32
  0
VERTEX
  8
0
  5
AA4A
 10
70.0656
 20
224.657
 30
0.000000
  70
    32
  0
VERTEX
  8
0
  5
AA4B
 10
70.0648
 20
224.650
 30
0.000000
  70
    32
  0
VERTEX
  8
0
  5
AA4C
 10
70.0640
 20
224.644
 30
0.000000
  70
    32
  0
VERTEX
  8
0
  5
AA4D
 10
70.0634
 20
224.637
 30
0.000000
  70
    32
  0
VERTEX
  8
0
  5
AA4E
 10
70.0628
 20
224.631
 30
0.000000
  70
    32
  0
VERTEX
  8
0
  5
AA4F
 10
70.0623
 20
224.624
 30
0.000000
  70
    32
  0
VERTEX
  8
0
  5
AA50
 10
70.0618
 20
224.618
 30
0.000000
  70
    32
  0
VERTEX
  8
0
  5
AA51
 10
70.0615
 20
224.611
 30
0.000000
  70
    32
  0
VERTEX
  8
0
  5
AA52
 10
70.0612
 20
224.605
 30
0.000000
  70
    32
  0
VERTEX
  8
0
  5
AA53
 10
70.0610
 20
224.598
 30
0.000000
  70
    32
  0
VERTEX
  8
0
  5
AA54
 10
70.0609
 20
224.591
 30
0.000000
  70
    32
  0
VERTEX
  8
0
  5
AA55
 10
70.0609
 20
224.585
 30
0.000000
  70
    32
  0
SEQEND
  8
0
  5
AA56
  0
LINE
  5
87F6
  8
0
 10
77.379208665743761
 20
229.5179482523844
 30
0.0
 11
70.69251334213908
 21
225.39887986523991
 31
0.0
  0
POLYLINE
  5
87F7
  8
0
 10
77.379208665743846
 20
229.51794825238449
 30
0.0
 66
     1
 70
     8
  0
VERTEX
  8
0
  5
AA57
 10
77.3792
 20
229.518
 30
0.000000
  70
    32
  0
VERTEX
  8
0
  5
AA58
 10
77.3889
 20
229.524
 30
0.000000
  70
    32
  0
VERTEX
  8
0
  5
AA59
 10
77.3985
 20
229.530
 30
0.000000
  70
    32
  0
VERTEX
  8
0
  5
AA5A
 10
77.4081
 20
229.536
 30
0.000000
  70
    32
  0
VERTEX
  8
0
  5
AA5B
 10
77.4175
 20
229.542
 30
0.000000
  70
    32
  0
VERTEX
  8
0
  5
AA5C
 10
77.4270
 20
229.548
 30
0.000000
  70
    32
  0
VERTEX
  8
0
  5
AA5D
 10
77.4363
 20
229.554
 30
0.000000
  70
    32
  0
VERTEX
  8
0
  5
AA5E
 10
77.4455
 20
229.560
 30
0.000000
  70
    32
  0
VERTEX
  8
0
  5
AA5F
 10
77.4547
 20
229.566
 30
0.000000
  70
    32
  0
VERTEX
  8
0
  5
AA60
 10
77.4639
 20
229.572
 30
0.000000
  70
    32
  0
VERTEX
  8
0
  5
AA61
 10
77.4729
 20
229.578
 30
0.000000
  70
    32
  0
VERTEX
  8
0
  5
AA62
 10
77.4819
 20
229.584
 30
0.000000
  70
    32
  0
VERTEX
  8
0
  5
AA63
 10
77.4908
 20
229.590
 30
0.000000
  70
    32
  0
VERTEX
  8
0
  5
AA64
 10
77.4996
 20
229.597
 30
0.000000
  70
    32
  0
VERTEX
  8
0
  5
AA65
 10
77.5083
 20
229.603
 30
0.000000
  70
    32
  0
VERTEX
  8
0
  5
AA66
 10
77.5170
 20
229.609
 30
0.000000
  70
    32
  0
VERTEX
  8
0
  5
AA67
 10
77.5256
 20
229.615
 30
0.000000
  70
    32
  0
VERTEX
  8
0
  5
AA68
 10
77.5342
 20
229.621
 30
0.000000
  70
    32
  0
VERTEX
  8
0
  5
AA69
 10
77.5426
 20
229.627
 30
0.000000
  70
    32
  0
VERTEX
  8
0
  5
AA6A
 10
77.5510
 20
229.633
 30
0.000000
  70
    32
  0
VERTEX
  8
0
  5
AA6B
 10
77.5593
 20
229.639
 30
0.000000
  70
    32
  0
VERTEX
  8
0
  5
AA6C
 10
77.5676
 20
229.646
 30
0.000000
  70
    32
  0
VERTEX
  8
0
  5
AA6D
 10
77.5757
 20
229.652
 30
0.000000
  70
    32
  0
VERTEX
  8
0
  5
AA6E
 10
77.5838
 20
229.658
 30
0.000000
  70
    32
  0
VERTEX
  8
0
  5
AA6F
 10
77.5918
 20
229.664
 30
0.000000
  70
    32
  0
VERTEX
  8
0
  5
AA70
 10
77.5998
 20
229.670
 30
0.000000
  70
    32
  0
VERTEX
  8
0
  5
AA71
 10
77.6077
 20
229.676
 30
0.000000
  70
    32
  0
VERTEX
  8
0
  5
AA72
 10
77.6155
 20
229.683
 30
0.000000
  70
    32
  0
VERTEX
  8
0
  5
AA73
 10
77.6232
 20
229.689
 30
0.000000
  70
    32
  0
VERTEX
  8
0
  5
AA74
 10
77.6308
 20
229.695
 30
0.000000
  70
    32
  0
VERTEX
  8
0
  5
AA75
 10
77.6384
 20
229.701
 30
0.000000
  70
    32
  0
VERTEX
  8
0
  5
AA76
 10
77.6459
 20
229.707
 30
0.000000
  70
    32
  0
VERTEX
  8
0
  5
AA77
 10
77.6533
 20
229.714
 30
0.000000
  70
    32
  0
VERTEX
  8
0
  5
AA78
 10
77.6607
 20
229.720
 30
0.000000
  70
    32
  0
VERTEX
  8
0
  5
AA79
 10
77.6680
 20
229.726
 30
0.000000
  70
    32
  0
VERTEX
  8
0
  5
AA7A
 10
77.6752
 20
229.732
 30
0.000000
  70
    32
  0
VERTEX
  8
0
  5
AA7B
 10
77.6823
 20
229.739
 30
0.000000
  70
    32
  0
VERTEX
  8
0
  5
AA7C
 10
77.6893
 20
229.745
 30
0.000000
  70
    32
  0
VERTEX
  8
0
  5
AA7D
 10
77.6963
 20
229.751
 30
0.000000
  70
    32
  0
VERTEX
  8
0
  5
AA7E
 10
77.7032
 20
229.758
 30
0.000000
  70
    32
  0
VERTEX
  8
0
  5
AA7F
 10
77.7101
 20
229.764
 30
0.000000
  70
    32
  0
VERTEX
  8
0
  5
AA80
 10
77.7168
 20
229.770
 30
0.000000
  70
    32
  0
VERTEX
  8
0
  5
AA81
 10
77.7235
 20
229.776
 30
0.000000
  70
    32
  0
VERTEX
  8
0
  5
AA82
 10
77.7301
 20
229.783
 30
0.000000
  70
    32
  0
VERTEX
  8
0
  5
AA83
 10
77.7366
 20
229.789
 30
0.000000
  70
    32
  0
VERTEX
  8
0
  5
AA84
 10
77.7431
 20
229.795
 30
0.000000
  70
    32
  0
VERTEX
  8
0
  5
AA85
 10
77.7494
 20
229.802
 30
0.000000
  70
    32
  0
VERTEX
  8
0
  5
AA86
 10
77.7557
 20
229.808
 30
0.000000
  70
    32
  0
VERTEX
  8
0
  5
AA87
 10
77.7620
 20
229.814
 30
0.000000
  70
    32
  0
VERTEX
  8
0
  5
AA88
 10
77.7681
 20
229.821
 30
0.000000
  70
    32
  0
VERTEX
  8
0
  5
AA89
 10
77.7742
 20
229.827
 30
0.000000
  70
    32
  0
VERTEX
  8
0
  5
AA8A
 10
77.7802
 20
229.833
 30
0.000000
  70
    32
  0
VERTEX
  8
0
  5
AA8B
 10
77.7861
 20
229.840
 30
0.000000
  70
    32
  0
VERTEX
  8
0
  5
AA8C
 10
77.7920
 20
229.846
 30
0.000000
  70
    32
  0
VERTEX
  8
0
  5
AA8D
 10
77.7977
 20
229.852
 30
0.000000
  70
    32
  0
VERTEX
  8
0
  5
AA8E
 10
77.8034
 20
229.859
 30
0.000000
  70
    32
  0
VERTEX
  8
0
  5
AA8F
 10
77.8090
 20
229.865
 30
0.000000
  70
    32
  0
VERTEX
  8
0
  5
AA90
 10
77.8146
 20
229.871
 30
0.000000
  70
    32
  0
VERTEX
  8
0
  5
AA91
 10
77.8201
 20
229.878
 30
0.000000
  70
    32
  0
VERTEX
  8
0
  5
AA92
 10
77.8254
 20
229.884
 30
0.000000
  70
    32
  0
VERTEX
  8
0
  5
AA93
 10
77.8308
 20
229.891
 30
0.000000
  70
    32
  0
VERTEX
  8
0
  5
AA94
 10
77.8360
 20
229.897
 30
0.000000
  70
    32
  0
VERTEX
  8
0
  5
AA95
 10
77.8412
 20
229.903
 30
0.000000
  70
    32
  0
VERTEX
  8
0
  5
AA96
 10
77.8462
 20
229.910
 30
0.000000
  70
    32
  0
VERTEX
  8
0
  5
AA97
 10
77.8512
 20
229.916
 30
0.000000
  70
    32
  0
VERTEX
  8
0
  5
AA98
 10
77.8562
 20
229.923
 30
0.000000
  70
    32
  0
VERTEX
  8
0
  5
AA99
 10
77.8610
 20
229.929
 30
0.000000
  70
    32
  0
VERTEX
  8
0
  5
AA9A
 10
77.8658
 20
229.935
 30
0.000000
  70
    32
  0
VERTEX
  8
0
  5
AA9B
 10
77.8705
 20
229.942
 30
0.000000
  70
    32
  0
VERTEX
  8
0
  5
AA9C
 10
77.8751
 20
229.948
 30
0.000000
  70
    32
  0
VERTEX
  8
0
  5
AA9D
 10
77.8797
 20
229.955
 30
0.000000
  70
    32
  0
VERTEX
  8
0
  5
AA9E
 10
77.8842
 20
229.961
 30
0.000000
  70
    32
  0
VERTEX
  8
0
  5
AA9F
 10
77.8886
 20
229.967
 30
0.000000
  70
    32
  0
VERTEX
  8
0
  5
AAA0
 10
77.8929
 20
229.974
 30
0.000000
  70
    32
  0
VERTEX
  8
0
  5
AAA1
 10
77.8971
 20
229.980
 30
0.000000
  70
    32
  0
VERTEX
  8
0
  5
AAA2
 10
77.9013
 20
229.987
 30
0.000000
  70
    32
  0
VERTEX
  8
0
  5
AAA3
 10
77.9054
 20
229.993
 30
0.000000
  70
    32
  0
VERTEX
  8
0
  5
AAA4
 10
77.9094
 20
230.000
 30
0.000000
  70
    32
  0
VERTEX
  8
0
  5
AAA5
 10
77.9133
 20
230.006
 30
0.000000
  70
    32
  0
VERTEX
  8
0
  5
AAA6
 10
77.9172
 20
230.013
 30
0.000000
  70
    32
  0
VERTEX
  8
0
  5
AAA7
 10
77.9209
 20
230.019
 30
0.000000
  70
    32
  0
VERTEX
  8
0
  5
AAA8
 10
77.9246
 20
230.026
 30
0.000000
  70
    32
  0
VERTEX
  8
0
  5
AAA9
 10
77.9283
 20
230.032
 30
0.000000
  70
    32
  0
VERTEX
  8
0
  5
AAAA
 10
77.9318
 20
230.038
 30
0.000000
  70
    32
  0
VERTEX
  8
0
  5
AAAB
 10
77.9353
 20
230.045
 30
0.000000
  70
    32
  0
VERTEX
  8
0
  5
AAAC
 10
77.9387
 20
230.051
 30
0.000000
  70
    32
  0
VERTEX
  8
0
  5
AAAD
 10
77.9420
 20
230.058
 30
0.000000
  70
    32
  0
VERTEX
  8
0
  5
AAAE
 10
77.9452
 20
230.064
 30
0.000000
  70
    32
  0
VERTEX
  8
0
  5
AAAF
 10
77.9484
 20
230.071
 30
0.000000
  70
    32
  0
VERTEX
  8
0
  5
AAB0
 10
77.9515
 20
230.077
 30
0.000000
  70
    32
  0
VERTEX
  8
0
  5
AAB1
 10
77.9545
 20
230.084
 30
0.000000
  70
    32
  0
VERTEX
  8
0
  5
AAB2
 10
77.9574
 20
230.090
 30
0.000000
  70
    32
  0
VERTEX
  8
0
  5
AAB3
 10
77.9602
 20
230.097
 30
0.000000
  70
    32
  0
VERTEX
  8
0
  5
AAB4
 10
77.9630
 20
230.103
 30
0.000000
  70
    32
  0
VERTEX
  8
0
  5
AAB5
 10
77.9657
 20
230.110
 30
0.000000
  70
    32
  0
VERTEX
  8
0
  5
AAB6
 10
77.9683
 20
230.116
 30
0.000000
  70
    32
  0
VERTEX
  8
0
  5
AAB7
 10
77.9709
 20
230.123
 30
0.000000
  70
    32
  0
VERTEX
  8
0
  5
AAB8
 10
77.9733
 20
230.129
 30
0.000000
  70
    32
  0
VERTEX
  8
0
  5
AAB9
 10
77.9757
 20
230.136
 30
0.000000
  70
    32
  0
VERTEX
  8
0
  5
AABA
 10
77.9780
 20
230.142
 30
0.000000
  70
    32
  0
VERTEX
  8
0
  5
AABB
 10
77.9802
 20
230.149
 30
0.000000
  70
    32
  0
VERTEX
  8
0
  5
AABC
 10
77.9824
 20
230.155
 30
0.000000
  70
    32
  0
VERTEX
  8
0
  5
AABD
 10
77.9844
 20
230.162
 30
0.000000
  70
    32
  0
VERTEX
  8
0
  5
AABE
 10
77.9864
 20
230.169
 30
0.000000
  70
    32
  0
VERTEX
  8
0
  5
AABF
 10
77.9883
 20
230.175
 30
0.000000
  70
    32
  0
VERTEX
  8
0
  5
AAC0
 10
77.9902
 20
230.182
 30
0.000000
  70
    32
  0
VERTEX
  8
0
  5
AAC1
 10
77.9919
 20
230.188
 30
0.000000
  70
    32
  0
VERTEX
  8
0
  5
AAC2
 10
77.9936
 20
230.195
 30
0.000000
  70
    32
  0
VERTEX
  8
0
  5
AAC3
 10
77.9952
 20
230.201
 30
0.000000
  70
    32
  0
VERTEX
  8
0
  5
AAC4
 10
77.9967
 20
230.208
 30
0.000000
  70
    32
  0
VERTEX
  8
0
  5
AAC5
 10
77.9982
 20
230.214
 30
0.000000
  70
    32
  0
VERTEX
  8
0
  5
AAC6
 10
77.9996
 20
230.221
 30
0.000000
  70
    32
  0
VERTEX
  8
0
  5
AAC7
 10
78.0009
 20
230.227
 30
0.000000
  70
    32
  0
VERTEX
  8
0
  5
AAC8
 10
78.0021
 20
230.234
 30
0.000000
  70
    32
  0
VERTEX
  8
0
  5
AAC9
 10
78.0032
 20
230.240
 30
0.000000
  70
    32
  0
VERTEX
  8
0
  5
AACA
 10
78.0043
 20
230.247
 30
0.000000
  70
    32
  0
VERTEX
  8
0
  5
AACB
 10
78.0052
 20
230.253
 30
0.000000
  70
    32
  0
VERTEX
  8
0
  5
AACC
 10
78.0061
 20
230.260
 30
0.000000
  70
    32
  0
VERTEX
  8
0
  5
AACD
 10
78.0070
 20
230.267
 30
0.000000
  70
    32
  0
VERTEX
  8
0
  5
AACE
 10
78.0077
 20
230.273
 30
0.000000
  70
    32
  0
VERTEX
  8
0
  5
AACF
 10
78.0084
 20
230.280
 30
0.000000
  70
    32
  0
VERTEX
  8
0
  5
AAD0
 10
78.0089
 20
230.286
 30
0.000000
  70
    32
  0
VERTEX
  8
0
  5
AAD1
 10
78.0095
 20
230.293
 30
0.000000
  70
    32
  0
VERTEX
  8
0
  5
AAD2
 10
78.0099
 20
230.299
 30
0.000000
  70
    32
  0
VERTEX
  8
0
  5
AAD3
 10
78.0102
 20
230.306
 30
0.000000
  70
    32
  0
VERTEX
  8
0
  5
AAD4
 10
78.0105
 20
230.312
 30
0.000000
  70
    32
  0
VERTEX
  8
0
  5
AAD5
 10
78.0107
 20
230.319
 30
0.000000
  70
    32
  0
VERTEX
  8
0
  5
AAD6
 10
78.0108
 20
230.325
 30
0.000000
  70
    32
  0
VERTEX
  8
0
  5
AAD7
 10
78.0109
 20
230.332
 30
0.000000
  70
    32
  0
SEQEND
  8
0
  5
AAD8
  0
LINE
  5
87F8
  8
0
 10
78.010861003941415
 20
236.07602315272399
 30
0.0
 11
78.010861003941386
 21
230.33194024556011
 31
0.0
  0
LINE
  5
87FA
  8
0
 10
83.11086100394138
 20
230.33194024556011
 30
0.0
 11
83.110861003940443
 21
236.0760231527241
 31
0.0
  0
POLYLINE
  5
87FB
  8
0
 10
83.11086100394138
 20
230.33194024555996
 30
0.0
 66
     1
 70
     8
  0
VERTEX
  8
0
  5
AAD9
 10
83.1109
 20
230.332
 30
0.000000
  70
    32
  0
VERTEX
  8
0
  5
AADA
 10
83.1109
 20
230.325
 30
0.000000
  70
    32
  0
VERTEX
  8
0
  5
AADB
 10
83.1110
 20
230.319
 30
0.000000
  70
    32
  0
VERTEX
  8
0
  5
AADC
 10
83.1112
 20
230.312
 30
0.000000
  70
    32
  0
VERTEX
  8
0
  5
AADD
 10
83.1115
 20
230.306
 30
0.000000
  70
    32
  0
VERTEX
  8
0
  5
AADE
 10
83.1118
 20
230.299
 30
0.000000
  70
    32
  0
VERTEX
  8
0
  5
AADF
 10
83.1123
 20
230.293
 30
0.000000
  70
    32
  0
VERTEX
  8
0
  5
AAE0
 10
83.1128
 20
230.286
 30
0.000000
  70
    32
  0
VERTEX
  8
0
  5
AAE1
 10
83.1134
 20
230.280
 30
0.000000
  70
    32
  0
VERTEX
  8
0
  5
AAE2
 10
83.1140
 20
230.273
 30
0.000000
  70
    32
  0
VERTEX
  8
0
  5
AAE3
 10
83.1148
 20
230.267
 30
0.000000
  70
    32
  0
VERTEX
  8
0
  5
AAE4
 10
83.1156
 20
230.260
 30
0.000000
  70
    32
  0
VERTEX
  8
0
  5
AAE5
 10
83.1165
 20
230.253
 30
0.000000
  70
    32
  0
VERTEX
  8
0
  5
AAE6
 10
83.1175
 20
230.247
 30
0.000000
  70
    32
  0
VERTEX
  8
0
  5
AAE7
 10
83.1185
 20
230.240
 30
0.000000
  70
    32
  0
VERTEX
  8
0
  5
AAE8
 10
83.1197
 20
230.234
 30
0.000000
  70
    32
  0
VERTEX
  8
0
  5
AAE9
 10
83.1209
 20
230.227
 30
0.000000
  70
    32
  0
VERTEX
  8
0
  5
AAEA
 10
83.1222
 20
230.221
 30
0.000000
  70
    32
  0
VERTEX
  8
0
  5
AAEB
 10
83.1235
 20
230.214
 30
0.000000
  70
    32
  0
VERTEX
  8
0
  5
AAEC
 10
83.1250
 20
230.208
 30
0.000000
  70
    32
  0
VERTEX
  8
0
  5
AAED
 10
83.1265
 20
230.201
 30
0.000000
  70
    32
  0
VERTEX
  8
0
  5
AAEE
 10
83.1281
 20
230.195
 30
0.000000
  70
    32
  0
VERTEX
  8
0
  5
AAEF
 10
83.1298
 20
230.188
 30
0.000000
  70
    32
  0
VERTEX
  8
0
  5
AAF0
 10
83.1315
 20
230.182
 30
0.000000
  70
    32
  0
VERTEX
  8
0
  5
AAF1
 10
83.1334
 20
230.175
 30
0.000000
  70
    32
  0
VERTEX
  8
0
  5
AAF2
 10
83.1353
 20
230.169
 30
0.000000
  70
    32
  0
VERTEX
  8
0
  5
AAF3
 10
83.1373
 20
230.162
 30
0.000000
  70
    32
  0
VERTEX
  8
0
  5
AAF4
 10
83.1394
 20
230.155
 30
0.000000
  70
    32
  0
VERTEX
  8
0
  5
AAF5
 10
83.1415
 20
230.149
 30
0.000000
  70
    32
  0
VERTEX
  8
0
  5
AAF6
 10
83.1437
 20
230.142
 30
0.000000
  70
    32
  0
VERTEX
  8
0
  5
AAF7
 10
83.1460
 20
230.136
 30
0.000000
  70
    32
  0
VERTEX
  8
0
  5
AAF8
 10
83.1484
 20
230.129
 30
0.000000
  70
    32
  0
VERTEX
  8
0
  5
AAF9
 10
83.1509
 20
230.123
 30
0.000000
  70
    32
  0
VERTEX
  8
0
  5
AAFA
 10
83.1534
 20
230.116
 30
0.000000
  70
    32
  0
VERTEX
  8
0
  5
AAFB
 10
83.1560
 20
230.110
 30
0.000000
  70
    32
  0
VERTEX
  8
0
  5
AAFC
 10
83.1587
 20
230.103
 30
0.000000
  70
    32
  0
VERTEX
  8
0
  5
AAFD
 10
83.1615
 20
230.097
 30
0.000000
  70
    32
  0
VERTEX
  8
0
  5
AAFE
 10
83.1643
 20
230.090
 30
0.000000
  70
    32
  0
VERTEX
  8
0
  5
AAFF
 10
83.1673
 20
230.084
 30
0.000000
  70
    32
  0
VERTEX
  8
0
  5
AB00
 10
83.1703
 20
230.077
 30
0.000000
  70
    32
  0
VERTEX
  8
0
  5
AB01
 10
83.1733
 20
230.071
 30
0.000000
  70
    32
  0
VERTEX
  8
0
  5
AB02
 10
83.1765
 20
230.064
 30
0.000000
  70
    32
  0
VERTEX
  8
0
  5
AB03
 10
83.1797
 20
230.058
 30
0.000000
  70
    32
  0
VERTEX
  8
0
  5
AB04
 10
83.1831
 20
230.051
 30
0.000000
  70
    32
  0
VERTEX
  8
0
  5
AB05
 10
83.1864
 20
230.045
 30
0.000000
  70
    32
  0
VERTEX
  8
0
  5
AB06
 10
83.1899
 20
230.038
 30
0.000000
  70
    32
  0
VERTEX
  8
0
  5
AB07
 10
83.1935
 20
230.032
 30
0.000000
  70
    32
  0
VERTEX
  8
0
  5
AB08
 10
83.1971
 20
230.026
 30
0.000000
  70
    32
  0
VERTEX
  8
0
  5
AB09
 10
83.2008
 20
230.019
 30
0.000000
  70
    32
  0
VERTEX
  8
0
  5
AB0A
 10
83.2046
 20
230.013
 30
0.000000
  70
    32
  0
VERTEX
  8
0
  5
AB0B
 10
83.2084
 20
230.006
 30
0.000000
  70
    32
  0
VERTEX
  8
0
  5
AB0C
 10
83.2123
 20
230.000
 30
0.000000
  70
    32
  0
VERTEX
  8
0
  5
AB0D
 10
83.2164
 20
229.993
 30
0.000000
  70
    32
  0
VERTEX
  8
0
  5
AB0E
 10
83.2204
 20
229.987
 30
0.000000
  70
    32
  0
VERTEX
  8
0
  5
AB0F
 10
83.2246
 20
229.980
 30
0.000000
  70
    32
  0
VERTEX
  8
0
  5
AB10
 10
83.2288
 20
229.974
 30
0.000000
  70
    32
  0
VERTEX
  8
0
  5
AB11
 10
83.2332
 20
229.967
 30
0.000000
  70
    32
  0
VERTEX
  8
0
  5
AB12
 10
83.2376
 20
229.961
 30
0.000000
  70
    32
  0
VERTEX
  8
0
  5
AB13
 10
83.2420
 20
229.955
 30
0.000000
  70
    32
  0
VERTEX
  8
0
  5
AB14
 10
83.2466
 20
229.948
 30
0.000000
  70
    32
  0
VERTEX
  8
0
  5
AB15
 10
83.2512
 20
229.942
 30
0.000000
  70
    32
  0
VERTEX
  8
0
  5
AB16
 10
83.2559
 20
229.935
 30
0.000000
  70
    32
  0
VERTEX
  8
0
  5
AB17
 10
83.2607
 20
229.929
 30
0.000000
  70
    32
  0
VERTEX
  8
0
  5
AB18
 10
83.2655
 20
229.923
 30
0.000000
  70
    32
  0
VERTEX
  8
0
  5
AB19
 10
83.2705
 20
229.916
 30
0.000000
  70
    32
  0
VERTEX
  8
0
  5
AB1A
 10
83.2755
 20
229.910
 30
0.000000
  70
    32
  0
VERTEX
  8
0
  5
AB1B
 10
83.2806
 20
229.903
 30
0.000000
  70
    32
  0
VERTEX
  8
0
  5
AB1C
 10
83.2857
 20
229.897
 30
0.000000
  70
    32
  0
VERTEX
  8
0
  5
AB1D
 10
83.2910
 20
229.891
 30
0.000000
  70
    32
  0
VERTEX
  8
0
  5
AB1E
 10
83.2963
 20
229.884
 30
0.000000
  70
    32
  0
VERTEX
  8
0
  5
AB1F
 10
83.3017
 20
229.878
 30
0.000000
  70
    32
  0
VERTEX
  8
0
  5
AB20
 10
83.3071
 20
229.871
 30
0.000000
  70
    32
  0
VERTEX
  8
0
  5
AB21
 10
83.3127
 20
229.865
 30
0.000000
  70
    32
  0
VERTEX
  8
0
  5
AB22
 10
83.3183
 20
229.859
 30
0.000000
  70
    32
  0
VERTEX
  8
0
  5
AB23
 10
83.3240
 20
229.852
 30
0.000000
  70
    32
  0
VERTEX
  8
0
  5
AB24
 10
83.3298
 20
229.846
 30
0.000000
  70
    32
  0
VERTEX
  8
0
  5
AB25
 10
83.3356
 20
229.840
 30
0.000000
  70
    32
  0
VERTEX
  8
0
  5
AB26
 10
83.3415
 20
229.833
 30
0.000000
  70
    32
  0
VERTEX
  8
0
  5
AB27
 10
83.3475
 20
229.827
 30
0.000000
  70
    32
  0
VERTEX
  8
0
  5
AB28
 10
83.3536
 20
229.821
 30
0.000000
  70
    32
  0
VERTEX
  8
0
  5
AB29
 10
83.3598
 20
229.814
 30
0.000000
  70
    32
  0
VERTEX
  8
0
  5
AB2A
 10
83.3660
 20
229.808
 30
0.000000
  70
    32
  0
VERTEX
  8
0
  5
AB2B
 10
83.3723
 20
229.802
 30
0.000000
  70
    32
  0
VERTEX
  8
0
  5
AB2C
 10
83.3787
 20
229.795
 30
0.000000
  70
    32
  0
VERTEX
  8
0
  5
AB2D
 10
83.3851
 20
229.789
 30
0.000000
  70
    32
  0
VERTEX
  8
0
  5
AB2E
 10
83.3916
 20
229.783
 30
0.000000
  70
    32
  0
VERTEX
  8
0
  5
AB2F
 10
83.3982
 20
229.776
 30
0.000000
  70
    32
  0
VERTEX
  8
0
  5
AB30
 10
83.4049
 20
229.770
 30
0.000000
  70
    32
  0
VERTEX
  8
0
  5
AB31
 10
83.4117
 20
229.764
 30
0.000000
  70
    32
  0
VERTEX
  8
0
  5
AB32
 10
83.4185
 20
229.758
 30
0.000000
  70
    32
  0
VERTEX
  8
0
  5
AB33
 10
83.4254
 20
229.751
 30
0.000000
  70
    32
  0
VERTEX
  8
0
  5
AB34
 10
83.4324
 20
229.745
 30
0.000000
  70
    32
  0
VERTEX
  8
0
  5
AB35
 10
83.4394
 20
229.739
 30
0.000000
  70
    32
  0
VERTEX
  8
0
  5
AB36
 10
83.4466
 20
229.732
 30
0.000000
  70
    32
  0
VERTEX
  8
0
  5
AB37
 10
83.4538
 20
229.726
 30
0.000000
  70
    32
  0
VERTEX
  8
0
  5
AB38
 10
83.4610
 20
229.720
 30
0.000000
  70
    32
  0
VERTEX
  8
0
  5
AB39
 10
83.4684
 20
229.714
 30
0.000000
  70
    32
  0
VERTEX
  8
0
  5
AB3A
 10
83.4758
 20
229.707
 30
0.000000
  70
    32
  0
VERTEX
  8
0
  5
AB3B
 10
83.4833
 20
229.701
 30
0.000000
  70
    32
  0
VERTEX
  8
0
  5
AB3C
 10
83.4909
 20
229.695
 30
0.000000
  70
    32
  0
VERTEX
  8
0
  5
AB3D
 10
83.4985
 20
229.689
 30
0.000000
  70
    32
  0
VERTEX
  8
0
  5
AB3E
 10
83.5063
 20
229.683
 30
0.000000
  70
    32
  0
VERTEX
  8
0
  5
AB3F
 10
83.5141
 20
229.676
 30
0.000000
  70
    32
  0
VERTEX
  8
0
  5
AB40
 10
83.5219
 20
229.670
 30
0.000000
  70
    32
  0
VERTEX
  8
0
  5
AB41
 10
83.5299
 20
229.664
 30
0.000000
  70
    32
  0
VERTEX
  8
0
  5
AB42
 10
83.5379
 20
229.658
 30
0.000000
  70
    32
  0
VERTEX
  8
0
  5
AB43
 10
83.5460
 20
229.652
 30
0.000000
  70
    32
  0
VERTEX
  8
0
  5
AB44
 10
83.5542
 20
229.646
 30
0.000000
  70
    32
  0
VERTEX
  8
0
  5
AB45
 10
83.5624
 20
229.639
 30
0.000000
  70
    32
  0
VERTEX
  8
0
  5
AB46
 10
83.5707
 20
229.633
 30
0.000000
  70
    32
  0
VERTEX
  8
0
  5
AB47
 10
83.5791
 20
229.627
 30
0.000000
  70
    32
  0
VERTEX
  8
0
  5
AB48
 10
83.5876
 20
229.621
 30
0.000000
  70
    32
  0
VERTEX
  8
0
  5
AB49
 10
83.5961
 20
229.615
 30
0.000000
  70
    32
  0
VERTEX
  8
0
  5
AB4A
 10
83.6047
 20
229.609
 30
0.000000
  70
    32
  0
VERTEX
  8
0
  5
AB4B
 10
83.6134
 20
229.603
 30
0.000000
  70
    32
  0
VERTEX
  8
0
  5
AB4C
 10
83.6221
 20
229.597
 30
0.000000
  70
    32
  0
VERTEX
  8
0
  5
AB4D
 10
83.6310
 20
229.590
 30
0.000000
  70
    32
  0
VERTEX
  8
0
  5
AB4E
 10
83.6399
 20
229.584
 30
0.000000
  70
    32
  0
VERTEX
  8
0
  5
AB4F
 10
83.6488
 20
229.578
 30
0.000000
  70
    32
  0
VERTEX
  8
0
  5
AB50
 10
83.6579
 20
229.572
 30
0.000000
  70
    32
  0
VERTEX
  8
0
  5
AB51
 10
83.6670
 20
229.566
 30
0.000000
  70
    32
  0
VERTEX
  8
0
  5
AB52
 10
83.6762
 20
229.560
 30
0.000000
  70
    32
  0
VERTEX
  8
0
  5
AB53
 10
83.6854
 20
229.554
 30
0.000000
  70
    32
  0
VERTEX
  8
0
  5
AB54
 10
83.6948
 20
229.548
 30
0.000000
  70
    32
  0
VERTEX
  8
0
  5
AB55
 10
83.7042
 20
229.542
 30
0.000000
  70
    32
  0
VERTEX
  8
0
  5
AB56
 10
83.7137
 20
229.536
 30
0.000000
  70
    32
  0
VERTEX
  8
0
  5
AB57
 10
83.7232
 20
229.530
 30
0.000000
  70
    32
  0
VERTEX
  8
0
  5
AB58
 10
83.7328
 20
229.524
 30
0.000000
  70
    32
  0
VERTEX
  8
0
  5
AB59
 10
83.7425
 20
229.518
 30
0.000000
  70
    32
  0
SEQEND
  8
0
  5
AB5A
  0
LINE
  5
87FC
  8
0
 10
90.429208665743801
 20
225.39887986523999
 30
0.0
 11
83.742513342139034
 21
229.5179482523844
 31
0.0
  0
POLYLINE
  5
87FD
  8
0
 10
91.060861003941469
 20
224.58488787206423
 30
0.0
 66
     1
 70
     8
  0
VERTEX
  8
0
  5
AB5B
 10
91.0609
 20
224.585
 30
0.000000
  70
    32
  0
VERTEX
  8
0
  5
AB5C
 10
91.0608
 20
224.591
 30
0.000000
  70
    32
  0
VERTEX
  8
0
  5
AB5D
 10
91.0607
 20
224.598
 30
0.000000
  70
    32
  0
VERTEX
  8
0
  5
AB5E
 10
91.0605
 20
224.605
 30
0.000000
  70
    32
  0
VERTEX
  8
0
  5
AB5F
 10
91.0602
 20
224.611
 30
0.000000
  70
    32
  0
VERTEX
  8
0
  5
AB60
 10
91.0599
 20
224.618
 30
0.000000
  70
    32
  0
VERTEX
  8
0
  5
AB61
 10
91.0595
 20
224.624
 30
0.000000
  70
    32
  0
VERTEX
  8
0
  5
AB62
 10
91.0589
 20
224.631
 30
0.000000
  70
    32
  0
VERTEX
  8
0
  5
AB63
 10
91.0584
 20
224.637
 30
0.000000
  70
    32
  0
VERTEX
  8
0
  5
AB64
 10
91.0577
 20
224.644
 30
0.000000
  70
    32
  0
VERTEX
  8
0
  5
AB65
 10
91.0570
 20
224.650
 30
0.000000
  70
    32
  0
VERTEX
  8
0
  5
AB66
 10
91.0561
 20
224.657
 30
0.000000
  70
    32
  0
VERTEX
  8
0
  5
AB67
 10
91.0552
 20
224.663
 30
0.000000
  70
    32
  0
VERTEX
  8
0
  5
AB68
 10
91.0543
 20
224.670
 30
0.000000
  70
    32
  0
VERTEX
  8
0
  5
AB69
 10
91.0532
 20
224.676
 30
0.000000
  70
    32
  0
VERTEX
  8
0
  5
AB6A
 10
91.0521
 20
224.683
 30
0.000000
  70
    32
  0
VERTEX
  8
0
  5
AB6B
 10
91.0509
 20
224.690
 30
0.000000
  70
    32
  0
VERTEX
  8
0
  5
AB6C
 10
91.0496
 20
224.696
 30
0.000000
  70
    32
  0
VERTEX
  8
0
  5
AB6D
 10
91.0482
 20
224.703
 30
0.000000
  70
    32
  0
VERTEX
  8
0
  5
AB6E
 10
91.0467
 20
224.709
 30
0.000000
  70
    32
  0
VERTEX
  8
0
  5
AB6F
 10
91.0452
 20
224.716
 30
0.000000
  70
    32
  0
VERTEX
  8
0
  5
AB70
 10
91.0436
 20
224.722
 30
0.000000
  70
    32
  0
VERTEX
  8
0
  5
AB71
 10
91.0419
 20
224.729
 30
0.000000
  70
    32
  0
VERTEX
  8
0
  5
AB72
 10
91.0402
 20
224.735
 30
0.000000
  70
    32
  0
VERTEX
  8
0
  5
AB73
 10
91.0383
 20
224.742
 30
0.000000
  70
    32
  0
VERTEX
  8
0
  5
AB74
 10
91.0364
 20
224.748
 30
0.000000
  70
    32
  0
VERTEX
  8
0
  5
AB75
 10
91.0344
 20
224.755
 30
0.000000
  70
    32
  0
VERTEX
  8
0
  5
AB76
 10
91.0324
 20
224.761
 30
0.000000
  70
    32
  0
VERTEX
  8
0
  5
AB77
 10
91.0302
 20
224.768
 30
0.000000
  70
    32
  0
VERTEX
  8
0
  5
AB78
 10
91.0280
 20
224.774
 30
0.000000
  70
    32
  0
VERTEX
  8
0
  5
AB79
 10
91.0257
 20
224.781
 30
0.000000
  70
    32
  0
VERTEX
  8
0
  5
AB7A
 10
91.0233
 20
224.787
 30
0.000000
  70
    32
  0
VERTEX
  8
0
  5
AB7B
 10
91.0209
 20
224.794
 30
0.000000
  70
    32
  0
VERTEX
  8
0
  5
AB7C
 10
91.0183
 20
224.800
 30
0.000000
  70
    32
  0
VERTEX
  8
0
  5
AB7D
 10
91.0157
 20
224.807
 30
0.000000
  70
    32
  0
VERTEX
  8
0
  5
AB7E
 10
91.0130
 20
224.813
 30
0.000000
  70
    32
  0
VERTEX
  8
0
  5
AB7F
 10
91.0102
 20
224.820
 30
0.000000
  70
    32
  0
VERTEX
  8
0
  5
AB80
 10
91.0074
 20
224.826
 30
0.000000
  70
    32
  0
VERTEX
  8
0
  5
AB81
 10
91.0045
 20
224.833
 30
0.000000
  70
    32
  0
VERTEX
  8
0
  5
AB82
 10
91.0015
 20
224.839
 30
0.000000
  70
    32
  0
VERTEX
  8
0
  5
AB83
 10
90.9984
 20
224.846
 30
0.000000
  70
    32
  0
VERTEX
  8
0
  5
AB84
 10
90.9952
 20
224.852
 30
0.000000
  70
    32
  0
VERTEX
  8
0
  5
AB85
 10
90.9920
 20
224.859
 30
0.000000
  70
    32
  0
VERTEX
  8
0
  5
AB86
 10
90.9887
 20
224.865
 30
0.000000
  70
    32
  0
VERTEX
  8
0
  5
AB87
 10
90.9853
 20
224.872
 30
0.000000
  70
    32
  0
VERTEX
  8
0
  5
AB88
 10
90.9818
 20
224.878
 30
0.000000
  70
    32
  0
VERTEX
  8
0
  5
AB89
 10
90.9783
 20
224.885
 30
0.000000
  70
    32
  0
VERTEX
  8
0
  5
AB8A
 10
90.9746
 20
224.891
 30
0.000000
  70
    32
  0
VERTEX
  8
0
  5
AB8B
 10
90.9709
 20
224.898
 30
0.000000
  70
    32
  0
VERTEX
  8
0
  5
AB8C
 10
90.9672
 20
224.904
 30
0.000000
  70
    32
  0
VERTEX
  8
0
  5
AB8D
 10
90.9633
 20
224.911
 30
0.000000
  70
    32
  0
VERTEX
  8
0
  5
AB8E
 10
90.9594
 20
224.917
 30
0.000000
  70
    32
  0
VERTEX
  8
0
  5
AB8F
 10
90.9554
 20
224.924
 30
0.000000
  70
    32
  0
VERTEX
  8
0
  5
AB90
 10
90.9513
 20
224.930
 30
0.000000
  70
    32
  0
VERTEX
  8
0
  5
AB91
 10
90.9471
 20
224.936
 30
0.000000
  70
    32
  0
VERTEX
  8
0
  5
AB92
 10
90.9429
 20
224.943
 30
0.000000
  70
    32
  0
VERTEX
  8
0
  5
AB93
 10
90.9386
 20
224.949
 30
0.000000
  70
    32
  0
VERTEX
  8
0
  5
AB94
 10
90.9342
 20
224.956
 30
0.000000
  70
    32
  0
VERTEX
  8
0
  5
AB95
 10
90.9297
 20
224.962
 30
0.000000
  70
    32
  0
VERTEX
  8
0
  5
AB96
 10
90.9251
 20
224.969
 30
0.000000
  70
    32
  0
VERTEX
  8
0
  5
AB97
 10
90.9205
 20
224.975
 30
0.000000
  70
    32
  0
VERTEX
  8
0
  5
AB98
 10
90.9158
 20
224.982
 30
0.000000
  70
    32
  0
VERTEX
  8
0
  5
AB99
 10
90.9110
 20
224.988
 30
0.000000
  70
    32
  0
VERTEX
  8
0
  5
AB9A
 10
90.9062
 20
224.994
 30
0.000000
  70
    32
  0
VERTEX
  8
0
  5
AB9B
 10
90.9012
 20
225.001
 30
0.000000
  70
    32
  0
VERTEX
  8
0
  5
AB9C
 10
90.8962
 20
225.007
 30
0.000000
  70
    32
  0
VERTEX
  8
0
  5
AB9D
 10
90.8912
 20
225.014
 30
0.000000
  70
    32
  0
VERTEX
  8
0
  5
AB9E
 10
90.8860
 20
225.020
 30
0.000000
  70
    32
  0
VERTEX
  8
0
  5
AB9F
 10
90.8808
 20
225.026
 30
0.000000
  70
    32
  0
VERTEX
  8
0
  5
ABA0
 10
90.8754
 20
225.033
 30
0.000000
  70
    32
  0
VERTEX
  8
0
  5
ABA1
 10
90.8701
 20
225.039
 30
0.000000
  70
    32
  0
VERTEX
  8
0
  5
ABA2
 10
90.8646
 20
225.045
 30
0.000000
  70
    32
  0
VERTEX
  8
0
  5
ABA3
 10
90.8590
 20
225.052
 30
0.000000
  70
    32
  0
VERTEX
  8
0
  5
ABA4
 10
90.8534
 20
225.058
 30
0.000000
  70
    32
  0
VERTEX
  8
0
  5
ABA5
 10
90.8477
 20
225.065
 30
0.000000
  70
    32
  0
VERTEX
  8
0
  5
ABA6
 10
90.8420
 20
225.071
 30
0.000000
  70
    32
  0
VERTEX
  8
0
  5
ABA7
 10
90.8361
 20
225.077
 30
0.000000
  70
    32
  0
VERTEX
  8
0
  5
ABA8
 10
90.8302
 20
225.084
 30
0.000000
  70
    32
  0
VERTEX
  8
0
  5
ABA9
 10
90.8242
 20
225.090
 30
0.000000
  70
    32
  0
VERTEX
  8
0
  5
ABAA
 10
90.8181
 20
225.096
 30
0.000000
  70
    32
  0
VERTEX
  8
0
  5
ABAB
 10
90.8120
 20
225.103
 30
0.000000
  70
    32
  0
VERTEX
  8
0
  5
ABAC
 10
90.8057
 20
225.109
 30
0.000000
  70
    32
  0
VERTEX
  8
0
  5
ABAD
 10
90.7994
 20
225.115
 30
0.000000
  70
    32
  0
VERTEX
  8
0
  5
ABAE
 10
90.7931
 20
225.122
 30
0.000000
  70
    32
  0
VERTEX
  8
0
  5
ABAF
 10
90.7866
 20
225.128
 30
0.000000
  70
    32
  0
VERTEX
  8
0
  5
ABB0
 10
90.7801
 20
225.134
 30
0.000000
  70
    32
  0
VERTEX
  8
0
  5
ABB1
 10
90.7735
 20
225.140
 30
0.000000
  70
    32
  0
VERTEX
  8
0
  5
ABB2
 10
90.7668
 20
225.147
 30
0.000000
  70
    32
  0
VERTEX
  8
0
  5
ABB3
 10
90.7601
 20
225.153
 30
0.000000
  70
    32
  0
VERTEX
  8
0
  5
ABB4
 10
90.7532
 20
225.159
 30
0.000000
  70
    32
  0
VERTEX
  8
0
  5
ABB5
 10
90.7463
 20
225.166
 30
0.000000
  70
    32
  0
VERTEX
  8
0
  5
ABB6
 10
90.7393
 20
225.172
 30
0.000000
  70
    32
  0
VERTEX
  8
0
  5
ABB7
 10
90.7323
 20
225.178
 30
0.000000
  70
    32
  0
VERTEX
  8
0
  5
ABB8
 10
90.7252
 20
225.184
 30
0.000000
  70
    32
  0
VERTEX
  8
0
  5
ABB9
 10
90.7180
 20
225.191
 30
0.000000
  70
    32
  0
VERTEX
  8
0
  5
ABBA
 10
90.7107
 20
225.197
 30
0.000000
  70
    32
  0
VERTEX
  8
0
  5
ABBB
 10
90.7033
 20
225.203
 30
0.000000
  70
    32
  0
VERTEX
  8
0
  5
ABBC
 10
90.6959
 20
225.209
 30
0.000000
  70
    32
  0
VERTEX
  8
0
  5
ABBD
 10
90.6884
 20
225.216
 30
0.000000
  70
    32
  0
VERTEX
  8
0
  5
ABBE
 10
90.6808
 20
225.222
 30
0.000000
  70
    32
  0
VERTEX
  8
0
  5
ABBF
 10
90.6732
 20
225.228
 30
0.000000
  70
    32
  0
VERTEX
  8
0
  5
ABC0
 10
90.6655
 20
225.234
 30
0.000000
  70
    32
  0
VERTEX
  8
0
  5
ABC1
 10
90.6577
 20
225.240
 30
0.000000
  70
    32
  0
VERTEX
  8
0
  5
ABC2
 10
90.6498
 20
225.247
 30
0.000000
  70
    32
  0
VERTEX
  8
0
  5
ABC3
 10
90.6418
 20
225.253
 30
0.000000
  70
    32
  0
VERTEX
  8
0
  5
ABC4
 10
90.6338
 20
225.259
 30
0.000000
  70
    32
  0
VERTEX
  8
0
  5
ABC5
 10
90.6257
 20
225.265
 30
0.000000
  70
    32
  0
VERTEX
  8
0
  5
ABC6
 10
90.6176
 20
225.271
 30
0.000000
  70
    32
  0
VERTEX
  8
0
  5
ABC7
 10
90.6093
 20
225.277
 30
0.000000
  70
    32
  0
VERTEX
  8
0
  5
ABC8
 10
90.6010
 20
225.284
 30
0.000000
  70
    32
  0
VERTEX
  8
0
  5
ABC9
 10
90.5926
 20
225.290
 30
0.000000
  70
    32
  0
VERTEX
  8
0
  5
ABCA
 10
90.5842
 20
225.296
 30
0.000000
  70
    32
  0
VERTEX
  8
0
  5
ABCB
 10
90.5756
 20
225.302
 30
0.000000
  70
    32
  0
VERTEX
  8
0
  5
ABCC
 10
90.5670
 20
225.308
 30
0.000000
  70
    32
  0
VERTEX
  8
0
  5
ABCD
 10
90.5583
 20
225.314
 30
0.000000
  70
    32
  0
VERTEX
  8
0
  5
ABCE
 10
90.5496
 20
225.320
 30
0.000000
  70
    32
  0
VERTEX
  8
0
  5
ABCF
 10
90.5408
 20
225.326
 30
0.000000
  70
    32
  0
VERTEX
  8
0
  5
ABD0
 10
90.5319
 20
225.332
 30
0.000000
  70
    32
  0
VERTEX
  8
0
  5
ABD1
 10
90.5229
 20
225.339
 30
0.000000
  70
    32
  0
VERTEX
  8
0
  5
ABD2
 10
90.5139
 20
225.345
 30
0.000000
  70
    32
  0
VERTEX
  8
0
  5
ABD3
 10
90.5047
 20
225.351
 30
0.000000
  70
    32
  0
VERTEX
  8
0
  5
ABD4
 10
90.4955
 20
225.357
 30
0.000000
  70
    32
  0
VERTEX
  8
0
  5
ABD5
 10
90.4863
 20
225.363
 30
0.000000
  70
    32
  0
VERTEX
  8
0
  5
ABD6
 10
90.4770
 20
225.369
 30
0.000000
  70
    32
  0
VERTEX
  8
0
  5
ABD7
 10
90.4675
 20
225.375
 30
0.000000
  70
    32
  0
VERTEX
  8
0
  5
ABD8
 10
90.4581
 20
225.381
 30
0.000000
  70
    32
  0
VERTEX
  8
0
  5
ABD9
 10
90.4485
 20
225.387
 30
0.000000
  70
    32
  0
VERTEX
  8
0
  5
ABDA
 10
90.4389
 20
225.393
 30
0.000000
  70
    32
  0
VERTEX
  8
0
  5
ABDB
 10
90.4292
 20
225.399
 30
0.000000
  70
    32
  0
SEQEND
  8
0
  5
ABDC
  0
POLYLINE
  5
87FE
  8
0
 10
88.560861003941454
 20
224.5848878720642
 30
0.0
 66
     1
 70
     8
  0
VERTEX
  8
0
  5
ABDD
 10
88.5609
 20
224.585
 30
0.000000
  70
    32
  0
VERTEX
  8
0
  5
ABDE
 10
88.5608
 20
224.589
 30
0.000000
  70
    32
  0
VERTEX
  8
0
  5
ABDF
 10
88.5608
 20
224.593
 30
0.000000
  70
    32
  0
VERTEX
  8
0
  5
ABE0
 10
88.5606
 20
224.598
 30
0.000000
  70
    32
  0
VERTEX
  8
0
  5
ABE1
 10
88.5605
 20
224.602
 30
0.000000
  70
    32
  0
VERTEX
  8
0
  5
ABE2
 10
88.5602
 20
224.606
 30
0.000000
  70
    32
  0
VERTEX
  8
0
  5
ABE3
 10
88.5600
 20
224.610
 30
0.000000
  70
    32
  0
VERTEX
  8
0
  5
ABE4
 10
88.5597
 20
224.615
 30
0.000000
  70
    32
  0
VERTEX
  8
0
  5
ABE5
 10
88.5593
 20
224.619
 30
0.000000
  70
    32
  0
VERTEX
  8
0
  5
ABE6
 10
88.5589
 20
224.623
 30
0.000000
  70
    32
  0
VERTEX
  8
0
  5
ABE7
 10
88.5584
 20
224.627
 30
0.000000
  70
    32
  0
VERTEX
  8
0
  5
ABE8
 10
88.5579
 20
224.631
 30
0.000000
  70
    32
  0
VERTEX
  8
0
  5
ABE9
 10
88.5573
 20
224.636
 30
0.000000
  70
    32
  0
VERTEX
  8
0
  5
ABEA
 10
88.5567
 20
224.640
 30
0.000000
  70
    32
  0
VERTEX
  8
0
  5
ABEB
 10
88.5560
 20
224.644
 30
0.000000
  70
    32
  0
VERTEX
  8
0
  5
ABEC
 10
88.5553
 20
224.648
 30
0.000000
  70
    32
  0
VERTEX
  8
0
  5
ABED
 10
88.5546
 20
224.653
 30
0.000000
  70
    32
  0
VERTEX
  8
0
  5
ABEE
 10
88.5538
 20
224.657
 30
0.000000
  70
    32
  0
VERTEX
  8
0
  5
ABEF
 10
88.5529
 20
224.661
 30
0.000000
  70
    32
  0
VERTEX
  8
0
  5
ABF0
 10
88.5520
 20
224.665
 30
0.000000
  70
    32
  0
VERTEX
  8
0
  5
ABF1
 10
88.5510
 20
224.670
 30
0.000000
  70
    32
  0
VERTEX
  8
0
  5
ABF2
 10
88.5500
 20
224.674
 30
0.000000
  70
    32
  0
VERTEX
  8
0
  5
ABF3
 10
88.5490
 20
224.678
 30
0.000000
  70
    32
  0
VERTEX
  8
0
  5
ABF4
 10
88.5479
 20
224.682
 30
0.000000
  70
    32
  0
VERTEX
  8
0
  5
ABF5
 10
88.5467
 20
224.686
 30
0.000000
  70
    32
  0
VERTEX
  8
0
  5
ABF6
 10
88.5455
 20
224.691
 30
0.000000
  70
    32
  0
VERTEX
  8
0
  5
ABF7
 10
88.5442
 20
224.695
 30
0.000000
  70
    32
  0
VERTEX
  8
0
  5
ABF8
 10
88.5429
 20
224.699
 30
0.000000
  70
    32
  0
VERTEX
  8
0
  5
ABF9
 10
88.5416
 20
224.703
 30
0.000000
  70
    32
  0
VERTEX
  8
0
  5
ABFA
 10
88.5402
 20
224.708
 30
0.000000
  70
    32
  0
VERTEX
  8
0
  5
ABFB
 10
88.5387
 20
224.712
 30
0.000000
  70
    32
  0
VERTEX
  8
0
  5
ABFC
 10
88.5372
 20
224.716
 30
0.000000
  70
    32
  0
VERTEX
  8
0
  5
ABFD
 10
88.5357
 20
224.720
 30
0.000000
  70
    32
  0
VERTEX
  8
0
  5
ABFE
 10
88.5341
 20
224.724
 30
0.000000
  70
    32
  0
VERTEX
  8
0
  5
ABFF
 10
88.5325
 20
224.729
 30
0.000000
  70
    32
  0
VERTEX
  8
0
  5
AC00
 10
88.5308
 20
224.733
 30
0.000000
  70
    32
  0
VERTEX
  8
0
  5
AC01
 10
88.5290
 20
224.737
 30
0.000000
  70
    32
  0
VERTEX
  8
0
  5
AC02
 10
88.5272
 20
224.741
 30
0.000000
  70
    32
  0
VERTEX
  8
0
  5
AC03
 10
88.5254
 20
224.746
 30
0.000000
  70
    32
  0
VERTEX
  8
0
  5
AC04
 10
88.5235
 20
224.750
 30
0.000000
  70
    32
  0
VERTEX
  8
0
  5
AC05
 10
88.5216
 20
224.754
 30
0.000000
  70
    32
  0
VERTEX
  8
0
  5
AC06
 10
88.5196
 20
224.758
 30
0.000000
  70
    32
  0
VERTEX
  8
0
  5
AC07
 10
88.5175
 20
224.762
 30
0.000000
  70
    32
  0
VERTEX
  8
0
  5
AC08
 10
88.5155
 20
224.767
 30
0.000000
  70
    32
  0
VERTEX
  8
0
  5
AC09
 10
88.5133
 20
224.771
 30
0.000000
  70
    32
  0
VERTEX
  8
0
  5
AC0A
 10
88.5111
 20
224.775
 30
0.000000
  70
    32
  0
VERTEX
  8
0
  5
AC0B
 10
88.5089
 20
224.779
 30
0.000000
  70
    32
  0
VERTEX
  8
0
  5
AC0C
 10
88.5066
 20
224.783
 30
0.000000
  70
    32
  0
VERTEX
  8
0
  5
AC0D
 10
88.5043
 20
224.788
 30
0.000000
  70
    32
  0
VERTEX
  8
0
  5
AC0E
 10
88.5019
 20
224.792
 30
0.000000
  70
    32
  0
VERTEX
  8
0
  5
AC0F
 10
88.4995
 20
224.796
 30
0.000000
  70
    32
  0
VERTEX
  8
0
  5
AC10
 10
88.4970
 20
224.800
 30
0.000000
  70
    32
  0
VERTEX
  8
0
  5
AC11
 10
88.4945
 20
224.804
 30
0.000000
  70
    32
  0
VERTEX
  8
0
  5
AC12
 10
88.4919
 20
224.808
 30
0.000000
  70
    32
  0
VERTEX
  8
0
  5
AC13
 10
88.4893
 20
224.813
 30
0.000000
  70
    32
  0
VERTEX
  8
0
  5
AC14
 10
88.4866
 20
224.817
 30
0.000000
  70
    32
  0
VERTEX
  8
0
  5
AC15
 10
88.4839
 20
224.821
 30
0.000000
  70
    32
  0
VERTEX
  8
0
  5
AC16
 10
88.4812
 20
224.825
 30
0.000000
  70
    32
  0
VERTEX
  8
0
  5
AC17
 10
88.4784
 20
224.829
 30
0.000000
  70
    32
  0
VERTEX
  8
0
  5
AC18
 10
88.4755
 20
224.833
 30
0.000000
  70
    32
  0
VERTEX
  8
0
  5
AC19
 10
88.4726
 20
224.838
 30
0.000000
  70
    32
  0
VERTEX
  8
0
  5
AC1A
 10
88.4696
 20
224.842
 30
0.000000
  70
    32
  0
VERTEX
  8
0
  5
AC1B
 10
88.4666
 20
224.846
 30
0.000000
  70
    32
  0
VERTEX
  8
0
  5
AC1C
 10
88.4636
 20
224.850
 30
0.000000
  70
    32
  0
VERTEX
  8
0
  5
AC1D
 10
88.4605
 20
224.854
 30
0.000000
  70
    32
  0
VERTEX
  8
0
  5
AC1E
 10
88.4573
 20
224.858
 30
0.000000
  70
    32
  0
VERTEX
  8
0
  5
AC1F
 10
88.4541
 20
224.863
 30
0.000000
  70
    32
  0
VERTEX
  8
0
  5
AC20
 10
88.4509
 20
224.867
 30
0.000000
  70
    32
  0
VERTEX
  8
0
  5
AC21
 10
88.4476
 20
224.871
 30
0.000000
  70
    32
  0
VERTEX
  8
0
  5
AC22
 10
88.4442
 20
224.875
 30
0.000000
  70
    32
  0
VERTEX
  8
0
  5
AC23
 10
88.4408
 20
224.879
 30
0.000000
  70
    32
  0
VERTEX
  8
0
  5
AC24
 10
88.4374
 20
224.883
 30
0.000000
  70
    32
  0
VERTEX
  8
0
  5
AC25
 10
88.4339
 20
224.887
 30
0.000000
  70
    32
  0
VERTEX
  8
0
  5
AC26
 10
88.4304
 20
224.892
 30
0.000000
  70
    32
  0
VERTEX
  8
0
  5
AC27
 10
88.4268
 20
224.896
 30
0.000000
  70
    32
  0
VERTEX
  8
0
  5
AC28
 10
88.4232
 20
224.900
 30
0.000000
  70
    32
  0
VERTEX
  8
0
  5
AC29
 10
88.4195
 20
224.904
 30
0.000000
  70
    32
  0
VERTEX
  8
0
  5
AC2A
 10
88.4157
 20
224.908
 30
0.000000
  70
    32
  0
VERTEX
  8
0
  5
AC2B
 10
88.4120
 20
224.912
 30
0.000000
  70
    32
  0
VERTEX
  8
0
  5
AC2C
 10
88.4082
 20
224.916
 30
0.000000
  70
    32
  0
VERTEX
  8
0
  5
AC2D
 10
88.4043
 20
224.920
 30
0.000000
  70
    32
  0
VERTEX
  8
0
  5
AC2E
 10
88.4004
 20
224.924
 30
0.000000
  70
    32
  0
VERTEX
  8
0
  5
AC2F
 10
88.3964
 20
224.929
 30
0.000000
  70
    32
  0
VERTEX
  8
0
  5
AC30
 10
88.3924
 20
224.933
 30
0.000000
  70
    32
  0
VERTEX
  8
0
  5
AC31
 10
88.3883
 20
224.937
 30
0.000000
  70
    32
  0
VERTEX
  8
0
  5
AC32
 10
88.3842
 20
224.941
 30
0.000000
  70
    32
  0
VERTEX
  8
0
  5
AC33
 10
88.3801
 20
224.945
 30
0.000000
  70
    32
  0
VERTEX
  8
0
  5
AC34
 10
88.3759
 20
224.949
 30
0.000000
  70
    32
  0
VERTEX
  8
0
  5
AC35
 10
88.3716
 20
224.953
 30
0.000000
  70
    32
  0
VERTEX
  8
0
  5
AC36
 10
88.3673
 20
224.957
 30
0.000000
  70
    32
  0
VERTEX
  8
0
  5
AC37
 10
88.3630
 20
224.961
 30
0.000000
  70
    32
  0
VERTEX
  8
0
  5
AC38
 10
88.3586
 20
224.965
 30
0.000000
  70
    32
  0
VERTEX
  8
0
  5
AC39
 10
88.3541
 20
224.969
 30
0.000000
  70
    32
  0
VERTEX
  8
0
  5
AC3A
 10
88.3496
 20
224.973
 30
0.000000
  70
    32
  0
VERTEX
  8
0
  5
AC3B
 10
88.3451
 20
224.977
 30
0.000000
  70
    32
  0
VERTEX
  8
0
  5
AC3C
 10
88.3405
 20
224.982
 30
0.000000
  70
    32
  0
VERTEX
  8
0
  5
AC3D
 10
88.3359
 20
224.986
 30
0.000000
  70
    32
  0
VERTEX
  8
0
  5
AC3E
 10
88.3312
 20
224.990
 30
0.000000
  70
    32
  0
VERTEX
  8
0
  5
AC3F
 10
88.3265
 20
224.994
 30
0.000000
  70
    32
  0
VERTEX
  8
0
  5
AC40
 10
88.3217
 20
224.998
 30
0.000000
  70
    32
  0
VERTEX
  8
0
  5
AC41
 10
88.3169
 20
225.002
 30
0.000000
  70
    32
  0
VERTEX
  8
0
  5
AC42
 10
88.3121
 20
225.006
 30
0.000000
  70
    32
  0
VERTEX
  8
0
  5
AC43
 10
88.3072
 20
225.010
 30
0.000000
  70
    32
  0
VERTEX
  8
0
  5
AC44
 10
88.3022
 20
225.014
 30
0.000000
  70
    32
  0
VERTEX
  8
0
  5
AC45
 10
88.2972
 20
225.018
 30
0.000000
  70
    32
  0
VERTEX
  8
0
  5
AC46
 10
88.2922
 20
225.022
 30
0.000000
  70
    32
  0
VERTEX
  8
0
  5
AC47
 10
88.2871
 20
225.026
 30
0.000000
  70
    32
  0
VERTEX
  8
0
  5
AC48
 10
88.2819
 20
225.030
 30
0.000000
  70
    32
  0
VERTEX
  8
0
  5
AC49
 10
88.2767
 20
225.034
 30
0.000000
  70
    32
  0
VERTEX
  8
0
  5
AC4A
 10
88.2715
 20
225.038
 30
0.000000
  70
    32
  0
VERTEX
  8
0
  5
AC4B
 10
88.2662
 20
225.042
 30
0.000000
  70
    32
  0
VERTEX
  8
0
  5
AC4C
 10
88.2609
 20
225.046
 30
0.000000
  70
    32
  0
VERTEX
  8
0
  5
AC4D
 10
88.2555
 20
225.050
 30
0.000000
  70
    32
  0
VERTEX
  8
0
  5
AC4E
 10
88.2501
 20
225.054
 30
0.000000
  70
    32
  0
VERTEX
  8
0
  5
AC4F
 10
88.2446
 20
225.058
 30
0.000000
  70
    32
  0
VERTEX
  8
0
  5
AC50
 10
88.2391
 20
225.062
 30
0.000000
  70
    32
  0
VERTEX
  8
0
  5
AC51
 10
88.2336
 20
225.066
 30
0.000000
  70
    32
  0
VERTEX
  8
0
  5
AC52
 10
88.2280
 20
225.070
 30
0.000000
  70
    32
  0
VERTEX
  8
0
  5
AC53
 10
88.2223
 20
225.074
 30
0.000000
  70
    32
  0
VERTEX
  8
0
  5
AC54
 10
88.2166
 20
225.078
 30
0.000000
  70
    32
  0
VERTEX
  8
0
  5
AC55
 10
88.2109
 20
225.081
 30
0.000000
  70
    32
  0
VERTEX
  8
0
  5
AC56
 10
88.2051
 20
225.085
 30
0.000000
  70
    32
  0
VERTEX
  8
0
  5
AC57
 10
88.1992
 20
225.089
 30
0.000000
  70
    32
  0
VERTEX
  8
0
  5
AC58
 10
88.1934
 20
225.093
 30
0.000000
  70
    32
  0
VERTEX
  8
0
  5
AC59
 10
88.1874
 20
225.097
 30
0.000000
  70
    32
  0
VERTEX
  8
0
  5
AC5A
 10
88.1815
 20
225.101
 30
0.000000
  70
    32
  0
VERTEX
  8
0
  5
AC5B
 10
88.1755
 20
225.105
 30
0.000000
  70
    32
  0
VERTEX
  8
0
  5
AC5C
 10
88.1694
 20
225.109
 30
0.000000
  70
    32
  0
VERTEX
  8
0
  5
AC5D
 10
88.1633
 20
225.113
 30
0.000000
  70
    32
  0
SEQEND
  8
0
  5
AC5E
  0
LINE
  5
87FF
  8
0
 10
81.207214840409463
 20
229.5400483545526
 30
0.0
 11
88.163291779629404
 21
225.1128157994026
 31
0.0
  0
POLYLINE
  5
8804
  8
0
 66
     1
 10
0.0
 20
0.0
 30
0.0
 70
   128
  0
VERTEX
  5
A76D
  8
0
 10
88.210861003941716
 20
203.6418386313895
 30
0.0
  0
VERTEX
  5
A76E
  8
0
 10
88.438325130447737
 20
203.52788987924029
 30
0.0
  0
VERTEX
  5
A76F
  8
0
 10
88.552404046830816
 20
203.131432629383
 30
0.0
  0
VERTEX
  5
A770
  8
0
 10
88.56086100394154
 20
202.90209113022391
 30
0.0
  0
SEQEND
  5
A771
  8
0
  0
POLYLINE
  5
8805
  8
0
 66
     1
 10
0.0
 20
0.0
 30
0.0
 70
   128
  0
VERTEX
  5
A772
  8
0
 10
72.910861003941733
 20
203.6418386313897
 30
0.0
  0
VERTEX
  5
A773
  8
0
 10
72.683396877435342
 20
203.52788987924029
 30
0.0
  0
VERTEX
  5
A774
  8
0
 10
72.569317961052263
 20
203.1314326293828
 30
0.0
  0
VERTEX
  5
A775
  8
0
 10
72.56086100394154
 20
202.90209113022379
 30
0.0
  0
SEQEND
  5
A776
  8
0
  0
LINE
  5
8809
  8
0
 10
83.110861003941295
 20
236.0760231527241
 30
0.0
 11
78.010861003941301
 21
236.07602315272399
 31
0.0
  0
POLYLINE
  5
880C
  8
0
 66
     1
 10
0.0
 20
0.0
 30
0.0
 70
   128
  0
VERTEX
  5
A777
  8
0
 10
83.810861003941767
 20
195.67602315272401
 30
0.0
  0
VERTEX
  5
A778
  8
0
 10
82.185861003941767
 20
195.82926028474409
 30
0.0
  0
VERTEX
  5
A779
  8
0
 10
80.560861003941767
 20
196.2565797363248
 30
0.0
  0
SEQEND
  5
A77A
  8
0
  0
LINE
  5
880D
  8
0
 10
80.560861003941724
 20
196.2565797363248
 30
0.0
 11
80.560861041456661
 21
199.09546658162819
 31
0.0
  0
POLYLINE
  5
880E
  8
0
 66
     1
 10
0.0
 20
0.0
 30
0.0
 70
   128
  0
VERTEX
  5
A77B
  8
0
 10
80.560861078971584
 20
199.0954665941332
 30
0.0
  0
VERTEX
  5
A77C
  8
0
 10
82.15312788925695
 20
199.51667748449461
 30
0.0
  0
VERTEX
  5
A77D
  8
0
 10
83.810861003941739
 20
199.67602315272401
 30
0.0
  0
SEQEND
  5
A77E
  8
0
  0
POLYLINE
  5
880F
  8
0
 66
     1
 10
0.0
 20
0.0
 30
0.0
 70
   128
  0
VERTEX
  5
A77F
  8
0
 10
83.810861003941739
 20
199.67602315272401
 30
0.0
  0
VERTEX
  5
A780
  8
0
 10
85.435860966426787
 20
199.52278602764059
 30
0.0
  0
VERTEX
  5
A781
  8
0
 10
87.060860928911865
 20
199.09546659413331
 30
0.0
  0
SEQEND
  5
A782
  8
0
  0
POLYLINE
  5
8811
  8
0
 66
     1
 10
0.0
 20
0.0
 30
0.0
 70
   128
  0
VERTEX
  5
A783
  8
0
 10
87.060861003941724
 20
196.2565797363248
 30
0.0
  0
VERTEX
  5
A784
  8
0
 10
85.468594157981556
 20
195.83536882836529
 30
0.0
  0
VERTEX
  5
A785
  8
0
 10
83.810861003941767
 20
195.67602315272401
 30
0.0
  0
SEQEND
  5
A786
  8
0
  0
POLYLINE
  5
8812
  8
0
 66
     1
 10
0.0
 20
0.0
 30
0.0
 70
   128
  0
VERTEX
  5
A787
  8
0
 10
77.31086100394171
 20
195.67602315272401
 30
0.0
  0
VERTEX
  5
A788
  8
0
 10
75.685861003941739
 20
195.82926028474409
 30
0.0
  0
VERTEX
  5
A789
  8
0
 10
74.060861003941767
 20
196.2565797363248
 30
0.0
  0
SEQEND
  5
A78A
  8
0
  0
POLYLINE
  5
8814
  8
0
 66
     1
 10
0.0
 20
0.0
 30
0.0
 70
   128
  0
VERTEX
  5
A78B
  8
0
 10
74.060861078971584
 20
199.0954665941332
 30
0.0
  0
VERTEX
  5
A78C
  8
0
 10
75.653127889256922
 20
199.51667748449461
 30
0.0
  0
VERTEX
  5
A78D
  8
0
 10
77.310861003941739
 20
199.67602315272401
 30
0.0
  0
SEQEND
  5
A78E
  8
0
  0
POLYLINE
  5
8815
  8
0
 66
     1
 10
0.0
 20
0.0
 30
0.0
 70
   128
  0
VERTEX
  5
A78F
  8
0
 10
77.310861003941739
 20
199.67602315272401
 30
0.0
  0
VERTEX
  5
A790
  8
0
 10
78.935861015537114
 20
199.52278601855991
 30
0.0
  0
VERTEX
  5
A791
  8
0
 10
80.560861027132489
 20
199.09546656139301
 30
0.0
  0
SEQEND
  5
A792
  8
0
  0
POLYLINE
  5
8816
  8
0
 66
     1
 10
0.0
 20
0.0
 30
0.0
 70
   128
  0
VERTEX
  5
A793
  8
0
 10
80.560861003941724
 20
196.2565797363248
 30
0.0
  0
VERTEX
  5
A794
  8
0
 10
78.968594157981499
 20
195.83536882836529
 30
0.0
  0
VERTEX
  5
A795
  8
0
 10
77.31086100394171
 20
195.67602315272401
 30
0.0
  0
SEQEND
  5
A796
  8
0
  0
LINE
  5
881B
  8
0
 10
74.060861003941739
 20
195.6760231527239
 30
0.0
 11
87.060861003941724
 21
195.67602315272401
 31
0.0
  0
LINE
  5
881C
  8
0
 10
87.060861003941866
 20
195.67602315272401
 30
0.0
 11
87.060861003941724
 21
199.67602315272401
 31
0.0
  0
LINE
  5
881D
  8
0
 10
74.060861003941739
 20
199.67602315272401
 30
0.0
 11
74.06086100394171
 21
195.6760231527239
 31
0.0
  0
LINE
  5
881E
  8
0
 10
74.060861003941824
 20
172.67602315272401
 30
0.0
 11
87.060861003941866
 21
172.67602315272401
 31
0.0
  0
LINE
  5
881F
  8
0
 10
80.560861003941852
 20
168.14546040085199
 30
0.0
 11
80.560861003941824
 21
172.67602315272401
 31
0.0
  0
POLYLINE
  5
8820
  8
0
 66
     1
 10
0.0
 20
0.0
 30
0.0
 70
   128
  0
VERTEX
  5
A797
  8
0
 10
80.560861003941852
 20
168.14546040085199
 30
0.0
  0
VERTEX
  5
A798
  8
0
 10
78.943167441509956
 20
167.94776903694131
 30
0.0
  0
VERTEX
  5
A799
  8
0
 10
77.310861003941852
 20
167.87602315272409
 30
0.0
  0
SEQEND
  5
A79A
  8
0
  0
POLYLINE
  5
8821
  8
0
 66
     1
 10
0.0
 20
0.0
 30
0.0
 70
   128
  0
VERTEX
  5
A79B
  8
0
 10
77.310861003941852
 20
167.87602315272409
 30
0.0
  0
VERTEX
  5
A79C
  8
0
 10
75.685861003941852
 20
167.94714075319359
 30
0.0
  0
VERTEX
  5
A79D
  8
0
 10
74.060861003941824
 20
168.14546040085199
 30
0.0
  0
SEQEND
  5
A79E
  8
0
  0
LINE
  5
8822
  8
0
 10
74.060861003941824
 20
172.67602315272401
 30
0.0
 11
74.060861003941824
 21
167.876023152724
 31
0.0
  0
LINE
  5
8824
  8
0
 10
87.060861003941866
 20
167.87602315272409
 30
0.0
 11
87.060861003941866
 21
172.67602315272401
 31
0.0
  0
POLYLINE
  5
8825
  8
0
 66
     1
 10
0.0
 20
0.0
 30
0.0
 70
   128
  0
VERTEX
  5
A79F
  8
0
 10
87.060861003941881
 20
168.14546040085199
 30
0.0
  0
VERTEX
  5
A7A0
  8
0
 10
85.443167441509985
 20
167.94776903694139
 30
0.0
  0
VERTEX
  5
A7A1
  8
0
 10
83.810861003941852
 20
167.87602315272409
 30
0.0
  0
SEQEND
  5
A7A2
  8
0
  0
POLYLINE
  5
8826
  8
0
 66
     1
 10
0.0
 20
0.0
 30
0.0
 70
   128
  0
VERTEX
  5
A7A3
  8
0
 10
83.810861003941852
 20
167.87602315272409
 30
0.0
  0
VERTEX
  5
A7A4
  8
0
 10
82.185861003941852
 20
167.94714075319371
 30
0.0
  0
VERTEX
  5
A7A5
  8
0
 10
80.560861003941852
 20
168.14546040085199
 30
0.0
  0
SEQEND
  5
A7A6
  8
0
  0
LINE
  5
8829
  8
0
 10
74.760861003941812
 20
173.17602315272401
 30
0.0
 11
86.360861003941835
 21
173.17602315272401
 31
0.0
  0
LINE
  5
882D
  8
0
 10
74.060861003941824
 20
167.876023152724
 30
0.0
 11
87.060861003941866
 21
167.87602315272409
 31
0.0
  0
LINE
  5
882E
  8
0
 10
84.560861003941639
 20
217.40902315272399
 30
0.0
 11
76.560861003941653
 21
217.40902315272399
 31
0.0
  0
LINE
  5
8830
  8
0
 10
83.793861003969027
 20
218.1760231527094
 30
0.0
 11
77.327861003914279
 21
218.1760231527094
 31
0.0
  0
LINE
  5
8837
  8
0
 10
500.10086100394273
 20
178.16602315272399
 30
0.0
 11
500.10086100394273
 21
173.1760231527241
 31
0.0
  0
LINE
  5
8838
  8
0
 10
508.10086100394278
 20
173.1760231527241
 30
0.0
 11
508.1008610039429
 21
178.16602315272399
 31
0.0
  0
LINE
  5
883D
  8
0
 10
496.45086100394292
 20
202.94646302935101
 30
0.0
 11
496.45086100394292
 21
202.1760231527241
 31
0.0
  0
LINE
  5
883E
  8
0
 10
511.75086100394287
 20
202.1760231527241
 30
0.0
 11
511.75086100394287
 21
202.94646302935101
 31
0.0
  0
LINE
  5
8855
  8
0
 10
501.5508610039426
 20
199.66602315272411
 30
0.0
 11
501.60086100394273
 21
199.66602315272411
 31
0.0
  0
LINE
  5
8856
  8
0
 10
501.5508610039426
 20
201.0516966944638
 30
0.0
 11
501.5508610039426
 21
199.66602315272411
 31
0.0
  0
LINE
  5
8857
  8
0
 10
506.65086100394262
 20
199.66602315272411
 30
0.0
 11
506.65086100394262
 21
201.00169669453359
 31
0.0
  0
POLYLINE
  5
8866
  8
0
 66
     1
 10
0.0
 20
0.0
 30
0.0
 70
   128
  0
VERTEX
  5
A7A7
  8
0
 10
493.6030576319053
 20
203.05204101464139
 30
0.0
  0
VERTEX
  5
A7A8
  8
0
 10
493.67098282359109
 20
203.5025412674531
 30
0.0
  0
VERTEX
  5
A7A9
  8
0
 10
493.75249602509552
 20
203.6241493104294
 30
0.0
  0
VERTEX
  5
A7AA
  8
0
 10
493.87244485654219
 20
203.66602315272419
 30
0.0
  0
SEQEND
  5
A7AB
  8
0
  0
LINE
  5
8867
  8
0
 10
493.6030576319053
 20
203.05204101464139
 30
0.0
 11
493.60086100394273
 21
203.17602315272421
 31
0.0
  0
LINE
  5
8868
  8
0
 10
493.60086100394273
 20
203.17602315272421
 30
0.0
 11
493.60086100394273
 21
211.17498608915739
 31
0.0
  0
LINE
  5
8869
  8
0
 10
493.87244485654219
 20
203.66602315272419
 30
0.0
 11
495.64060550276918
 21
203.66602315272419
 31
0.0
  0
LINE
  5
886B
  8
0
 10
514.60086100394267
 20
203.17602315272401
 30
0.0
 11
514.60086100394267
 21
211.17498608915739
 31
0.0
  0
LINE
  5
886C
  8
0
 10
514.60086100394267
 20
203.17602315272401
 30
0.0
 11
514.59866437598021
 21
203.0520410146413
 31
0.0
  0
POLYLINE
  5
886D
  8
0
 66
     1
 10
0.0
 20
0.0
 30
0.0
 70
   128
  0
VERTEX
  5
A7AC
  8
0
 10
514.32927715134315
 20
203.66602315272399
 30
0.0
  0
VERTEX
  5
A7AD
  8
0
 10
514.52394563999655
 20
203.5186762492053
 30
0.0
  0
VERTEX
  5
A7AE
  8
0
 10
514.57561169788858
 20
203.3271315891061
 30
0.0
  0
VERTEX
  5
A7AF
  8
0
 10
514.59866437598021
 20
203.0520410146413
 30
0.0
  0
SEQEND
  5
A7B0
  8
0
  0
LINE
  5
886E
  8
0
 10
512.56111650511787
 20
203.66602315272459
 30
0.0
 11
514.32927715134315
 21
203.66602315272399
 31
0.0
  0
POLYLINE
  5
8870
  8
0
 66
     1
 10
0.0
 20
0.0
 30
0.0
 70
   128
  0
VERTEX
  5
A7B1
  8
0
 10
512.09922479222701
 20
202.94646302935101
 30
0.0
  0
VERTEX
  5
A7B2
  8
0
 10
512.10086100394267
 20
202.90209113022391
 30
0.0
  0
SEQEND
  5
A7B3
  8
0
  0
POLYLINE
  5
8871
  8
0
 66
     1
 10
0.0
 20
0.0
 30
0.0
 70
   128
  0
VERTEX
  5
A7B4
  8
0
 10
496.1024972156585
 20
202.94646302935101
 30
0.0
  0
VERTEX
  5
A7B5
  8
0
 10
496.10086100394273
 20
202.90209113022399
 30
0.0
  0
SEQEND
  5
A7B6
  8
0
  0
ARC
  5
8872
  8
0
 10
511.10086100394261
 20
203.17602315272421
 30
0.0
 40
3.4999999999999938
 50
314.18090954933092
 51
357.96996007900009
  0
ARC
  5
8873
  8
0
 10
497.10086100394318
 20
203.17602315272441
 30
0.0
 40
3.5000000000005982
 50
182.03003992100631
 51
225.8190904506645
  0
LINE
  5
8874
  8
0
 10
496.10086100394273
 20
202.1760231527241
 30
0.0
 11
496.10086100394273
 21
202.90209113022399
 31
0.0
  0
LINE
  5
8875
  8
0
 10
496.10086100394273
 20
202.1760231527241
 30
0.0
 11
497.05086100394249
 21
202.1760231527243
 31
0.0
  0
LINE
  5
8876
  8
0
 10
511.15086100394262
 20
202.1760231527241
 30
0.0
 11
512.10086100394267
 21
202.1760231527241
 31
0.0
  0
LINE
  5
8877
  8
0
 10
512.10086100394267
 20
202.1760231527241
 30
0.0
 11
512.10086100394267
 21
202.90209113022391
 31
0.0
  0
LINE
  5
887A
  8
0
 10
508.65086100394268
 20
199.6760231527241
 30
0.0
 11
506.65086100394262
 21
199.6760231527241
 31
0.0
  0
LINE
  5
887B
  8
0
 10
501.5508610039426
 20
199.6760231527241
 30
0.0
 11
499.55086100394249
 21
199.6760231527241
 31
0.0
  0
ARC
  5
887C
  8
0
 10
511.10086100394273
 20
203.17602315272421
 30
0.0
 40
3.4999999999999738
 50
270.81853897897088
 51
314.18090954932859
  0
ARC
  5
887D
  8
0
 10
497.10086100394273
 20
203.17602315272421
 30
0.0
 40
3.4999999999999711
 50
225.81909045067371
 51
269.18146102102583
  0
POLYLINE
  5
8892
  8
0
 66
     1
 10
0.0
 20
0.0
 30
0.0
 70
   128
  0
VERTEX
  5
A7B7
  8
0
 10
508.65086100394268
 20
167.93316294420919
 30
0.0
  0
VERTEX
  5
A7B8
  8
0
 10
507.35086100394273
 20
167.87602315272409
 30
0.0
  0
SEQEND
  5
A7B9
  8
0
  0
POLYLINE
  5
8893
  8
0
 66
     1
 10
0.0
 20
0.0
 30
0.0
 70
   128
  0
VERTEX
  5
A7BA
  8
0
 10
507.35086100394273
 20
167.87602315272409
 30
0.0
  0
VERTEX
  5
A7BB
  8
0
 10
505.72586100394273
 20
167.94714075319371
 30
0.0
  0
VERTEX
  5
A7BC
  8
0
 10
504.10086100394273
 20
168.1454604008521
 30
0.0
  0
SEQEND
  5
A7BD
  8
0
  0
LINE
  5
8894
  8
0
 10
504.10086100394273
 20
168.1454604008521
 30
0.0
 11
504.10086100394273
 21
172.6760231527241
 31
0.0
  0
LINE
  5
8895
  8
0
 10
499.55086100394249
 20
172.6760231527241
 30
0.0
 11
508.65086100394268
 21
172.6760231527241
 31
0.0
  0
POLYLINE
  5
8896
  8
0
 66
     1
 10
0.0
 20
0.0
 30
0.0
 70
   128
  0
VERTEX
  5
A7BE
  8
0
 10
504.10086100394273
 20
168.1454604008521
 30
0.0
  0
VERTEX
  5
A7BF
  8
0
 10
502.48316744151077
 20
167.94776903694139
 30
0.0
  0
VERTEX
  5
A7C0
  8
0
 10
500.85086100394261
 20
167.8760231527242
 30
0.0
  0
SEQEND
  5
A7C1
  8
0
  0
POLYLINE
  5
8897
  8
0
 66
     1
 10
0.0
 20
0.0
 30
0.0
 70
   128
  0
VERTEX
  5
A7C2
  8
0
 10
500.85086100394261
 20
167.8760231527242
 30
0.0
  0
VERTEX
  5
A7C3
  8
0
 10
499.55086100394249
 20
167.93291723309989
 30
0.0
  0
SEQEND
  5
A7C4
  8
0
  0
LINE
  5
889A
  8
0
 10
499.5508610039426
 20
173.1760231527241
 30
0.0
 11
508.65086100394268
 21
173.17602315272401
 31
0.0
  0
LINE
  5
889E
  8
0
 10
499.55086100394249
 20
167.8760231527242
 30
0.0
 11
508.65086100394268
 21
167.8760231527242
 31
0.0
  0
ARC
  5
88A2
  8
0
 10
189.060861003941
 20
66.166023152700006
 30
0.0
 40
8.4226497308104005
 50
330.8706651555438
 51
29.12933484445616
  0
ARC
  5
88A3
  8
0
 10
189.06086100394111
 20
66.166023152700006
 30
0.0
 40
8.9999999999999947
 50
160.81186354627741
 51
199.18813645372259
  0
ARC
  5
88A4
  8
0
 10
189.06086100394111
 20
66.166023152700006
 30
0.0
 40
9.0000000000000018
 50
332.89931465176261
 51
27.10068534823737
  0
LINE
  5
88A5
  8
0
 10
180.56086100394111
 20
59.166023152700006
 30
0.0
 11
233.56086100394111
 21
59.166023152700006
 31
0.0
  0
LINE
  5
88A6
  8
0
 10
233.56086100394111
 20
56.726781467257581
 30
0.0
 11
233.56086100394131
 21
75.60526483814391
 31
0.0
  0
POLYLINE
  5
88A7
  8
0
 66
     1
 10
0.0
 20
0.0
 30
0.0
 70
   128
  0
VERTEX
  5
A7C5
  8
0
 10
234.74236746185409
 20
55.668219780662582
 30
0.0
  0
VERTEX
  5
A7C6
  8
0
 10
234.1372056830871
 20
55.7455749731526
 30
0.0
  0
VERTEX
  5
A7C7
  8
0
 10
233.74374121132641
 20
55.99367167763495
 30
0.0
  0
VERTEX
  5
A7C8
  8
0
 10
233.580963521174
 20
56.414624209791732
 30
0.0
  0
VERTEX
  5
A7C9
  8
0
 10
233.56086100394111
 20
56.726781467257581
 30
0.0
  0
SEQEND
  5
A7CA
  8
0
  0
LINE
  5
88A8
  8
0
 10
234.56086100394111
 20
55.666023152699999
 30
0.0
 11
234.74236746185409
 21
55.668219780662582
 31
0.0
  0
LINE
  5
88A9
  8
0
 10
180.560861003941
 20
55.666023152699999
 30
0.0
 11
234.56086100394111
 21
55.666023152699999
 31
0.0
  0
LINE
  5
88AA
  8
0
 10
180.560861003941
 20
55.666023152699999
 30
0.0
 11
180.56086100394111
 21
59.166023152700006
 31
0.0
  0
ARC
  5
88AB
  8
0
 10
226.060861003941
 20
66.166023152700006
 30
0.0
 40
4.1000000000000041
 50
270.0
 51
90.0
  0
LINE
  5
88AC
  8
0
 10
194.19927839972891
 20
70.266023152700029
 30
0.0
 11
226.060861003941
 21
70.266023152700029
 31
0.0
  0
LINE
  5
88AD
  8
0
 10
226.060861003941
 20
62.066023152699977
 30
0.0
 11
194.1992783997286
 21
62.066023152699977
 31
0.0
  0
LINE
  5
88AF
  8
0
 10
180.56086100394111
 20
59.166023152700006
 30
0.0
 11
180.560861003941
 21
73.166023152700006
 31
0.0
  0
LINE
  5
88B0
  8
0
 10
180.560861003941
 20
73.166023152700006
 30
0.0
 11
233.56086100394111
 21
73.166023152700006
 31
0.0
  0
LINE
  5
88B1
  8
0
 10
180.560861003941
 20
76.666023152700006
 30
0.0
 11
234.56086100394111
 21
76.666023152700006
 31
0.0
  0
LINE
  5
88B2
  8
0
 10
234.74236746185409
 20
76.663826524737431
 30
0.0
 11
234.56086100394111
 21
76.666023152700006
 31
0.0
  0
POLYLINE
  5
88B3
  8
0
 66
     1
 10
0.0
 20
0.0
 30
0.0
 70
   128
  0
VERTEX
  5
A7CB
  8
0
 10
233.56086100394111
 20
75.605264838142432
 30
0.0
  0
VERTEX
  5
A7CC
  8
0
 10
233.64148024505459
 20
76.156096936992924
 30
0.0
  0
VERTEX
  5
A7CD
  8
0
 10
233.75963288005309
 20
76.356920574913204
 30
0.0
  0
VERTEX
  5
A7CE
  8
0
 10
233.93786187528349
 20
76.503543228247565
 30
0.0
  0
VERTEX
  5
A7CF
  8
0
 10
234.4235208338624
 20
76.642532845702192
 30
0.0
  0
VERTEX
  5
A7D0
  8
0
 10
234.74236746185409
 20
76.663826524737431
 30
0.0
  0
SEQEND
  5
A7D1
  8
0
  0
LINE
  5
88B5
  8
0
 10
180.560861003941
 20
73.166023152700006
 30
0.0
 11
180.560861003941
 21
76.666023152700006
 31
0.0
  0
LINE
  5
88B8
  8
0
 10
280.65678399331239
 20
68.716023152700586
 30
0.0
 11
256.16188151837468
 21
68.716023152699961
 31
0.0
  0
LINE
  5
88B9
  8
0
 10
256.16188151837468
 20
63.616023152700052
 30
0.0
 11
280.60678399338269
 21
63.616023152700109
 31
0.0
  0
ARC
  5
88C3
  8
0
 10
234.560861003941
 20
69.166023152699097
 30
0.0
 40
7.5000000000009379
 50
74.533990046580584
 51
88.613257413538207
  0
LINE
  5
88C5
  8
0
 10
236.560861003941
 20
73.748872796226294
 30
0.0
 11
236.51473688408311
 21
73.768453928387942
 31
0.0
  0
ARC
  5
88C6
  8
0
 10
234.56086100394089
 20
69.166023152699211
 30
0.0
 40
5.0000000000007434
 50
66.997258283093984
 51
89.999999999996746
  0
LINE
  5
88C7
  8
0
 10
233.96858401256841
 20
74.166023152700006
 30
0.0
 11
234.56086100394111
 21
74.166023152700006
 31
0.0
  0
LINE
  5
88C8
  8
0
 10
233.96858401256841
 20
74.166023152700006
 30
0.0
 11
233.96858401256841
 21
58.166023152699999
 31
0.0
  0
LINE
  5
88C9
  8
0
 10
233.96858401256841
 20
58.166023152699999
 30
0.0
 11
234.56086100394111
 21
58.166023152699999
 31
0.0
  0
ARC
  5
88CA
  8
0
 10
234.5608610039412
 20
63.166023152699552
 30
0.0
 40
4.9999999999995373
 50
270.0
 51
293.00274171691319
  0
LINE
  5
88CB
  8
0
 10
236.51473688408311
 20
58.563592377012071
 30
0.0
 11
236.560861003941
 21
58.583173509173598
 31
0.0
  0
ARC
  5
88CD
  8
0
 10
234.5608610039408
 20
63.166023152702053
 30
0.0
 40
7.5000000000020242
 50
271.38674258646182
 51
285.46600995341942
  0
LINE
  5
88CE
  8
0
 10
252.90004718372811
 20
65.519669316231955
 30
0.0
 11
251.560861003941
 21
64.951142878088149
 31
0.0
  0
ARC
  5
88CF
  8
0
 10
255.83086100394121
 20
58.616023152699029
 30
0.0
 40
7.500000000000961
 50
91.914523628317838
 51
113.002741716906
  0
LINE
  5
88D0
  8
0
 10
255.580297080751
 20
66.111836498855098
 30
0.0
 11
255.580297080751
 21
66.220209806545029
 31
0.0
  0
ARC
  5
88D1
  8
0
 10
255.83086100394101
 20
73.716023152699847
 30
0.0
 40
7.4999999999998348
 50
246.997258283094
 51
268.08547637168539
  0
LINE
  5
88D2
  8
0
 10
251.560861003941
 20
67.380903427311964
 30
0.0
 11
252.90004718372811
 21
66.812376989168058
 31
0.0
  0
LINE
  5
88D4
  8
0
 10
252.81825409353701
 20
69.347675490897643
 30
0.0
 11
252.23059799731089
 21
69.605434256703461
 31
0.0
  0
ARC
  5
88D5
  8
0
 10
255.8308610039411
 20
76.216023152700075
 30
0.0
 40
7.5000000000000497
 50
246.31669687402831
 51
270.0
  0
ARC
  5
88D6
  8
0
 10
255.8308610039411
 20
56.116023152699938
 30
0.0
 40
7.500000000000095
 50
90.0
 51
113.68330312597161
  0
LINE
  5
88D7
  8
0
 10
252.23059799731109
 20
62.726612048696488
 30
0.0
 11
252.81825409353701
 21
62.98437081450237
 31
0.0
  0
LINE
  5
88D9
  8
0
 10
255.8308610039411
 20
68.716023152699961
 30
0.0
 11
256.16188151837468
 21
68.716023152699961
 31
0.0
  0
LINE
  5
88DA
  8
0
 10
256.16188151837468
 20
63.616023152700052
 30
0.0
 11
255.8308610039411
 21
63.616023152700052
 31
0.0
  0
LINE
  5
88DB
  8
0
 10
237.57346791434509
 20
56.297675490897689
 30
0.0
 11
249.89590953179061
 21
61.70256682687647
 31
0.0
  0
LINE
  5
88DC
  8
0
 10
249.10647109235541
 20
63.90917755966467
 30
0.0
 11
236.560861003941
 21
58.583173509173598
 31
0.0
  0
ARC
  5
88DD
  8
0
 10
234.56086100394111
 20
63.166023152699999
 30
0.0
 40
7.499999999999968
 50
285.46600995341942
 51
293.68330312597158
  0
LINE
  5
88DE
  8
0
 10
249.89590953179049
 20
70.629479478523535
 30
0.0
 11
237.57346791434509
 21
76.034370814502324
 31
0.0
  0
LINE
  5
88DF
  8
0
 10
236.560861003941
 20
73.748872796226294
 30
0.0
 11
249.10647109235541
 21
68.422868745735343
 31
0.0
  0
ARC
  5
88E0
  8
0
 10
234.56086100394111
 20
69.166023152699893
 30
0.0
 40
7.5000000000000737
 50
66.316696874028324
 51
74.533990046580584
  0
LINE
  5
88EF
  8
0
 10
192.81363775367359
 20
59.666023152700227
 30
0.0
 11
196.56641450340621
 21
66.166023152700291
 31
0.0
  0
LINE
  5
88F2
  8
0
 10
185.3080842542085
 20
59.666023152700227
 30
0.0
 11
192.81363775367359
 21
59.666023152700227
 31
0.0
  0
LINE
  5
88F7
  8
0
 10
192.8136377536737
 20
72.666023152700234
 30
0.0
 11
185.3080842542085
 21
72.666023152700234
 31
0.0
  0
LINE
  5
88FA
  8
0
 10
185.3080842542085
 20
72.666023152700234
 30
0.0
 11
181.55530750447591
 21
66.166023152700177
 31
0.0
  0
LINE
  5
88FD
  8
0
 10
181.55530750447591
 20
66.166023152700234
 30
0.0
 11
185.30808425420841
 21
59.666023152700227
 31
0.0
  0
LINE
  5
88FF
  8
0
 10
196.56641450340621
 20
66.166023152700234
 30
0.0
 11
192.8136377536737
 21
72.666023152700234
 31
0.0
  0
CIRCLE
  5
8901
  8
0
 10
268.40086100394097
 20
227.57602315272399
 30
0.0
 40
4.0000000000017328
  0
LINE
  5
8948
  8
0
 10
311.4053871539956
 20
215.57602315272391
 30
0.0
 11
335.48111492308772
 21
215.57602315272391
 31
0.0
  0
ARC
  5
8949
  8
0
 10
311.40538715399572
 20
205.57602315272379
 30
0.0
 40
10.000000000000149
 50
90.0
 51
130.00000000000011
  0
LINE
  5
894A
  8
0
 10
290.93176807659012
 20
201.45068982933159
 30
0.0
 11
304.97751105713019
 21
213.23646758391371
 31
0.0
  0
ARC
  5
894B
  8
0
 10
286.11086100394101
 20
207.19602315272391
 30
0.0
 40
7.5000000000000266
 50
219.92918663940341
 51
310.00000000000011
  0
LINE
  5
894C
  8
0
 10
263.0329929322549
 20
223.08314074106741
 30
0.0
 11
280.3595737842773
 21
202.3822205688063
 31
0.0
  0
ARC
  5
894D
  8
0
 10
268.40086100394097
 20
227.57602315272399
 30
0.0
 40
6.9999999999999796
 50
69.089999999998369
 51
219.92918663940341
  0
LINE
  5
894E
  8
0
 10
284.53489913206067
 20
228.90531216489379
 30
0.0
 11
270.89916830721597
 21
234.1150185356862
 31
0.0
  0
ARC
  5
894F
  8
0
 10
286.31940434868568
 20
233.57602315272379
 30
0.0
 40
4.9999999999998774
 50
249.0899999999983
 51
270.0
  0
LINE
  5
8950
  8
0
 10
326.72821314677168
 20
228.57602315272399
 30
0.0
 11
286.31940434868568
 21
228.57602315272399
 31
0.0
  0
LINE
  5
8951
  8
0
 10
286.60086100394102
 20
230.57602315272391
 30
0.0
 11
291.60086100394102
 21
230.57602315272391
 31
0.0
  0
LINE
  5
8952
  8
0
 10
286.60086100394102
 20
228.57602315272399
 30
0.0
 11
286.60086100394102
 21
230.57602315272399
 31
0.0
  0
LINE
  5
8953
  8
0
 10
291.60086100394102
 20
230.57602315272391
 30
0.0
 11
291.60086100394102
 21
228.57602315272399
 31
0.0
  0
ARC
  5
8954
  8
0
 10
268.40086100394097
 20
390.6169493683135
 30
0.0
 40
60.00000000001188
 50
266.1774462707225
 51
270.0
  0
ARC
  5
8955
  8
0
 10
268.40086100394097
 20
390.6169493683135
 30
0.0
 40
60.00000000001188
 50
270.0
 51
273.8225537292775
  0
ARC
  5
8956
  8
0
 10
268.40086100394097
 20
287.7169493682826
 30
0.0
 40
60.000000000021629
 50
91.910213171708165
 51
93.822553729290476
  0
ARC
  5
8957
  8
0
 10
268.40086100394097
 20
287.7169493682826
 30
0.0
 40
60.000000000021629
 50
86.177446270709524
 51
88.089786828291835
  0
LINE
  5
8958
  8
0
 10
264.40086100394097
 20
347.58346755668521
 30
0.0
 11
264.40086100394097
 21
346.21694936830193
 31
0.0
  0
LINE
  5
8959
  8
0
 10
272.40086100394097
 20
346.21694936830193
 30
0.0
 11
272.40086100394097
 21
347.58346755668521
 31
0.0
  0
LINE
  5
895A
  8
0
 10
264.40086100394097
 20
332.11694936830202
 30
0.0
 11
264.40086100394097
 21
330.75043117991902
 31
0.0
  0
LINE
  5
895B
  8
0
 10
272.40086100394097
 20
330.75043117991902
 30
0.0
 11
272.40086100394097
 21
332.11694936830202
 31
0.0
  0
LINE
  5
895C
  8
0
 10
265.40086100394097
 20
343.76694936830199
 30
0.0
 11
265.40086100394097
 21
341.71694936830193
 31
0.0
  0
LINE
  5
895D
  8
0
 10
271.40086100394097
 20
334.56694936830212
 30
0.0
 11
271.40086100394097
 21
336.61694936830207
 31
0.0
  0
LINE
  5
895E
  8
0
 10
261.40086100394097
 20
334.56694936830212
 30
0.0
 11
261.40086100394097
 21
332.11694936830202
 31
0.0
  0
LINE
  5
895F
  8
0
 10
261.40086100394097
 20
346.21694936830193
 30
0.0
 11
261.40086100394097
 21
343.76694936830199
 31
0.0
  0
LINE
  5
8961
  8
0
 10
270.40086100394109
 20
347.68360677056398
 30
0.0
 11
266.40086100394097
 21
347.68360677056398
 31
0.0
  0
LINE
  5
89A0
  8
0
 10
286.60086100394102
 20
334.56694936830212
 30
0.0
 11
286.60086100394102
 21
343.76694936830199
 31
0.0
  0
LINE
  5
89A1
  8
0
 10
291.60086100394102
 20
343.76694936830199
 30
0.0
 11
291.60086100394102
 21
334.56694936830212
 31
0.0
  0
LINE
  5
89A5
  8
0
 10
261.40086100394097
 20
343.76694936830199
 30
0.0
 11
325.19684571908289
 21
343.76694936830199
 31
0.0
  0
LINE
  5
89A7
  8
0
 10
326.582819891616
 20
346.21694936830193
 30
0.0
 11
261.40086100394097
 21
346.21694936830193
 31
0.0
  0
LINE
  5
89AA
  8
0
 10
325.19684571908289
 20
334.56694936830212
 30
0.0
 11
261.40086100394097
 21
334.56694936830189
 31
0.0
  0
LINE
  5
89AB
  8
0
 10
326.58281989161623
 20
332.11694936830202
 30
0.0
 11
261.40086100394097
 21
332.11694936830207
 31
0.0
  0
LINE
  5
89B8
  8
0
 10
271.40086100394097
 20
61.616023152700109
 30
0.0
 11
271.40086100394097
 21
63.616023152700109
 31
0.0
  0
LINE
  5
89CD
  8
0
 10
335.71884777367291
 20
61.566023152700041
 30
0.0
 11
335.71884777367268
 21
59.116023152700052
 31
0.0
  0
LINE
  5
89D1
  8
0
 10
335.71884777367279
 20
73.216023152699961
 30
0.0
 11
335.71884777367268
 21
70.766023152699915
 31
0.0
  0
LINE
  5
8A15
  8
0
 10
335.71884777367279
 20
61.566023152702371
 30
0.0
 11
308.560861003941
 21
61.566023152701462
 31
0.0
  0
LINE
  5
8A16
  8
0
 10
299.56086100394111
 20
59.11602315270116
 30
0.0
 11
335.71884777367268
 21
59.116023152702383
 31
0.0
  0
LINE
  5
8A17
  8
0
 10
299.56086100394111
 20
73.216023152701254
 30
0.0
 11
335.71884777367279
 21
73.216023152702405
 31
0.0
  0
LINE
  5
8A18
  8
0
 10
308.560861003941
 20
70.766023152699915
 30
0.0
 11
335.71884777367268
 21
70.766023152699915
 31
0.0
  0
ARC
  5
8A19
  8
0
 10
29.110861003929809
 20
227.57600054766769
 30
0.0
 40
60.000000000011902
 50
358.70541426953429
 51
0.0
  0
ARC
  5
8A1A
  8
0
 10
29.110861003929809
 20
227.57600054766769
 30
0.0
 40
60.000000000011902
 50
0.0
 51
3.822553729277482
  0
ARC
  5
8A1C
  8
0
 10
132.0108610039608
 20
227.576000547668
 30
0.0
 40
60.0000000000217
 50
176.17744627071281
 51
178.08978682828851
  0
LINE
  5
8A1E
  8
0
 10
73.510861003941301
 20
231.5760005476678
 30
0.0
 11
72.144342815558304
 21
231.5760005476678
 31
0.0
  0
LINE
  5
8A20
  8
0
 10
88.977379192324307
 20
231.576000547668
 30
0.0
 11
87.610861003941324
 21
231.576000547668
 31
0.0
  0
LINE
  5
8A31
  8
0
 10
75.960861003941346
 20
234.5760005476678
 30
0.0
 11
73.510861003941301
 21
234.5760005476678
 31
0.0
  0
LINE
  5
8A32
  8
0
 10
87.610861003941324
 20
234.57600054766789
 30
0.0
 11
85.160861003941335
 21
234.5760005476678
 31
0.0
  0
LINE
  5
8A35
  8
0
 10
88.977379192324349
 20
226.29322073140381
 30
0.0
 11
88.977379192324307
 21
231.5760005476715
 31
0.0
  0
LINE
  5
8A36
  8
0
 10
72.044203601679357
 20
229.576000547668
 30
0.0
 11
72.044203601679357
 21
226.23153401618191
 31
0.0
  0
LINE
  5
8A37
  8
0
 10
72.144342815558304
 20
231.57600054766769
 30
0.0
 11
72.144342815558275
 21
226.29322073140361
 31
0.0
  0
LINE
  5
8A74
  8
0
 10
75.960861003941346
 20
228.64423250297861
 30
0.0
 11
75.960861003941346
 21
234.5760005476678
 31
0.0
  0
LINE
  5
8A75
  8
0
 10
73.510861003941301
 20
234.5760005476678
 30
0.0
 11
73.510861003941386
 21
227.13500902858479
 31
0.0
  0
LINE
  5
8A77
  8
0
 10
87.610861003941324
 20
234.57600054766789
 30
0.0
 11
87.61086100394138
 21
227.1350090285849
 31
0.0
  0
LINE
  5
8A78
  8
0
 10
85.160861003941335
 20
234.5760005476678
 30
0.0
 11
85.160861003941378
 21
228.64423250297861
 31
0.0
  0
LINE
  5
8A86
  8
0
 10
85.160861003941278
 20
230.57600054766789
 30
0.0
 11
83.110861003941352
 21
230.5760005476678
 31
0.0
  0
LINE
  5
8A95
  8
0
 10
508.70086100394269
 20
199.69600062678359
 30
0.0
 11
511.15086100394268
 21
199.69600062678359
 31
0.0
  0
LINE
  5
8A96
  8
0
 10
497.05086100394283
 20
199.6960006267837
 30
0.0
 11
499.5008610039427
 21
199.69600062678359
 31
0.0
  0
LINE
  5
8AC2
  8
0
 10
508.70086100394258
 20
211.1749860891575
 30
0.0
 11
508.70086100394258
 21
199.69600062678359
 31
0.0
  0
LINE
  5
8AC4
  8
0
 10
499.5008610039427
 20
199.69600062678359
 30
0.0
 11
499.5008610039427
 21
211.1749860891575
 31
0.0
  0
CIRCLE
  5
8ACA
  8
0
 10
301.560861003941
 20
192.16602315272399
 30
0.0
 40
4.0000000000017897
  0
LINE
  5
8ACB
  8
0
 10
297.67414607482999
 20
207.1082167209124
 30
0.0
 11
307.1392828196324
 21
197.90023713950711
 31
0.0
  0
ARC
  5
8ACC
  8
0
 10
301.560861003941
 20
192.16602315272399
 30
0.0
 40
8.0000000000000284
 50
287.92397562814051
 51
45.788999999998751
  0
LINE
  5
8ACD
  8
0
 10
284.47148220974441
 20
197.63002633683561
 30
0.0
 11
280.88138665405643
 21
201.12258301756421
 31
0.0
  0
ARC
  5
8ACE
  8
0
 10
286.45980846974783
 20
206.8567970043473
 30
0.0
 40
8.0000000000000089
 50
200.6172643252022
 51
225.78900000000101
  0
LINE
  5
8AD7
  8
0
 10
255.560861003941
 20
168.66602315272399
 30
0.0
 11
299.560861003941
 21
168.66602315272399
 31
0.0
  0
LINE
  5
8AD8
  8
0
 10
299.560861003941
 20
166.16602315272399
 30
0.0
 11
255.560861003941
 21
166.16602315272399
 31
0.0
  0
ARC
  5
8AD9
  8
0
 10
263.560861003941
 20
208.66602315272411
 30
0.0
 40
8.0000000000000355
 50
42.000000000001009
 51
180.0
  0
LINE
  5
8ADA
  8
0
 10
274.57658513132799
 20
208.3876344758591
 30
0.0
 11
269.50601960776021
 21
214.01906800359481
 31
0.0
  0
ARC
  5
8ADB
  8
0
 10
270.86086100394101
 20
205.0419814440647
 30
0.0
 40
5.0000000000000311
 50
0.0
 51
42.000000000001009
  0
LINE
  5
8ADC
  8
0
 10
275.86086100394101
 20
205.0419814440647
 30
0.0
 11
275.8608610039409
 21
203.41602315272399
 31
0.0
  0
ARC
  5
8ADD
  8
0
 10
281.8608610039409
 20
203.41602315272399
 30
0.0
 40
6.0000000000000044
 50
180.0
 51
275.233395729606
  0
LINE
  5
8ADE
  8
0
 10
300.92236978438319
 20
199.13684297269839
 30
0.0
 11
282.40813919213338
 21
197.4410347356031
 31
0.0
  0
ARC
  5
8ADF
  8
0
 10
301.560861003941
 20
192.16602315272399
 30
0.0
 40
7.000000000000016
 50
315.0
 51
95.233395729602734
  0
LINE
  5
8AE0
  8
0
 10
301.02532709800829
 20
181.7309943101796
 30
0.0
 11
306.51060847224682
 21
187.21627568441821
 31
0.0
  0
ARC
  5
8AE1
  8
0
 10
304.560861003941
 20
178.19546040424689
 30
0.0
 40
4.9999999999999707
 50
135.0
 51
180.0
  0
ARC
  5
8AE2
  8
0
 10
253.560861003941
 20
176.16602315272399
 30
0.0
 40
2.0
 50
0.0
 51
59.99999999999946
  0
ARC
  5
8AE4
  8
0
 10
253.560861003941
 20
200.16602315272411
 30
0.0
 40
2.0000000000000111
 50
300.00000000000051
 51
0.0
  0
LINE
  5
8AE5
  8
0
 10
255.560861003941
 20
208.66602315272411
 30
0.0
 11
255.560861003941
 21
200.16602315272411
 31
0.0
  0
LINE
  5
8AE6
  8
0
 10
299.56086100394089
 20
166.16602315272399
 30
0.0
 11
299.560861003941
 21
178.19546040424689
 31
0.0
  0
LINE
  5
8AE7
  8
0
 10
255.560861003941
 20
176.16602315272399
 30
0.0
 11
255.560861003941
 21
166.16602315272399
 31
0.0
  0
LINE
  5
8AE8
  8
0
 10
253.560861003941
 20
178.16602315272399
 30
0.0
 11
249.060861003941
 21
178.16602315272399
 31
0.0
  0
LINE
  5
8AE9
  8
0
 10
249.060861003941
 20
198.16602315272399
 30
0.0
 11
249.060861003941
 21
178.16602315272399
 31
0.0
  0
LINE
  5
8AEA
  8
0
 10
249.060861003941
 20
198.16602315272399
 30
0.0
 11
253.560861003941
 21
198.16602315272399
 31
0.0
  0
POLYLINE
  5
8AEB
  8
0
 66
     1
 10
0.0
 20
0.0
 30
0.0
 70
   128
  0
VERTEX
  5
A7D2
  8
0
 10
253.560861003941
 20
178.16602315272399
 30
0.0
  0
VERTEX
  5
A7D3
  8
0
 10
254.1882257755492
 20
178.0650790874835
 30
0.0
  0
VERTEX
  5
A7D4
  8
0
 10
254.560861003941
 20
177.89807396029289
 30
0.0
  0
SEQEND
  5
A7D5
  8
0
  0
POLYLINE
  5
8AEC
  8
0
 66
     1
 10
0.0
 20
0.0
 30
0.0
 70
   128
  0
VERTEX
  5
A7D6
  8
0
 10
254.560861003941
 20
198.4339723451551
 30
0.0
  0
VERTEX
  5
A7D7
  8
0
 10
253.96303757309471
 20
198.20687690825329
 30
0.0
  0
VERTEX
  5
A7D8
  8
0
 10
253.560861003941
 20
198.16602315272399
 30
0.0
  0
SEQEND
  5
A7D9
  8
0
  0
CIRCLE
  5
8AEF
  8
0
 10
263.560861003941
 20
208.16602315272399
 30
0.0
 40
4.0000000000017764
  0
CIRCLE
  5
8AF0
  8
0
 10
286.30278796260421
 20
206.9464630293528
 30
0.0
 40
4.0000000000017852
  0
ARC
  5
8AF6
  8
0
 10
301.560861003941
 20
192.16602315272399
 30
0.0
 40
8.0000000000000018
 50
286.04497562814129
 51
287.92397562814051
  0
LINE
  5
8B12
  8
0
 10
292.45678399334219
 20
341.86694936830628
 30
0.0
 11
292.45678399334219
 21
343.56694936830201
 31
0.0
  0
LINE
  5
8B13
  8
0
 10
280.45678399334219
 20
343.56694936830201
 30
0.0
 11
280.45678399334219
 21
341.86694936830628
 31
0.0
  0
LINE
  5
8B14
  8
0
 10
292.4567839933473
 20
343.56694936830201
 30
0.0
 11
292.25678399334282
 21
343.76694936834099
 31
0.0
  0
LINE
  5
8B15
  8
0
 10
280.65678399334161
 20
343.76694936834099
 30
0.0
 11
280.45678399333701
 21
343.56694936830201
 31
0.0
  0
LINE
  5
8B16
  8
0
 10
280.45678399336941
 20
341.86694936830628
 30
0.0
 11
280.60678399337752
 21
341.7169493683021
 31
0.0
  0
LINE
  5
8B17
  8
0
 10
292.25678399329428
 20
341.66694936829072
 30
0.0
 11
292.45678399331501
 21
341.86694936830628
 31
0.0
  0
ARC
  5
8B18
  8
0
 10
301.560861003941
 20
390.61694936831361
 30
0.0
 40
60.000000000011909
 50
266.1774462707225
 51
270.0
  0
ARC
  5
8B19
  8
0
 10
301.560861003941
 20
390.61694936831361
 30
0.0
 40
60.000000000011909
 50
270.0
 51
273.8225537292775
  0
ARC
  5
8B1A
  8
0
 10
301.560861003941
 20
287.7169493682826
 30
0.0
 40
60.0000000000217
 50
91.910213171708165
 51
93.822553729290476
  0
ARC
  5
8B1B
  8
0
 10
301.560861003941
 20
287.7169493682826
 30
0.0
 40
60.0000000000217
 50
86.177446270709524
 51
88.089786828291835
  0
LINE
  5
8B1C
  8
0
 10
297.560861003941
 20
347.58346755668521
 30
0.0
 11
297.560861003941
 21
346.21694936830198
 31
0.0
  0
LINE
  5
8B1D
  8
0
 10
305.560861003941
 20
346.21694936830198
 30
0.0
 11
305.560861003941
 21
347.58346755668521
 31
0.0
  0
LINE
  5
8B1E
  8
0
 10
297.560861003941
 20
332.11694936830202
 30
0.0
 11
297.560861003941
 21
330.75043117991902
 31
0.0
  0
LINE
  5
8B1F
  8
0
 10
305.560861003941
 20
330.75043117991902
 30
0.0
 11
305.560861003941
 21
332.11694936830202
 31
0.0
  0
LINE
  5
8B20
  8
0
 10
298.560861003941
 20
334.6669493683533
 30
0.0
 11
298.560861003941
 21
334.61694936830202
 31
0.0
  0
LINE
  5
8B21
  8
0
 10
304.560861003941
 20
334.61694936830202
 30
0.0
 11
304.560861003941
 21
334.6669493683533
 31
0.0
  0
LINE
  5
8B24
  8
0
 10
308.560861003941
 20
343.7169493683021
 30
0.0
 11
308.560861003941
 21
343.76694936830199
 31
0.0
  0
LINE
  5
8B25
  8
0
 10
308.560861003941
 20
334.56694936830201
 30
0.0
 11
308.560861003941
 21
334.61694936830202
 31
0.0
  0
LINE
  5
8B26
  8
0
 10
307.560861003941
 20
341.86694936830202
 30
0.0
 11
307.560861003941
 21
343.56694936839131
 31
0.0
  0
LINE
  5
8B27
  8
0
 10
295.560861003941
 20
343.56694936839131
 30
0.0
 11
295.560861003941
 21
341.86694936830202
 31
0.0
  0
LINE
  5
8B28
  8
0
 10
307.5608610039107
 20
343.56694936839131
 30
0.0
 11
307.4108610040081
 21
343.7169493683021
 31
0.0
  0
LINE
  5
8B29
  8
0
 10
295.71086100387379
 20
343.7169493683021
 30
0.0
 11
295.56086100397118
 21
343.56694936839131
 31
0.0
  0
LINE
  5
8B2A
  8
0
 10
295.56086100394242
 20
341.86694936830202
 30
0.0
 11
295.76086100386749
 21
341.66694936839929
 31
0.0
  0
LINE
  5
8B2B
  8
0
 10
307.36086100401451
 20
341.66694936839929
 30
0.0
 11
307.56086100393958
 21
341.86694936830202
 31
0.0
  0
LINE
  5
8B2C
  8
0
 10
280.45678399334219
 20
336.41694936830203
 30
0.0
 11
280.45678399334219
 21
334.91694936823188
 31
0.0
  0
LINE
  5
8B2D
  8
0
 10
292.45678399334219
 20
334.91694936823188
 30
0.0
 11
292.45678399334219
 21
336.41694936830203
 31
0.0
  0
LINE
  5
8B2E
  8
0
 10
280.45678399336327
 20
334.91694936823188
 30
0.0
 11
280.70678399335458
 21
334.66694936826218
 31
0.0
  0
LINE
  5
8B2F
  8
0
 10
292.20678399332968
 20
334.66694936826218
 30
0.0
 11
292.4567839933211
 21
334.91694936823188
 31
0.0
  0
LINE
  5
8B30
  8
0
 10
292.4567839933938
 20
336.41694936830203
 30
0.0
 11
292.20678399333281
 21
336.66694936834142
 31
0.0
  0
LINE
  5
8B31
  8
0
 10
280.6567839933079
 20
336.6169493683019
 30
0.0
 11
280.45678399329063
 21
336.41694936830203
 31
0.0
  0
LINE
  5
8B32
  8
0
 10
295.560861003941
 20
336.41694936830208
 30
0.0
 11
295.560861003941
 21
334.91694936834568
 31
0.0
  0
LINE
  5
8B33
  8
0
 10
307.560861003941
 20
334.91694936834568
 30
0.0
 11
307.560861003941
 21
336.41694936830208
 31
0.0
  0
LINE
  5
8B34
  8
0
 10
295.56086100390621
 20
334.91694936834568
 30
0.0
 11
295.81086100391252
 21
334.6669493683533
 31
0.0
  0
LINE
  5
8B35
  8
0
 10
307.31086100396959
 20
334.6669493683533
 30
0.0
 11
307.56086100397579
 21
334.91694936834568
 31
0.0
  0
LINE
  5
8B36
  8
0
 10
307.56086100391121
 20
336.41694936830208
 30
0.0
 11
307.31086100393009
 21
336.66694936826173
 31
0.0
  0
LINE
  5
8B37
  8
0
 10
295.81086100395191
 20
336.66694936826173
 30
0.0
 11
295.56086100397067
 21
336.41694936830208
 31
0.0
  0
ARC
  5
8B3A
  8
0
 10
263.560861003941
 20
390.6169493683135
 30
0.0
 40
60.000000000011909
 50
266.1774462707225
 51
270.0
  0
ARC
  5
8B3B
  8
0
 10
263.560861003941
 20
390.6169493683135
 30
0.0
 40
60.000000000011909
 50
270.0
 51
272.31155679434539
  0
ARC
  5
8B3C
  8
0
 10
263.560861003941
 20
287.71694936828249
 30
0.0
 40
60.0000000000217
 50
91.910213171708165
 51
93.822553729290476
  0
ARC
  5
8B3D
  8
0
 10
263.560861003941
 20
287.71694936828249
 30
0.0
 40
60.0000000000217
 50
87.688443205654536
 51
88.089786828291835
  0
LINE
  5
8B3E
  8
0
 10
259.560861003941
 20
347.58346755668498
 30
0.0
 11
259.560861003941
 21
346.21694936830198
 31
0.0
  0
LINE
  5
8B40
  8
0
 10
259.560861003941
 20
332.11694936830202
 30
0.0
 11
259.560861003941
 21
330.75043117991902
 31
0.0
  0
LINE
  5
8B41
  8
0
 10
267.560861003941
 20
330.75043117991902
 30
0.0
 11
267.560861003941
 21
332.11694936830202
 31
0.0
  0
LINE
  5
8B42
  8
0
 10
260.560861003941
 20
343.71694936830193
 30
0.0
 11
260.560861003941
 21
341.7169493683021
 31
0.0
  0
ARC
  5
8B44
  8
0
 10
286.30278796260598
 20
390.6169493683135
 30
0.0
 40
60.00000000001188
 50
266.1774462707225
 51
270.0
  0
ARC
  5
8B45
  8
0
 10
286.30278796260598
 20
390.6169493683135
 30
0.0
 40
60.00000000001188
 50
270.0
 51
273.8225537292775
  0
ARC
  5
8B46
  8
0
 10
286.30278796260598
 20
287.71694936828249
 30
0.0
 40
60.0000000000217
 50
91.910213171708165
 51
93.822553729290476
  0
ARC
  5
8B47
  8
0
 10
286.30278796260598
 20
287.71694936828249
 30
0.0
 40
60.0000000000217
 50
86.177446270709524
 51
88.089786828291835
  0
LINE
  5
8B48
  8
0
 10
282.30278796260598
 20
347.58346755668498
 30
0.0
 11
282.30278796260598
 21
346.21694936830198
 31
0.0
  0
LINE
  5
8B49
  8
0
 10
290.30278796260598
 20
346.21694936830198
 30
0.0
 11
290.30278796260598
 21
347.58346755668498
 31
0.0
  0
LINE
  5
8B4A
  8
0
 10
282.30278796260598
 20
332.11694936830202
 30
0.0
 11
282.30278796260598
 21
330.75043117991902
 31
0.0
  0
LINE
  5
8B4B
  8
0
 10
290.30278796260598
 20
330.75043117991902
 30
0.0
 11
290.30278796260598
 21
332.11694936830202
 31
0.0
  0
LINE
  5
8B52
  8
0
 10
280.65678399334161
 20
343.76694936834099
 30
0.0
 11
292.25678399334282
 21
343.76694936834099
 31
0.0
  0
LINE
  5
8B53
  8
0
 10
297.56086100393918
 20
330.75043117991902
 30
0.0
 11
305.56086100394282
 21
330.75043117991902
 31
0.0
  0
LINE
  5
8B54
  8
0
 10
303.560861003941
 20
347.6836067705641
 30
0.0
 11
299.56086100394089
 21
347.6836067705641
 31
0.0
  0
LINE
  5
8B55
  8
0
 10
305.560861003941
 20
347.58346755668521
 30
0.0
 11
297.560861003941
 21
347.58346755668521
 31
0.0
  0
LINE
  5
8B57
  8
0
 10
280.79366494190231
 20
336.66694936830208
 30
0.0
 11
286.60086100394102
 21
336.66694936830208
 31
0.0
  0
LINE
  5
8B60
  8
0
 10
255.560861003941
 20
346.21694936830198
 30
0.0
 11
255.560861003941
 21
343.7169493683021
 31
0.0
  0
LINE
  5
8B62
  8
0
 10
255.560861003941
 20
332.11694936830202
 30
0.0
 11
255.560861003941
 21
334.61694936830202
 31
0.0
  0
POLYLINE
  5
8B77
  8
0
 66
     1
 10
0.0
 20
0.0
 30
0.0
 70
   128
  0
VERTEX
  5
A7DA
  8
0
 10
253.560861003941
 20
346.12527628149797
 30
0.0
  0
VERTEX
  5
A7DB
  8
0
 10
254.1882257755492
 20
346.20431148379618
 30
0.0
  0
VERTEX
  5
A7DC
  8
0
 10
254.560861003941
 20
346.21694936830198
 30
0.0
  0
SEQEND
  5
A7DD
  8
0
  0
POLYLINE
  5
8B78
  8
0
 66
     1
 10
0.0
 20
0.0
 30
0.0
 70
   128
  0
VERTEX
  5
A7DE
  8
0
 10
254.560861003941
 20
343.7169493683021
 30
0.0
  0
VERTEX
  5
A7DF
  8
0
 10
254.02288674579179
 20
343.66831916850822
 30
0.0
  0
VERTEX
  5
A7E0
  8
0
 10
253.560861003941
 20
343.5453764930482
 30
0.0
  0
SEQEND
  5
A7E1
  8
0
  0
LINE
  5
8B7A
  8
0
 10
254.560861003941
 20
343.7169493683021
 30
0.0
 11
265.40086100394097
 21
343.7169493683021
 31
0.0
  0
LINE
  5
8B7B
  8
0
 10
254.560861003941
 20
346.21694936830198
 30
0.0
 11
308.560861003941
 21
346.21694936830198
 31
0.0
  0
POLYLINE
  5
8B7C
  8
0
 66
     1
 10
0.0
 20
0.0
 30
0.0
 70
   128
  0
VERTEX
  5
A7E2
  8
0
 10
254.560861003941
 20
332.11694936830202
 30
0.0
  0
VERTEX
  5
A7E3
  8
0
 10
253.96303757309471
 20
332.14953616409559
 30
0.0
  0
VERTEX
  5
A7E4
  8
0
 10
253.560861003941
 20
332.20862245510602
 30
0.0
  0
SEQEND
  5
A7E5
  8
0
  0
POLYLINE
  5
8B7E
  8
0
 66
     1
 10
0.0
 20
0.0
 30
0.0
 70
   128
  0
VERTEX
  5
A7E6
  8
0
 10
254.560861003941
 20
334.61694936830202
 30
0.0
  0
VERTEX
  5
A7E7
  8
0
 10
254.02288674579179
 20
334.66557956809589
 30
0.0
  0
VERTEX
  5
A7E8
  8
0
 10
253.560861003941
 20
334.7885222435558
 30
0.0
  0
SEQEND
  5
A7E9
  8
0
  0
LINE
  5
8B87
  8
0
 10
292.30678399337302
 20
343.7169493683021
 30
0.0
 11
308.56086100394089
 21
343.7169493683021
 31
0.0
  0
LINE
  5
8B8B
  8
0
 10
282.7956259681734
 20
332.11694936830202
 30
0.0
 11
282.40813919213338
 21
332.11694936830202
 31
0.0
  0
LINE
  5
8B8E
  8
0
 10
251.560861003941
 20
337.95206909369023
 30
0.0
 11
251.560861003941
 21
340.38182964291389
 31
0.0
  0
LINE
  5
8B8F
  8
0
 10
249.060861003941
 20
340.71694936830198
 30
0.0
 11
249.060861003941
 21
337.61694936830202
 31
0.0
  0
ARC
  5
8B90
  8
0
 10
254.560861003941
 20
337.61694936830202
 30
0.0
 40
3.0
 50
219.03564146125251
 51
250.5287793655101
  0
ARC
  5
8B91
  8
0
 10
254.560861003941
 20
340.71694936830198
 30
0.0
 40
3.0
 50
109.4712206344899
 51
140.96435853874749
  0
ARC
  5
8B92
  8
0
 10
254.560861003941
 20
337.61694936830202
 30
0.0
 40
5.5000000000000071
 50
180.0
 51
187.3839258067859
  0
ARC
  5
8B93
  8
0
 10
254.560861003941
 20
340.71694936830198
 30
0.0
 40
5.5
 50
100.4756816963904
 51
148.0135068181832
  0
LINE
  5
8B94
  8
0
 10
267.66086100394102
 20
354.6669493683022
 30
0.0
 11
267.66086100394102
 21
352.21694936830198
 31
0.0
  0
ARC
  5
8B95
  8
0
 10
264.560861003941
 20
354.6669493683022
 30
0.0
 40
3.1000000000000081
 50
0.0
 51
180.0
  0
LINE
  5
8B96
  8
0
 10
261.46086100394098
 20
352.21694936830198
 30
0.0
 11
261.46086100394098
 21
354.6669493683022
 31
0.0
  0
ARC
  5
8B97
  8
0
 10
264.560861003941
 20
352.21694936830198
 30
0.0
 40
3.1000000000000081
 50
180.0
 51
0.0
  0
LINE
  5
8B98
  8
0
 10
293.66086100394102
 20
354.6669493683022
 30
0.0
 11
293.66086100394102
 21
352.21694936830198
 31
0.0
  0
ARC
  5
8B99
  8
0
 10
290.560861003941
 20
354.6669493683022
 30
0.0
 40
3.1000000000000081
 50
0.0
 51
180.0
  0
LINE
  5
8B9A
  8
0
 10
287.46086100394098
 20
352.21694936830198
 30
0.0
 11
287.46086100394098
 21
354.6669493683022
 31
0.0
  0
ARC
  5
8B9B
  8
0
 10
290.560861003941
 20
352.21694936830198
 30
0.0
 40
3.1000000000000081
 50
180.0
 51
0.0
  0
LINE
  5
8B9C
  8
0
 10
293.560861003941
 20
361.6669493683022
 30
0.0
 11
261.560861003941
 21
361.6669493683022
 31
0.0
  0
ARC
  5
8B9D
  8
0
 10
293.560861003941
 20
355.6669493683022
 30
0.0
 40
6.0
 50
0.0
 51
90.0
  0
ARC
  5
8B9E
  8
0
 10
261.560861003941
 20
355.6669493683022
 30
0.0
 40
6.0000000000000142
 50
90.0
 51
180.0
  0
LINE
  5
8B9F
  8
0
 10
255.560861003941
 20
346.2169493683021
 30
0.0
 11
255.560861003941
 21
355.6669493683022
 31
0.0
  0
LINE
  5
8BA0
  8
0
 10
299.560861003941
 20
355.6669493683022
 30
0.0
 11
299.560861003941
 21
347.6836067705641
 31
0.0
  0
LINE
  5
8BA9
  8
0
 10
261.560861003941
 20
316.6669493683022
 30
0.0
 11
293.560861003941
 21
316.6669493683022
 31
0.0
  0
ARC
  5
8BAA
  8
0
 10
261.560861003941
 20
322.66694936830208
 30
0.0
 40
6.0000000000000142
 50
180.0
 51
270.0
  0
ARC
  5
8BAB
  8
0
 10
293.560861003941
 20
322.66694936830208
 30
0.0
 40
5.9999999999999707
 50
270.0
 51
0.0
  0
LINE
  5
8BAC
  8
0
 10
255.560861003941
 20
322.66694936830208
 30
0.0
 11
255.560861003941
 21
332.11694936830207
 31
0.0
  0
LINE
  5
8BAD
  8
0
 10
299.560861003941
 20
330.65029196604189
 30
0.0
 11
299.560861003941
 21
322.66694936830208
 31
0.0
  0
LINE
  5
8BB2
  8
0
 10
292.20678399332968
 20
334.66694936826218
 30
0.0
 11
291.60086100394102
 21
334.66694936826218
 31
0.0
  0
LINE
  5
8BB5
  8
0
 10
307.31086100396959
 20
334.6669493683533
 30
0.0
 11
295.81086100391252
 21
334.6669493683533
 31
0.0
  0
LINE
  5
8BBE
  8
0
 10
259.56086100393918
 20
330.75043117991902
 30
0.0
 11
272.40086100394501
 21
330.75043117991879
 31
0.0
  0
LINE
  5
8BBF
  8
0
 10
265.560861003941
 20
347.68360677056398
 30
0.0
 11
261.560861003941
 21
347.68360677056398
 31
0.0
  0
LINE
  5
8BC0
  8
0
 10
272.40086100395922
 20
347.583467556686
 30
0.0
 11
259.560861003941
 21
347.58346755668498
 31
0.0
  0
LINE
  5
8BC1
  8
0
 10
290.30212903229727
 20
330.75043117991902
 30
0.0
 11
290.30278796260961
 21
330.75043117991902
 31
0.0
  0
LINE
  5
8BC2
  8
0
 10
282.30278796260239
 20
330.75043117991902
 30
0.0
 11
290.30212903229727
 21
330.75043117991902
 31
0.0
  0
LINE
  5
8BC3
  8
0
 10
288.30278796260598
 20
347.68360677056398
 30
0.0
 11
284.30278796260592
 21
347.68360677056398
 31
0.0
  0
LINE
  5
8BC4
  8
0
 10
290.30278796260598
 20
347.58346755668498
 30
0.0
 11
282.30278796260598
 21
347.58346755668498
 31
0.0
  0
ARC
  5
8C2A
  8
0
 10
29.11086100392998
 20
192.16602315272399
 30
0.0
 40
60.000000000011909
 50
356.1774462707225
 51
0.0
  0
ARC
  5
8C2B
  8
0
 10
29.11086100392998
 20
192.16602315272399
 30
0.0
 40
60.000000000011909
 50
0.0
 51
3.822553729277482
  0
ARC
  5
8C2C
  8
0
 10
132.010861003961
 20
192.16602315272399
 30
0.0
 40
60.0000000000217
 50
181.9102131717114
 51
183.82255372929049
  0
ARC
  5
8C2D
  8
0
 10
132.010861003961
 20
192.16602315272399
 30
0.0
 40
60.0000000000217
 50
176.17744627070951
 51
178.08978682829181
  0
LINE
  5
8C2E
  8
0
 10
72.144342815558446
 20
188.16602315272399
 30
0.0
 11
73.5108610039415
 21
188.16602315272399
 31
0.0
  0
LINE
  5
8C2F
  8
0
 10
73.5108610039415
 20
196.16602315272399
 30
0.0
 11
72.144342815558446
 21
196.16602315272399
 31
0.0
  0
LINE
  5
8C30
  8
0
 10
87.610861003941494
 20
188.16602315272399
 30
0.0
 11
88.977379192324534
 21
188.16602315272399
 31
0.0
  0
LINE
  5
8C31
  8
0
 10
88.977379192324534
 20
196.16602315272399
 30
0.0
 11
87.610861003941494
 21
196.16602315272399
 31
0.0
  0
LINE
  5
8C51
  8
0
 10
88.977379192324534
 20
188.16602315272041
 30
0.0
 11
88.977379192324534
 21
196.16602315272749
 31
0.0
  0
LINE
  5
8C52
  8
0
 10
72.04420360167947
 20
194.16602315272399
 30
0.0
 11
72.04420360167947
 21
190.16602315272391
 31
0.0
  0
LINE
  5
8C53
  8
0
 10
72.144342815558417
 20
196.16602315272399
 30
0.0
 11
72.144342815558446
 21
188.1660231527072
 31
0.0
  0
POLYLINE
  5
8C5E
  8
0
 66
     1
 10
0.0
 20
0.0
 30
0.0
 70
   128
  0
VERTEX
  5
A7EA
  8
0
 10
73.51086100394167
 20
177.89807396029289
 30
0.0
  0
VERTEX
  5
A7EB
  8
0
 10
73.543447799735191
 20
178.12516939719481
 30
0.0
  0
VERTEX
  5
A7EC
  8
0
 10
73.602534090745678
 20
178.16602315272399
 30
0.0
  0
SEQEND
  5
A7ED
  8
0
  0
POLYLINE
  5
8C60
  8
0
 66
     1
 10
0.0
 20
0.0
 30
0.0
 70
   128
  0
VERTEX
  5
A7EE
  8
0
 10
73.602534090745678
 20
198.16602315272399
 30
0.0
  0
VERTEX
  5
A7EF
  8
0
 10
73.523498888447421
 20
198.26696721796449
 30
0.0
  0
VERTEX
  5
A7F0
  8
0
 10
73.51086100394167
 20
198.4339723451551
 30
0.0
  0
SEQEND
  5
A7F1
  8
0
  0
LINE
  5
8C61
  8
0
 10
87.519187917137614
 20
178.16602315272399
 30
0.0
 11
84.560861003941767
 21
178.16602315272411
 31
0.0
  0
POLYLINE
  5
8C65
  8
0
 66
     1
 10
0.0
 20
0.0
 30
0.0
 70
   128
  0
VERTEX
  5
A7F2
  8
0
 10
87.610861003941636
 20
198.4339723451551
 30
0.0
  0
VERTEX
  5
A7F3
  8
0
 10
87.578274208148116
 20
198.20687690825329
 30
0.0
  0
VERTEX
  5
A7F4
  8
0
 10
87.519187917137614
 20
198.16602315272399
 30
0.0
  0
SEQEND
  5
A7F5
  8
0
  0
POLYLINE
  5
8C67
  8
0
 66
     1
 10
0.0
 20
0.0
 30
0.0
 70
   128
  0
VERTEX
  5
A7F6
  8
0
 10
87.519187917137614
 20
178.16602315272399
 30
0.0
  0
VERTEX
  5
A7F7
  8
0
 10
87.598223119435886
 20
178.0650790874835
 30
0.0
  0
VERTEX
  5
A7F8
  8
0
 10
87.610861003941636
 20
177.89807396029289
 30
0.0
  0
SEQEND
  5
A7F9
  8
0
  0
LINE
  5
8C68
  8
0
 10
73.602534090745678
 20
198.16602315272399
 30
0.0
 11
74.060861003941767
 21
198.16602315272399
 31
0.0
  0
POLYLINE
  5
8C6B
  8
0
 66
     1
 10
0.0
 20
0.0
 30
0.0
 70
   128
  0
VERTEX
  5
A7FA
  8
0
 10
76.01086100394167
 20
177.89807396029289
 30
0.0
  0
VERTEX
  5
A7FB
  8
0
 10
76.059491203735504
 20
178.11192454125
 30
0.0
  0
VERTEX
  5
A7FC
  8
0
 10
76.182433879195443
 20
178.16602315272399
 30
0.0
  0
SEQEND
  5
A7FD
  8
0
  0
POLYLINE
  5
8C6C
  8
0
 66
     1
 10
0.0
 20
0.0
 30
0.0
 70
   128
  0
VERTEX
  5
A7FE
  8
0
 10
84.939288128687849
 20
178.16602315272399
 30
0.0
  0
VERTEX
  5
A7FF
  8
0
 10
85.078190604636177
 20
178.08647081602479
 30
0.0
  0
VERTEX
  5
A800
  8
0
 10
85.110861003941665
 20
177.89807396029289
 30
0.0
  0
SEQEND
  5
A801
  8
0
  0
LINE
  5
8C6E
  8
0
 10
73.510861003942182
 20
168.66602315272411
 30
0.0
 11
73.51086100394167
 21
199.67638031380449
 31
0.0
  0
LINE
  5
8C71
  8
0
 10
76.01086100394167
 20
166.16602315272399
 30
0.0
 11
76.01086100394167
 21
167.876023152724
 31
0.0
  0
LINE
  5
8C76
  8
0
 10
87.610861003941608
 20
199.6763803138046
 30
0.0
 11
87.610861003941608
 21
168.66602315272399
 31
0.0
  0
LINE
  5
8C79
  8
0
 10
85.110861003941423
 20
166.16602315272399
 30
0.0
 11
85.110861003941466
 21
167.87602315272409
 31
0.0
  0
LINE
  5
8C7B
  8
0
 10
73.510861003941642
 20
168.66602315272399
 30
0.0
 11
58.060861003941618
 21
168.66602315272399
 31
0.0
  0
LINE
  5
8C7C
  8
0
 10
58.060861003941604
 20
166.16602315272399
 30
0.0
 11
76.01086100394167
 21
166.16602315272399
 31
0.0
  0
LINE
  5
8C7F
  8
0
 10
103.0608610039416
 20
168.66602315272399
 30
0.0
 11
87.610861003941636
 21
168.66602315272399
 31
0.0
  0
LINE
  5
8C81
  8
0
 10
85.110861003941636
 20
166.16602315272399
 30
0.0
 11
103.0608610039416
 21
166.16602315272399
 31
0.0
  0
LINE
  5
8C84
  8
0
 10
58.060861003941618
 20
168.66602315272399
 30
0.0
 11
58.060861003941618
 21
166.16602315272399
 31
0.0
  0
LINE
  5
8C91
  8
0
 10
103.0608610039416
 20
166.16602315272399
 30
0.0
 11
103.0608610039416
 21
168.66602315272399
 31
0.0
  0
LINE
  5
8D5C
  8
0
 10
508.50086100394282
 20
200.851696694493
 30
0.0
 11
508.70086100398169
 21
201.05169669449759
 31
0.0
  0
LINE
  5
8D5E
  8
0
 10
506.80086100394709
 20
200.85169669449829
 30
0.0
 11
508.50086100394282
 21
200.85169669449829
 31
0.0
  0
LINE
  5
8D61
  8
0
 10
506.60086100393141
 20
201.05169669454611
 30
0.0
 11
506.80086100394709
 21
200.85169669452549
 31
0.0
  0
ARC
  5
8D62
  8
0
 10
555.5508610039542
 20
192.16602315272399
 30
0.0
 40
60.000000000011909
 50
176.1774462707225
 51
180.0
  0
ARC
  5
8D63
  8
0
 10
555.5508610039542
 20
192.16602315272399
 30
0.0
 40
60.000000000011909
 50
180.0
 51
183.82255372927739
  0
ARC
  5
8D64
  8
0
 10
452.65086100392318
 20
192.16602315272399
 30
0.0
 40
60.000000000021679
 50
1.9102131717081761
 51
3.822553729290481
  0
ARC
  5
8D65
  8
0
 10
452.65086100392318
 20
192.16602315272399
 30
0.0
 40
60.000000000021679
 50
356.17744627071272
 51
358.08978682829178
  0
LINE
  5
8D66
  8
0
 10
512.51737919232573
 20
196.16602315272399
 30
0.0
 11
511.15086100394262
 21
196.16602315272399
 31
0.0
  0
LINE
  5
8D67
  8
0
 10
511.15086100394262
 20
188.16602315272399
 30
0.0
 11
512.51737919232573
 21
188.16602315272399
 31
0.0
  0
LINE
  5
8D68
  8
0
 10
497.0508610039426
 20
196.16602315272399
 30
0.0
 11
495.6843428155596
 21
196.16602315272399
 31
0.0
  0
LINE
  5
8D69
  8
0
 10
495.6843428155596
 20
188.16602315272399
 30
0.0
 11
497.0508610039426
 21
188.16602315272399
 31
0.0
  0
LINE
  5
8D6A
  8
0
 10
499.60086100399388
 20
195.16602315272399
 30
0.0
 11
499.5508610039426
 21
195.16602315272399
 31
0.0
  0
LINE
  5
8D6B
  8
0
 10
499.5508610039426
 20
189.16602315272399
 30
0.0
 11
499.60086100399388
 21
189.16602315272399
 31
0.0
  0
LINE
  5
8D6C
  8
0
 10
501.60086100394273
 20
184.16602315272399
 30
0.0
 11
506.60086100394273
 21
184.16602315272411
 31
0.0
  0
LINE
  5
8D6E
  8
0
 10
511.15086100394262
 20
199.16602315272399
 30
0.0
 11
508.65086100394262
 21
199.16602315272399
 31
0.0
  0
LINE
  5
8D6F
  8
0
 10
499.55086100394271
 20
199.16602315272399
 30
0.0
 11
497.0508610039426
 21
199.16602315272399
 31
0.0
  0
LINE
  5
8D72
  8
0
 10
506.8008610039426
 20
186.16602315272399
 30
0.0
 11
508.50086100403178
 21
186.16602315272399
 31
0.0
  0
LINE
  5
8D73
  8
0
 10
508.50086100403178
 20
198.16602315272399
 30
0.0
 11
506.60086100394273
 21
198.16602315272399
 31
0.0
  0
LINE
  5
8D74
  8
0
 10
508.50086100403178
 20
186.16602315275429
 30
0.0
 11
508.65086100394262
 21
186.31602315265681
 31
0.0
  0
LINE
  5
8D75
  8
0
 10
508.65086100394268
 20
198.01602315279109
 30
0.0
 11
508.50086100403178
 21
198.1660231526937
 31
0.0
  0
LINE
  5
8D76
  8
0
 10
506.8008610039426
 20
198.16602315272269
 30
0.0
 11
506.60086100403981
 21
197.9660231527975
 31
0.0
  0
LINE
  5
8D77
  8
0
 10
506.60086100403981
 20
186.36602315265051
 30
0.0
 11
506.8008610039426
 21
186.1660231527253
 31
0.0
  0
LINE
  5
8D79
  8
0
 10
499.85086100387269
 20
200.85169669449829
 30
0.0
 11
501.35086100394273
 21
200.85169669449829
 31
0.0
  0
LINE
  5
8D7B
  8
0
 10
499.60086100390282
 20
201.10169669451071
 30
0.0
 11
499.85086100387269
 21
200.85169669451929
 31
0.0
  0
LINE
  5
8D7C
  8
0
 10
501.35086100394273
 20
200.8516966944467
 30
0.0
 11
501.60086100398212
 21
201.10169669450761
 31
0.0
  0
LINE
  5
8D7F
  8
0
 10
499.85086100398632
 20
186.16602315272399
 30
0.0
 11
501.35086100394261
 21
186.16602315272399
 31
0.0
  0
LINE
  5
8D80
  8
0
 10
499.85086100398632
 20
198.16602315275881
 30
0.0
 11
499.60086100399388
 21
197.91602315275259
 31
0.0
  0
LINE
  5
8D81
  8
0
 10
499.60086100399388
 20
186.41602315269549
 30
0.0
 11
499.85086100398632
 21
186.16602315268909
 31
0.0
  0
LINE
  5
8D82
  8
0
 10
501.35086100394261
 20
186.1660231527537
 30
0.0
 11
501.60086100390231
 21
186.41602315273499
 31
0.0
  0
LINE
  5
8D83
  8
0
 10
501.60086100390231
 20
197.91602315271311
 30
0.0
 11
501.35086100394261
 21
198.16602315269421
 31
0.0
  0
LINE
  5
8D9D
  8
0
 10
495.6843428155596
 20
196.16602315272399
 30
0.0
 11
495.6843428155596
 21
188.16602315272041
 31
0.0
  0
LINE
  5
8D9F
  8
0
 10
512.61751840620468
 20
190.16602315272391
 30
0.0
 11
512.61751840620468
 21
194.16602315272399
 31
0.0
  0
LINE
  5
8DA0
  8
0
 10
512.51737919232573
 20
188.1660231527072
 30
0.0
 11
512.51737919232573
 21
196.16602315274071
 31
0.0
  0
LINE
  5
8DA1
  8
0
 10
501.60086100394273
 20
211.17498608915739
 30
0.0
 11
501.60086100394273
 21
184.16602315272399
 31
0.0
  0
LINE
  5
8DBC
  8
0
 10
526.60086100394267
 20
166.16602315272399
 30
0.0
 11
508.65086100394262
 21
166.16602315272399
 31
0.0
  0
LINE
  5
8DBD
  8
0
 10
526.60086100394267
 20
168.66602315272399
 30
0.0
 11
511.15086100394262
 21
168.66602315272399
 31
0.0
  0
LINE
  5
8DC0
  8
0
 10
497.0508610039426
 20
168.66602315272399
 30
0.0
 11
481.60086100394273
 21
168.66602315272399
 31
0.0
  0
LINE
  5
8DC1
  8
0
 10
481.60086100394273
 20
166.16602315272399
 30
0.0
 11
499.55086100394271
 21
166.16602315272399
 31
0.0
  0
LINE
  5
8DC5
  8
0
 10
526.60086100394267
 20
166.16602315272399
 30
0.0
 11
526.60086100394267
 21
168.66602315272399
 31
0.0
  0
LINE
  5
8DC8
  8
0
 10
481.60086100394273
 20
168.66602315272399
 30
0.0
 11
481.60086100394273
 21
166.16602315272399
 31
0.0
  0
LINE
  5
8DCB
  8
0
 10
508.65086100394268
 20
201.0016966944672
 30
0.0
 11
508.65086100394268
 21
166.16602315272399
 31
0.0
  0
LINE
  5
8DD0
  8
0
 10
511.15086100394268
 20
202.92367578471399
 30
0.0
 11
511.15086100394268
 21
202.94646302935101
 31
0.0
  0
LINE
  5
8DD1
  8
0
 10
497.05086100394271
 20
202.94646302935101
 30
0.0
 11
497.05086100394271
 21
202.92367578471399
 31
0.0
  0
LINE
  5
8DDA
  8
0
 10
511.15086100394228
 20
168.66602315272399
 30
0.0
 11
511.15086100394279
 21
211.1749860891575
 31
0.0
  0
POLYLINE
  5
8DDD
  8
0
 66
     1
 10
0.0
 20
0.0
 30
0.0
 70
   128
  0
VERTEX
  5
A802
  8
0
 10
508.65086100394291
 20
177.89807396029289
 30
0.0
  0
VERTEX
  5
A803
  8
0
 10
508.60223080414892
 20
178.11192454125
 30
0.0
  0
VERTEX
  5
A804
  8
0
 10
508.47928812868889
 20
178.16602315272399
 30
0.0
  0
SEQEND
  5
A805
  8
0
  0
POLYLINE
  5
8DDE
  8
0
 66
     1
 10
0.0
 20
0.0
 30
0.0
 70
   128
  0
VERTEX
  5
A806
  8
0
 10
508.65086100394291
 20
198.4339723451551
 30
0.0
  0
VERTEX
  5
A807
  8
0
 10
508.60223080414892
 20
198.2201217641981
 30
0.0
  0
VERTEX
  5
A808
  8
0
 10
508.47928812868889
 20
198.16602315272399
 30
0.0
  0
SEQEND
  5
A809
  8
0
  0
POLYLINE
  5
8DDF
  8
0
 66
     1
 10
0.0
 20
0.0
 30
0.0
 70
   128
  0
VERTEX
  5
A80A
  8
0
 10
499.72243387919661
 20
178.16602315272399
 30
0.0
  0
VERTEX
  5
A80B
  8
0
 10
499.58353140324829
 20
178.08647081602479
 30
0.0
  0
VERTEX
  5
A80C
  8
0
 10
499.55086100394283
 20
177.89807396029289
 30
0.0
  0
SEQEND
  5
A80D
  8
0
  0
POLYLINE
  5
8DE0
  8
0
 66
     1
 10
0.0
 20
0.0
 30
0.0
 70
   128
  0
VERTEX
  5
A80E
  8
0
 10
499.55086100394283
 20
198.4339723451551
 30
0.0
  0
VERTEX
  5
A80F
  8
0
 10
499.5994912037367
 20
198.2201217641981
 30
0.0
  0
VERTEX
  5
A810
  8
0
 10
499.72243387919661
 20
198.16602315272399
 30
0.0
  0
SEQEND
  5
A811
  8
0
  0
LINE
  5
8DE3
  8
0
 10
499.72243387919661
 20
198.16602315272399
 30
0.0
 11
501.60086100394273
 21
198.16602315272399
 31
0.0
  0
LINE
  5
8DE5
  8
0
 10
508.47928812868889
 20
178.16602315272399
 30
0.0
 11
499.72243387919661
 21
178.16602315272399
 31
0.0
  0
LINE
  5
8DEC
  8
0
 10
499.60086100390282
 20
201.10169669451071
 30
0.0
 11
499.60086100390282
 21
211.17498608915739
 31
0.0
  0
LINE
  5
8DEF
  8
0
 10
499.60086100399388
 20
186.41602315269549
 30
0.0
 11
499.60086100399388
 21
197.91602315275259
 31
0.0
  0
LINE
  5
8DF2
  8
0
 10
506.60086100394273
 20
184.16602315272399
 30
0.0
 11
506.6008610039425
 21
211.17498608915739
 31
0.0
  0
LINE
  5
8E92
  8
0
 10
280.45678399334741
 20
63.466023152695641
 30
0.0
 11
280.45678399334741
 21
61.766023152700022
 31
0.0
  0
LINE
  5
8E93
  8
0
 10
292.4567839933473
 20
61.766023152700022
 30
0.0
 11
292.4567839933473
 21
63.466023152695641
 31
0.0
  0
LINE
  5
8E94
  8
0
 10
280.45678399334219
 20
61.766023152700022
 30
0.0
 11
280.60678399331618
 21
61.616023152700159
 31
0.0
  0
LINE
  5
8E95
  8
0
 10
292.30678399337847
 20
61.616023152700159
 30
0.0
 11
292.45678399335247
 21
61.766023152700022
 31
0.0
  0
LINE
  5
8E96
  8
0
 10
292.45678399332007
 20
63.466023152695641
 30
0.0
 11
292.25678399329951
 21
63.666023152711318
 31
0.0
  0
LINE
  5
8E97
  8
0
 10
280.65678399339509
 20
63.666023152711318
 30
0.0
 11
280.45678399337447
 21
63.466023152695641
 31
0.0
  0
ARC
  5
8E98
  8
0
 10
301.560861003941
 20
14.71602315268853
 30
0.0
 40
60.000000000011902
 50
86.177446270722513
 51
91.910213171708165
  0
ARC
  5
8E99
  8
0
 10
301.560861003941
 20
117.61602315271961
 30
0.0
 40
60.0000000000217
 50
271.91021317170822
 51
273.82255372929052
  0
LINE
  5
8E9A
  8
0
 10
305.560861003941
 20
57.749504964316991
 30
0.0
 11
305.560861003941
 21
59.116023152700052
 31
0.0
  0
LINE
  5
8E9B
  8
0
 10
305.560861003941
 20
73.216023152700075
 30
0.0
 11
305.560861003941
 21
74.582541341083072
 31
0.0
  0
LINE
  5
8E9C
  8
0
 10
304.560861003941
 20
70.666023152648833
 30
0.0
 11
304.560861003941
 21
70.716023152700075
 31
0.0
  0
LINE
  5
8E9D
  8
0
 10
298.560861003941
 20
70.716023152700188
 30
0.0
 11
298.560861003941
 21
70.666023152648833
 31
0.0
  0
LINE
  5
8EA0
  8
0
 10
308.560861003941
 20
59.116023152700052
 30
0.0
 11
308.560861003941
 21
61.616023152700052
 31
0.0
  0
LINE
  5
8EA1
  8
0
 10
308.560861003941
 20
70.716023152700075
 30
0.0
 11
308.560861003941
 21
73.216023152700075
 31
0.0
  0
LINE
  5
8EA2
  8
0
 10
295.56086100397118
 20
61.766023152610842
 30
0.0
 11
295.71086100387367
 21
61.616023152700159
 31
0.0
  0
LINE
  5
8EA3
  8
0
 10
307.4108610040081
 20
61.616023152700052
 30
0.0
 11
307.5608610039107
 21
61.766023152610842
 31
0.0
  0
LINE
  5
8EA4
  8
0
 10
295.560861003941
 20
63.466023152700082
 30
0.0
 11
295.560861003941
 21
61.766023152610842
 31
0.0
  0
LINE
  5
8EA5
  8
0
 10
307.560861003941
 20
61.766023152610842
 30
0.0
 11
307.560861003941
 21
63.466023152700082
 31
0.0
  0
LINE
  5
8EA6
  8
0
 10
307.56086100393958
 20
63.466023152700082
 30
0.0
 11
307.36086100401451
 21
63.666023152602861
 31
0.0
  0
LINE
  5
8EA7
  8
0
 10
295.76086100386749
 20
63.666023152602861
 30
0.0
 11
295.56086100394242
 21
63.466023152700082
 31
0.0
  0
LINE
  5
8EA8
  8
0
 10
292.4567839933473
 20
68.916023152700006
 30
0.0
 11
292.4567839933473
 21
70.416023152770023
 31
0.0
  0
LINE
  5
8EA9
  8
0
 10
280.45678399334741
 20
70.416023152770023
 30
0.0
 11
280.45678399334741
 21
68.916023152700006
 31
0.0
  0
LINE
  5
8EAA
  8
0
 10
292.45678399332621
 20
70.416023152770023
 30
0.0
 11
292.20678399333491
 21
70.666023152739797
 31
0.0
  0
LINE
  5
8EAB
  8
0
 10
280.70678399335981
 20
70.666023152739797
 30
0.0
 11
280.45678399336839
 21
70.416023152770023
 31
0.0
  0
LINE
  5
8EAC
  8
0
 10
280.45678399329569
 20
68.916023152700006
 30
0.0
 11
280.70678399335668
 21
68.666023152660557
 31
0.0
  0
LINE
  5
8EAD
  8
0
 10
292.20678399333792
 20
68.666023152660557
 30
0.0
 11
292.45678399339891
 21
68.916023152700006
 31
0.0
  0
LINE
  5
8EAE
  8
0
 10
307.560861003941
 20
68.916023152700006
 30
0.0
 11
307.560861003941
 21
70.416023152656351
 31
0.0
  0
LINE
  5
8EAF
  8
0
 10
295.560861003941
 20
70.416023152656351
 30
0.0
 11
295.560861003941
 21
68.916023152700006
 31
0.0
  0
LINE
  5
8EB0
  8
0
 10
307.56086100397579
 20
70.416023152656351
 30
0.0
 11
307.31086100396959
 21
70.666023152648833
 31
0.0
  0
LINE
  5
8EB1
  8
0
 10
295.81086100391252
 20
70.666023152648833
 30
0.0
 11
295.56086100390621
 21
70.416023152656351
 31
0.0
  0
LINE
  5
8EB2
  8
0
 10
295.56086100397067
 20
68.916023152700006
 30
0.0
 11
295.81086100395191
 21
68.666023152740365
 31
0.0
  0
LINE
  5
8EB3
  8
0
 10
307.31086100393009
 20
68.666023152740365
 30
0.0
 11
307.56086100391121
 21
68.916023152700006
 31
0.0
  0
LINE
  5
8EB4
  8
0
 10
309.560861003941
 20
63.666023152700063
 30
0.0
 11
309.560861003941
 21
68.66602315269995
 31
0.0
  0
LINE
  5
8EB5
  8
0
 10
278.45980846974783
 20
68.666023152700063
 30
0.0
 11
278.45980846974783
 21
63.666023152699999
 31
0.0
  0
LINE
  5
8EB6
  8
0
 10
266.560861003941
 20
61.616023152700159
 30
0.0
 11
266.560861003941
 21
63.616023152699988
 31
0.0
  0
LINE
  5
8EB7
  8
0
 10
260.560861003941
 20
70.716023152700188
 30
0.0
 11
260.560861003941
 21
68.716023152700075
 31
0.0
  0
LINE
  5
8EB8
  8
0
 10
289.30278796260433
 20
70.666023152739911
 30
0.0
 11
289.30278796260433
 21
70.716023152700188
 31
0.0
  0
LINE
  5
8EB9
  8
0
 10
283.30278796260421
 20
70.716023152700188
 30
0.0
 11
283.30278796260421
 21
70.666023152739911
 31
0.0
  0
LINE
  5
8EBD
  8
0
 10
305.56086100394282
 20
74.582541341083072
 30
0.0
 11
299.560861003941
 21
74.582541341083072
 31
0.0
  0
LINE
  5
8EBE
  8
0
 10
301.560861003941
 20
57.649365750438051
 30
0.0
 11
303.560861003941
 21
57.649365750438051
 31
0.0
  0
LINE
  5
8EBF
  8
0
 10
299.56086100394089
 20
57.649365750438051
 30
0.0
 11
301.560861003941
 21
57.649365750438051
 31
0.0
  0
LINE
  5
8EC0
  8
0
 10
299.560861003941
 20
57.749504964316991
 30
0.0
 11
305.560861003941
 21
57.749504964316991
 31
0.0
  0
LINE
  5
8EC7
  8
0
 10
324.7313071733202
 20
68.666023152700006
 30
0.0
 11
278.45980846974783
 21
68.666023152700006
 31
0.0
  0
LINE
  5
8ED1
  8
0
 10
261.560861003941
 20
43.66602315270012
 30
0.0
 11
293.560861003941
 21
43.66602315270012
 31
0.0
  0
ARC
  5
8ED2
  8
0
 10
261.560861003941
 20
49.66602315270012
 30
0.0
 40
6.0000000000000142
 50
180.0
 51
270.0
  0
LINE
  5
8ED3
  8
0
 10
255.560861003941
 20
49.66602315270012
 30
0.0
 11
255.560861003941
 21
61.616023152700159
 31
0.0
  0
LINE
  5
8ED5
  8
0
 10
299.560861003941
 20
49.66602315270012
 30
0.0
 11
299.560861003941
 21
61.616023152700159
 31
0.0
  0
ARC
  5
8ED6
  8
0
 10
293.560861003941
 20
49.66602315270012
 30
0.0
 40
6.0
 50
270.0
 51
0.0
  0
LINE
  5
8EDF
  8
0
 10
293.560861003941
 20
88.666023152700134
 30
0.0
 11
261.560861003941
 21
88.666023152700134
 31
0.0
  0
ARC
  5
8EE0
  8
0
 10
293.560861003941
 20
82.666023152700106
 30
0.0
 40
6.0000000000000071
 50
0.0
 51
90.0
  0
LINE
  5
8EE1
  8
0
 10
299.560861003941
 20
82.666023152700106
 30
0.0
 11
299.560861003941
 21
70.716023152700188
 31
0.0
  0
LINE
  5
8EE3
  8
0
 10
255.560861003941
 20
70.716023152700188
 30
0.0
 11
255.560861003941
 21
82.666023152700106
 31
0.0
  0
ARC
  5
8EE4
  8
0
 10
261.560861003941
 20
82.666023152700106
 30
0.0
 40
6.0000000000000142
 50
90.0
 51
180.0
  0
POLYLINE
  5
8EE5
  8
0
 66
     1
 10
0.0
 20
0.0
 30
0.0
 70
   128
  0
VERTEX
  5
A812
  8
0
 10
254.560861003941
 20
59.116023152700109
 30
0.0
  0
VERTEX
  5
A813
  8
0
 10
253.96303757309471
 20
59.148609948493622
 30
0.0
  0
VERTEX
  5
A814
  8
0
 10
253.560861003941
 20
59.207696239504124
 30
0.0
  0
SEQEND
  5
A815
  8
0
  0
POLYLINE
  5
8EE7
  8
0
 66
     1
 10
0.0
 20
0.0
 30
0.0
 70
   128
  0
VERTEX
  5
A816
  8
0
 10
254.560861003941
 20
61.616023152700109
 30
0.0
  0
VERTEX
  5
A817
  8
0
 10
254.02288674579179
 20
61.664653352493978
 30
0.0
  0
VERTEX
  5
A818
  8
0
 10
253.560861003941
 20
61.787596027953889
 30
0.0
  0
SEQEND
  5
A819
  8
0
  0
LINE
  5
8EE8
  8
0
 10
255.560861003941
 20
59.116023152700109
 30
0.0
 11
254.560861003941
 21
59.116023152700109
 31
0.0
  0
LINE
  5
8EE9
  8
0
 10
308.560861003941
 20
61.616023152700109
 30
0.0
 11
254.560861003941
 21
61.616023152700109
 31
0.0
  0
POLYLINE
  5
8EEA
  8
0
 66
     1
 10
0.0
 20
0.0
 30
0.0
 70
   128
  0
VERTEX
  5
A81A
  8
0
 10
253.560861003941
 20
73.124350065896067
 30
0.0
  0
VERTEX
  5
A81B
  8
0
 10
254.1882257755492
 20
73.203385268194381
 30
0.0
  0
VERTEX
  5
A81C
  8
0
 10
254.560861003941
 20
73.216023152700075
 30
0.0
  0
SEQEND
  5
A81D
  8
0
  0
POLYLINE
  5
8EEB
  8
0
 66
     1
 10
0.0
 20
0.0
 30
0.0
 70
   128
  0
VERTEX
  5
A81E
  8
0
 10
253.560861003941
 20
70.544450277446288
 30
0.0
  0
VERTEX
  5
A81F
  8
0
 10
254.11932386978111
 20
70.683352753394672
 30
0.0
  0
VERTEX
  5
A820
  8
0
 10
254.560861003941
 20
70.716023152700075
 30
0.0
  0
SEQEND
  5
A821
  8
0
  0
LINE
  5
8EED
  8
0
 10
254.560861003941
 20
73.216023152700075
 30
0.0
 11
255.560861003941
 21
73.216023152700075
 31
0.0
  0
LINE
  5
8EEE
  8
0
 10
308.560861003941
 20
70.716023152700018
 30
0.0
 11
254.560861003941
 21
70.716023152700075
 31
0.0
  0
LINE
  5
8EEF
  8
0
 10
251.560861003941
 20
64.616023152700109
 30
0.0
 11
251.560861003941
 21
67.716023152700075
 31
0.0
  0
LINE
  5
8EF0
  8
0
 10
249.060861003941
 20
67.716023152700075
 30
0.0
 11
249.060861003941
 21
64.616023152700109
 31
0.0
  0
ARC
  5
8EF1
  8
0
 10
254.560861003941
 20
64.616023152700109
 30
0.0
 40
3.0000000000000009
 50
180.0
 51
250.5287793655101
  0
ARC
  5
8EF2
  8
0
 10
254.560861003941
 20
67.716023152700075
 30
0.0
 40
3.0000000000000009
 50
109.4712206344899
 51
180.0
  0
ARC
  5
8EF3
  8
0
 10
254.560861003941
 20
64.616023152700109
 30
0.0
 40
5.5
 50
180.0
 51
259.52431830360962
  0
ARC
  5
8EF4
  8
0
 10
254.560861003941
 20
67.716023152700075
 30
0.0
 40
5.5
 50
100.4756816963904
 51
180.0
  0
LINE
  5
8F0B
  8
0
 10
280.70678399335981
 20
70.666023152739797
 30
0.0
 11
292.20678399333491
 21
70.666023152739797
 31
0.0
  0
LINE
  5
8F0F
  8
0
 10
295.81086100391252
 20
70.666023152648833
 30
0.0
 11
307.31086100396959
 21
70.666023152648833
 31
0.0
  0
LINE
  5
8F17
  8
0
 10
278.45980846974783
 20
63.666023152699999
 30
0.0
 11
324.73130717332049
 21
63.666023152699928
 31
0.0
  0
CIRCLE
  5
8F98
  8
0
 10
189.06086100394111
 20
339.16694936830208
 30
0.0
 40
4.0
  0
CIRCLE
  5
8F99
  8
3
 10
189.06086100394111
 20
339.16694936830208
 30
0.0
 40
3.3235000000000001
  0
LINE
  5
8F9D
  8
3
 10
192.38436100394091
 20
218.0855231527288
 30
0.0
 11
192.38436100394091
 21
214.97602315272411
 31
0.0
  0
LINE
  5
8F9E
  8
3
 10
185.737361003941
 20
218.08552315272891
 30
0.0
 11
185.737361003941
 21
214.976023152724
 31
0.0
  0
LINE
  5
8F9F
  8
3
 10
192.38436100394091
 20
195.67602315272401
 30
0.0
 11
192.38436100394091
 21
173.17602292810361
 31
0.0
  0
LINE
  5
8FA0
  8
3
 10
185.737361003941
 20
195.6760231527241
 30
0.0
 11
185.737361003941
 21
173.17602324657079
 31
0.0
  0
CIRCLE
  5
8FA8
  8
0
 10
268.40086100394097
 20
227.57602315272399
 30
0.0
 40
4.0
  0
LINE
  5
8FFA
  8
0
 10
254.560861003941
 20
334.6169493683019
 30
0.0
 11
265.40086100394097
 21
334.6169493683019
 31
0.0
  0
LINE
  5
8FFB
  8
0
 10
254.560861003941
 20
332.1169493683019
 30
0.0
 11
308.560861003941
 21
332.1169493683019
 31
0.0
  0
LINE
  5
8FFC
  8
0
 10
283.30278796260421
 20
334.66694936826218
 30
0.0
 11
283.30278796260421
 21
334.56694936830189
 31
0.0
  0
LINE
  5
9023
  8
0
 10
499.55086100394232
 20
211.1749860891575
 30
0.0
 11
499.5508610039426
 21
209.9492425120394
 31
0.0
  0
LINE
  5
9024
  8
0
 10
497.050861003943
 20
168.66602315272399
 30
0.0
 11
497.05086100394249
 21
211.17498608915739
 31
0.0
  0
LINE
  5
9041
  8
0
 10
76.01086100394167
 20
173.17602315272401
 30
0.0
 11
76.01086100394167
 21
177.89807396029289
 31
0.0
  0
LINE
  5
9042
  8
0
 10
85.110861003941565
 20
173.17602315272401
 30
0.0
 11
85.110861003941665
 21
177.89807396029289
 31
0.0
  0
LINE
  5
9043
  8
0
 10
76.560861003941795
 20
178.16602315272411
 30
0.0
 11
73.602534090745678
 21
178.16602315272399
 31
0.0
  0
LINE
  5
9044
  8
0
 10
87.060861003941767
 20
198.16602315272399
 30
0.0
 11
87.519187917137614
 21
198.16602315272399
 31
0.0
  0
LINE
  5
9045
  8
3
 10
83.884361003941592
 20
218.0855231527288
 30
0.0
 11
83.884361003941592
 21
214.97602315272411
 31
0.0
  0
LINE
  5
9046
  8
3
 10
83.884361003941592
 20
195.67602315272401
 30
0.0
 11
83.884361003941592
 21
173.17602292810361
 31
0.0
  0
LINE
  5
9047
  8
3
 10
77.237361003941658
 20
218.08552315272891
 30
0.0
 11
77.237361003941658
 21
214.976023152724
 31
0.0
  0
LINE
  5
9048
  8
3
 10
77.237361003941658
 20
195.6760231527241
 30
0.0
 11
77.237361003941658
 21
173.17602324657079
 31
0.0
  0
LINE
  5
9062
  8
0
 10
506.60086100394261
 20
199.66602315272399
 30
0.0
 11
506.65086100394262
 21
199.66602315272411
 31
0.0
  0
LINE
  5
906E
  8
3
 10
507.42436100394241
 20
178.16602315272399
 30
0.0
 11
507.42436100394241
 21
173.17602292810369
 31
0.0
  0
LINE
  5
906F
  8
3
 10
500.77736100394247
 20
178.16602315272399
 30
0.0
 11
500.77736100394247
 21
173.17602324657091
 31
0.0
  0
LINE
  5
9075
  8
0
 10
260.560861003941
 20
336.6169493683019
 30
0.0
 11
260.560861003941
 21
334.61694936830202
 31
0.0
  0
ARC
  5
9076
  8
0
 10
254.560861003941
 20
337.61694936830202
 30
0.0
 40
5.5000000000000071
 50
211.98649318181671
 51
259.52431830360962
  0
ARC
  5
9077
  8
0
 10
254.560861003941
 20
340.71694936830198
 30
0.0
 40
5.5
 50
172.6160741932141
 51
180.0
  0
LINE
  5
908B
  8
0
 10
276.60086100394102
 20
68.716023152699961
 30
0.0
 11
276.60086100394102
 21
63.616023152699817
 31
0.0
  0
CIRCLE
  5
908D
  8
0
 10
189.06086100394111
 20
66.166023152700234
 30
0.0
 40
6.5000000000000142
  0
LINE
  5
9094
  8
0
 10
266.560861003941
 20
68.716023152700188
 30
0.0
 11
266.560861003941
 21
70.716023152700188
 31
0.0
  0
LINE
  5
9095
  8
0
 10
260.560861003941
 20
63.616023152699988
 30
0.0
 11
260.560861003941
 21
61.616023152700159
 31
0.0
  0
LINE
  5
9096
  8
0
 10
280.79366494190231
 20
336.61694936830202
 30
0.0
 11
280.79366494190231
 21
341.71694936830193
 31
0.0
  0
LINE
  5
909F
  8
0
 10
271.40086100394097
 20
68.716023152700359
 30
0.0
 11
271.40086100394097
 21
70.716023152700075
 31
0.0
  0
LINE
  5
90C9
  8
0
 10
286.60086100394102
 20
341.66694936830203
 30
0.0
 11
280.79366494190231
 21
341.66694936830203
 31
0.0
  0
LINE
  5
90CC
  8
0
 10
286.60086100394102
 20
334.66694936826218
 30
0.0
 11
280.70678399335458
 21
334.66694936826218
 31
0.0
  0
LINE
  5
90CD
  8
0
 10
291.60086100394102
 20
334.61694936830202
 30
0.0
 11
308.560861003941
 21
334.61694936830202
 31
0.0
  0
LINE
  5
90CE
  8
0
 10
265.40086100394097
 20
336.61694936830207
 30
0.0
 11
265.40086100394097
 21
334.56694936830212
 31
0.0
  0
LINE
  5
90CF
  8
0
 10
271.40086100394097
 20
341.71694936830193
 30
0.0
 11
271.40086100394097
 21
343.76694936830199
 31
0.0
  0
LINE
  5
90D0
  8
0
 10
271.40086100394097
 20
343.7169493683021
 30
0.0
 11
280.60678399331113
 21
343.7169493683021
 31
0.0
  0
LINE
  5
90D1
  8
0
 10
271.40086100394097
 20
334.6169493683019
 30
0.0
 11
283.30278796260421
 21
334.61694936830202
 31
0.0
  0
LINE
  5
90ED
  8
0
 10
78.010861003941386
 20
230.5760005476678
 30
0.0
 11
75.960861003941289
 21
230.57600054766789
 31
0.0
  0
LINE
  5
9113
  8
1
 10
189.06086100394111
 20
349.81694936830201
 30
0.0
 11
189.06086100394111
 21
328.51694936830211
 31
0.0
  0
LINE
  5
9114
  8
1
 10
226.06086100394111
 20
346.26694936830222
 30
0.0
 11
226.06086100394111
 21
332.06694936830218
 31
0.0
  0
LINE
  5
9115
  8
1
 10
416.0808107523672
 20
339.16694936830208
 30
0.0
 11
175.06201627906091
 21
339.16694936830208
 31
0.0
  0
LINE
  5
9116
  8
1
 10
264.560861003941
 20
358.76694936830211
 30
0.0
 11
264.560861003941
 21
348.11694936830202
 31
0.0
  0
LINE
  5
9117
  8
1
 10
268.66086100394091
 20
352.2169493683021
 30
0.0
 11
260.46086100394109
 21
352.2169493683021
 31
0.0
  0
LINE
  5
9118
  8
1
 10
268.66086100394091
 20
354.6669493683022
 30
0.0
 11
260.46086100394109
 21
354.6669493683022
 31
0.0
  0
LINE
  5
911B
  8
1
 10
290.560861003941
 20
358.76694936830211
 30
0.0
 11
290.560861003941
 21
348.11694936830202
 31
0.0
  0
LINE
  5
911D
  8
1
 10
294.66086100394091
 20
354.6669493683022
 30
0.0
 11
286.46086100394109
 21
354.6669493683022
 31
0.0
  0
LINE
  5
9129
  8
1
 10
189.060861003941
 20
76.816023152699984
 30
0.0
 11
189.060861003941
 21
55.516023152700022
 31
0.0
  0
LINE
  5
912A
  8
1
 10
226.060861003941
 20
73.266023152700143
 30
0.0
 11
226.060861003941
 21
59.066023152700097
 31
0.0
  0
LINE
  5
912B
  8
1
 10
416.08081075236731
 20
66.166023152700021
 30
0.0
 11
175.0620162790608
 21
66.166023152700006
 31
0.0
  0
LINE
  5
913F
  8
1
 10
189.060861003941
 20
221.1760231527098
 30
0.0
 11
189.060861003941
 21
164.8760235188829
 31
0.0
  0
LINE
  5
9147
  8
1
 10
268.40086100394097
 20
232.57602315272581
 30
0.0
 11
268.40086100394097
 21
222.5760231527222
 31
0.0
  0
LINE
  5
9148
  8
1
 10
263.40086100393921
 20
227.57602315272399
 30
0.0
 11
273.40086100394279
 21
227.57602315272399
 31
0.0
  0
LINE
  5
9149
  8
1
 10
263.560861003941
 20
213.1660231527259
 30
0.0
 11
263.560861003941
 21
203.1660231527222
 31
0.0
  0
LINE
  5
914A
  8
1
 10
258.56086100393918
 20
208.16602315272399
 30
0.0
 11
268.56086100394282
 21
208.16602315272399
 31
0.0
  0
LINE
  5
914B
  8
1
 10
286.30278796260421
 20
211.94646302935459
 30
0.0
 11
286.30278796260421
 21
201.94646302935101
 31
0.0
  0
LINE
  5
914C
  8
1
 10
281.30278796260239
 20
206.9464630293528
 30
0.0
 11
291.30278796260598
 21
206.9464630293528
 31
0.0
  0
LINE
  5
914D
  8
1
 10
301.560861003941
 20
197.16602315272581
 30
0.0
 11
301.560861003941
 21
187.1660231527222
 31
0.0
  0
LINE
  5
914E
  8
1
 10
296.56086100393918
 20
192.16602315272399
 30
0.0
 11
306.56086100394282
 21
192.16602315272399
 31
0.0
  0
LINE
  5
914F
  8
1
 10
264.560861003941
 20
169.66602315272399
 30
0.0
 11
264.560861003941
 21
165.16602315272399
 31
0.0
  0
LINE
  5
9150
  8
1
 10
290.560861003941
 20
169.66602315272399
 30
0.0
 11
290.560861003941
 21
165.16602315272399
 31
0.0
  0
LINE
  5
9155
  8
1
 10
80.560861003940957
 20
244.16995602373891
 30
0.0
 11
80.560861003940971
 21
161.16602315272391
 31
0.0
  0
LINE
  5
924C
  8
1
 10
504.10086100394187
 20
244.16995602373891
 30
0.0
 11
504.10086100394187
 21
161.16602315272391
 31
0.0
  0
LINE
  5
927A
  8
1
 10
294.66086100394091
 20
352.2169493683021
 30
0.0
 11
286.46086100394109
 21
352.2169493683021
 31
0.0
  0
LINE
  5
927B
  8
0
 10
267.66086100394131
 20
323.66694936830169
 30
0.0
 11
267.66086100394119
 21
326.1169493683019
 31
0.0
  0
ARC
  5
927C
  8
0
 10
264.56086100394123
 20
323.66694936830169
 30
0.0
 40
3.1000000000000081
 50
180.0
 51
0.0
  0
LINE
  5
927D
  8
0
 10
261.46086100394109
 20
326.1169493683019
 30
0.0
 11
261.4608610039412
 21
323.66694936830157
 31
0.0
  0
ARC
  5
927E
  8
0
 10
264.56086100394123
 20
326.1169493683019
 30
0.0
 40
3.1000000000000081
 50
0.0
 51
180.0
  0
LINE
  5
927F
  8
0
 10
293.66086100394119
 20
323.6669493683022
 30
0.0
 11
293.66086100394119
 21
326.11694936830241
 31
0.0
  0
ARC
  5
9280
  8
0
 10
290.56086100394123
 20
323.66694936830208
 30
0.0
 40
3.1000000000000081
 50
180.0
 51
0.0
  0
LINE
  5
9281
  8
0
 10
287.4608610039412
 20
326.1169493683023
 30
0.0
 11
287.4608610039412
 21
323.66694936830203
 31
0.0
  0
ARC
  5
9282
  8
0
 10
290.56086100394123
 20
326.1169493683023
 30
0.0
 40
3.1000000000000081
 50
0.0
 51
180.0
  0
LINE
  5
9283
  8
1
 10
264.56086100394128
 20
319.56694936830178
 30
0.0
 11
264.56086100394111
 21
330.21694936830193
 31
0.0
  0
LINE
  5
9284
  8
1
 10
268.66086100394108
 20
326.1169493683019
 30
0.0
 11
260.46086100394132
 21
326.11694936830168
 31
0.0
  0
LINE
  5
9285
  8
1
 10
268.66086100394108
 20
323.6669493683018
 30
0.0
 11
260.46086100394132
 21
323.66694936830157
 31
0.0
  0
LINE
  5
9286
  8
1
 10
290.56086100394128
 20
319.56694936830218
 30
0.0
 11
290.56086100394111
 21
330.21694936830232
 31
0.0
  0
LINE
  5
9287
  8
1
 10
294.66086100394108
 20
323.6669493683022
 30
0.0
 11
286.46086100394132
 21
323.66694936830203
 31
0.0
  0
LINE
  5
9288
  8
1
 10
294.66086100394108
 20
326.1169493683023
 30
0.0
 11
286.46086100394132
 21
326.11694936830207
 31
0.0
  0
LINE
  5
9289
  8
0
 10
267.66086100394102
 20
81.66602315270012
 30
0.0
 11
267.66086100394102
 21
79.216023152699904
 31
0.0
  0
ARC
  5
928A
  8
0
 10
264.560861003941
 20
81.66602315270012
 30
0.0
 40
3.1000000000000081
 50
0.0
 51
180.0
  0
LINE
  5
928B
  8
0
 10
261.46086100394098
 20
79.216023152699904
 30
0.0
 11
261.46086100394098
 21
81.66602315270012
 31
0.0
  0
ARC
  5
928C
  8
0
 10
264.560861003941
 20
79.216023152699904
 30
0.0
 40
3.1000000000000081
 50
180.0
 51
0.0
  0
LINE
  5
928D
  8
0
 10
293.66086100394102
 20
81.66602315270012
 30
0.0
 11
293.66086100394102
 21
79.216023152699904
 31
0.0
  0
ARC
  5
928E
  8
0
 10
290.560861003941
 20
81.66602315270012
 30
0.0
 40
3.1000000000000081
 50
0.0
 51
180.0
  0
LINE
  5
928F
  8
0
 10
287.46086100394098
 20
79.216023152699904
 30
0.0
 11
287.46086100394098
 21
81.66602315270012
 31
0.0
  0
ARC
  5
9290
  8
0
 10
290.560861003941
 20
79.216023152699904
 30
0.0
 40
3.1000000000000081
 50
180.0
 51
0.0
  0
LINE
  5
9291
  8
1
 10
264.560861003941
 20
85.766023152700029
 30
0.0
 11
264.560861003941
 21
75.116023152699881
 31
0.0
  0
LINE
  5
9292
  8
1
 10
268.66086100394091
 20
79.216023152700018
 30
0.0
 11
260.46086100394109
 21
79.216023152700018
 31
0.0
  0
LINE
  5
9293
  8
1
 10
268.66086100394091
 20
81.66602315270012
 30
0.0
 11
260.46086100394109
 21
81.66602315270012
 31
0.0
  0
LINE
  5
9294
  8
1
 10
290.560861003941
 20
85.766023152700029
 30
0.0
 11
290.560861003941
 21
75.116023152699881
 31
0.0
  0
LINE
  5
9295
  8
1
 10
294.66086100394091
 20
81.66602315270012
 30
0.0
 11
286.46086100394109
 21
81.66602315270012
 31
0.0
  0
LINE
  5
9296
  8
1
 10
294.66086100394091
 20
79.216023152700018
 30
0.0
 11
286.46086100394109
 21
79.216023152700018
 31
0.0
  0
LINE
  5
9297
  8
0
 10
267.66086100394131
 20
50.666023152699601
 30
0.0
 11
267.66086100394119
 21
53.116023152699832
 31
0.0
  0
ARC
  5
9298
  8
0
 10
264.56086100394123
 20
50.666023152699601
 30
0.0
 40
3.1000000000000081
 50
180.0
 51
0.0
  0
LINE
  5
9299
  8
0
 10
261.46086100394109
 20
53.116023152699761
 30
0.0
 11
261.4608610039412
 21
50.666023152699552
 31
0.0
  0
ARC
  5
929A
  8
0
 10
264.56086100394123
 20
53.116023152699832
 30
0.0
 40
3.1000000000000081
 50
0.0
 51
180.0
  0
LINE
  5
929B
  8
0
 10
293.66086100394119
 20
50.66602315270007
 30
0.0
 11
293.66086100394119
 21
53.116023152700279
 31
0.0
  0
ARC
  5
929C
  8
0
 10
290.56086100394123
 20
50.666023152699999
 30
0.0
 40
3.1000000000000081
 50
180.0
 51
0.0
  0
LINE
  5
929D
  8
0
 10
287.4608610039412
 20
53.116023152700159
 30
0.0
 11
287.4608610039412
 21
50.66602315269995
 31
0.0
  0
ARC
  5
929E
  8
0
 10
290.56086100394123
 20
53.116023152700222
 30
0.0
 40
3.1000000000000081
 50
0.0
 51
180.0
  0
LINE
  5
929F
  8
1
 10
264.56086100394128
 20
46.566023152699699
 30
0.0
 11
264.56086100394111
 21
57.216023152699847
 31
0.0
  0
LINE
  5
92A0
  8
1
 10
268.66086100394108
 20
53.116023152699761
 30
0.0
 11
260.46086100394132
 21
53.116023152699597
 31
0.0
  0
LINE
  5
92A1
  8
1
 10
268.66086100394108
 20
50.666023152699672
 30
0.0
 11
260.46086100394132
 21
50.666023152699502
 31
0.0
  0
LINE
  5
92A2
  8
1
 10
290.56086100394128
 20
46.56602315270009
 30
0.0
 11
290.56086100394111
 21
57.216023152700252
 31
0.0
  0
LINE
  5
92A3
  8
1
 10
294.66086100394108
 20
50.66602315270007
 30
0.0
 11
286.46086100394132
 21
50.66602315269995
 31
0.0
  0
LINE
  5
92A4
  8
1
 10
294.66086100394108
 20
53.116023152700159
 30
0.0
 11
286.46086100394132
 21
53.116023152700052
 31
0.0
  0
LINE
  5
9398
  8
1
 10
65.060861003940829
 20
169.66602315272399
 30
0.0
 11
65.060861003940829
 21
165.16602315272399
 31
0.0
  0
LINE
  5
9399
  8
1
 10
67.510861003940931
 20
169.66602315272399
 30
0.0
 11
67.510861003940931
 21
165.16602315272399
 31
0.0
  0
LINE
  5
939A
  8
1
 10
93.610861003941352
 20
169.66602315272399
 30
0.0
 11
93.610861003941352
 21
165.16602315272399
 31
0.0
  0
LINE
  5
939B
  8
1
 10
96.060861003941454
 20
169.66602315272399
 30
0.0
 11
96.060861003941454
 21
165.16602315272399
 31
0.0
  0
LINE
  5
939C
  8
1
 10
488.60086100394182
 20
169.66602315272399
 30
0.0
 11
488.60086100394182
 21
165.16602315272399
 31
0.0
  0
LINE
  5
939D
  8
1
 10
491.05086100394192
 20
169.66602315272399
 30
0.0
 11
491.05086100394192
 21
165.16602315272399
 31
0.0
  0
LINE
  5
939E
  8
1
 10
517.15086100394228
 20
169.66602315272399
 30
0.0
 11
517.15086100394228
 21
165.16602315272399
 31
0.0
  0
LINE
  5
939F
  8
1
 10
519.60086100394255
 20
169.66602315272399
 30
0.0
 11
519.60086100394255
 21
165.16602315272399
 31
0.0
  0
LINE
  5
99E7
  8
0
 10
376.17322296361942
 20
234.8760231527242
 30
0.0
 11
376.17322296361942
 21
218.47602315272459
 31
0.0
  0
ARC
  5
99EF
  8
0
 10
363.6613875610667
 20
304.2927026819342
 30
0.0
 40
93.117716592775821
 50
257.87399374696008
 51
270.2704111299542
  0
ARC
  5
99F2
  8
0
 10
364.5403344468146
 20
304.29270268192789
 30
0.0
 40
93.117716592770307
 50
269.72958887004421
 51
282.12600625304339
  0
ARC
  5
99F3
  8
0
 10
364.56756415346132
 20
124.3862030095362
 30
0.0
 40
114.7807689638486
 50
80.201763027448891
 51
90.232967549145116
  0
ARC
  5
99F6
  8
0
 10
363.63415785441958
 20
124.3862030095431
 30
0.0
 40
114.78076896384189
 50
89.767032450854444
 51
99.798236972549915
  0
LINE
  5
99F7
  8
0
 10
345.82333805382461
 20
219.1961882074751
 30
0.0
 11
345.82333805382461
 21
234.15585809797321
 31
0.0
  0
ARC
  5
99F8
  8
0
 10
352.7008610039411
 20
201.67602315272021
 30
0.0
 40
33.200000000003968
 50
90.0
 51
101.9556392071715
  0
POLYLINE
  5
99F9
  8
0
 66
     1
 10
0.0
 20
0.0
 30
0.0
 70
   128
  0
VERTEX
  5
A822
  8
0
 10
352.70086100394099
 20
218.47602315272411
 30
0.0
  0
VERTEX
  5
A823
  8
0
 10
349.26252195386451
 20
218.65454794980931
 30
0.0
  0
VERTEX
  5
A824
  8
0
 10
345.82333805382461
 20
219.1961882074751
 30
0.0
  0
SEQEND
  5
A825
  8
0
  0
ARC
  5
99FC
  8
0
 10
393.40086100394348
 20
209.47602315273031
 30
0.0
 40
25.97999999999351
 50
64.886905885363106
 51
77.87048754223855
  0
ARC
  5
99FE
  8
0
 10
393.40086100393881
 20
243.8760231527294
 30
0.0
 40
25.980000000005731
 50
282.12951245776821
 51
295.11309411463679
  0
LINE
  5
99FF
  8
0
 10
398.85983526656571
 20
234.87602315272409
 30
0.0
 11
352.7008610039411
 21
234.87602315272409
 31
0.0
  0
LINE
  5
9A00
  8
0
 10
398.85983526656588
 20
218.47602315272411
 30
0.0
 11
352.70086100394099
 21
218.47602315272411
 31
0.0
  0
ARC
  5
9A01
  8
0
 10
346.40086100394052
 20
230.57602315272339
 30
0.0
 40
11.199999999999021
 50
232.24702640116021
 51
257.62803038007218
  0
ARC
  5
9A02
  8
0
 10
343.1008610039334
 20
226.6760231527162
 30
0.0
 40
6.0999999999891026
 50
222.874464015717
 51
234.32669339414949
  0
ARC
  5
9A04
  8
0
 10
343.10086100393772
 20
226.67602315272759
 30
0.0
 40
6.0999999999952852
 50
125.673306605863
 51
137.12553598427971
  0
ARC
  5
9A05
  8
0
 10
346.4008610039408
 20
222.7760231527246
 30
0.0
 40
11.19999999999953
 50
102.37196961992851
 51
127.75297359884139
  0
LINE
  5
9A06
  8
0
 10
345.8233380538245
 20
234.15585809797321
 30
0.0
 11
344.00117709902253
 21
233.71592795836469
 31
0.0
  0
LINE
  5
9A07
  8
0
 10
345.82333805382461
 20
219.1961882074751
 30
0.0
 11
344.00117709902241
 21
219.63611834708371
 31
0.0
  0
ARC
  5
9A09
  8
0
 10
351.77743969442349
 20
187.17775086686399
 30
0.0
 40
50.897170834376972
 50
98.674754219949719
 51
116.0071940501861
  0
ARC
  5
9A0A
  8
0
 10
348.15376424448931
 20
245.44006515400631
 30
0.0
 40
32.44159437323605
 50
234.8139696297666
 51
262.82333136970237
  0
ARC
  5
9A0B
  8
0
 10
380.04945497150601
 20
245.4363112959312
 30
0.0
 40
32.437682895054891
 50
277.1748731308731
 51
303.78387487387812
  0
ARC
  5
9A0D
  8
0
 10
343.10086100394352
 20
226.67602315272231
 30
0.0
 40
6.1000000000030923
 50
137.12553598428059
 51
158.55645373723681
  0
ARC
  5
9A0E
  8
0
 10
343.10086100394369
 20
226.67602315272589
 30
0.0
 40
6.1000000000031562
 50
201.44354626276311
 51
222.87446401571941
  0
ARC
  5
9A0F
  8
0
 10
376.42923941933049
 20
187.19362630600631
 30
0.0
 40
50.88072940824118
 50
69.576770648666766
 51
81.328067716222748
  0
ARC
  5
9A10
  8
0
 10
343.10086100394091
 20
226.6760231527241
 30
0.0
 40
6.1000000000000272
 50
158.5564537372434
 51
201.44354626275921
  0
ARC
  5
9A11
  8
0
 10
407.10086100394818
 20
227.0760231527201
 30
0.0
 40
3.9999999999920628
 50
309.58879943213202
 51
354.26082952278102
  0
ARC
  5
9A12
  8
0
 10
397.80086100394112
 20
235.47602315272411
 30
0.0
 40
16.50000000000021
 50
299.33474155247632
 51
315.90004738601402
  0
ARC
  5
9A13
  8
0
 10
397.80086100392231
 20
217.87602315270249
 30
0.0
 40
16.500000000028741
 50
44.099952613994091
 51
60.665258447496967
  0
ARC
  5
9A14
  8
0
 10
407.108060296904
 20
226.27986321117939
 30
0.0
 40
3.992453992304728
 50
5.6946696788407358
 51
50.455701366272443
  0
ARC
  5
9A15
  8
0
 10
393.40086100383593
 20
243.87602315293509
 30
0.0
 40
25.980000000235641
 50
295.11309411465061
 51
298.7184247343169
  0
LINE
  5
9A16
  8
0
 10
405.88439489413798
 20
232.26026730547821
 30
0.0
 11
404.42693839795919
 21
233.0001813162192
 31
0.0
  0
ARC
  5
9A17
  8
0
 10
334.02439768637112
 20
227.81014816658839
 30
0.0
 40
9.9881339515742038
 50
223.07291018142189
 51
242.80646548173021
  0
LINE
  5
9A18
  8
0
 10
326.72821314677168
 20
228.77602315272401
 30
0.0
 11
326.72821314676838
 21
220.9889671105943
 31
0.0
  0
LINE
  5
9A19
  8
0
 10
325.13268914474332
 20
228.77602315272401
 30
0.0
 11
326.72821314677168
 21
228.77602315272401
 31
0.0
  0
LINE
  5
9A1A
  8
0
 10
325.13268914474332
 20
228.57602315272399
 30
0.0
 11
325.13268914474332
 21
228.77602315272401
 31
0.0
  0
ARC
  5
9A1B
  8
0
 10
332.07897281991382
 20
225.2885511493312
 30
0.0
 40
8.06935314581869
 50
108.93996113386289
 51
155.95825251573919
  0
LINE
  5
9A8C
  8
0
 10
291.60086100394102
 20
336.66694936830208
 30
0.0
 11
324.48259891219868
 21
336.66694936830208
 31
0.0
  0
LINE
  5
9A8D
  8
0
 10
324.48259891219868
 20
341.66694936830208
 30
0.0
 11
291.60086100394102
 21
341.66694936830208
 31
0.0
  0
LINE
  5
9A8E
  8
0
 10
337.000861003941
 20
324.43326134595929
 30
0.0
 11
337.000861003941
 21
322.86694936830202
 31
0.0
  0
LINE
  5
9A8F
  8
0
 10
337.000861003941
 20
355.46694936830221
 30
0.0
 11
337.000861003941
 21
353.90063739064487
 31
0.0
  0
POLYLINE
  5
9AB6
  8
0
 10
291.60086100394142
 20
337.93112250895467
 30
0.0
 66
     1
 70
     8
  0
VERTEX
  8
0
  5
AC5F
 10
291.601
 20
337.931
 30
0.000000
  70
    32
  0
VERTEX
  8
0
  5
AC60
 10
291.657
 20
337.949
 30
0.000000
  70
    32
  0
VERTEX
  8
0
  5
AC61
 10
291.712
 20
337.966
 30
0.000000
  70
    32
  0
VERTEX
  8
0
  5
AC62
 10
291.767
 20
337.984
 30
0.000000
  70
    32
  0
VERTEX
  8
0
  5
AC63
 10
291.821
 20
338.002
 30
0.000000
  70
    32
  0
VERTEX
  8
0
  5
AC64
 10
291.874
 20
338.020
 30
0.000000
  70
    32
  0
VERTEX
  8
0
  5
AC65
 10
291.926
 20
338.038
 30
0.000000
  70
    32
  0
VERTEX
  8
0
  5
AC66
 10
291.977
 20
338.056
 30
0.000000
  70
    32
  0
VERTEX
  8
0
  5
AC67
 10
292.028
 20
338.074
 30
0.000000
  70
    32
  0
VERTEX
  8
0
  5
AC68
 10
292.077
 20
338.092
 30
0.000000
  70
    32
  0
VERTEX
  8
0
  5
AC69
 10
292.126
 20
338.111
 30
0.000000
  70
    32
  0
VERTEX
  8
0
  5
AC6A
 10
292.174
 20
338.129
 30
0.000000
  70
    32
  0
VERTEX
  8
0
  5
AC6B
 10
292.221
 20
338.147
 30
0.000000
  70
    32
  0
VERTEX
  8
0
  5
AC6C
 10
292.268
 20
338.166
 30
0.000000
  70
    32
  0
VERTEX
  8
0
  5
AC6D
 10
292.313
 20
338.184
 30
0.000000
  70
    32
  0
VERTEX
  8
0
  5
AC6E
 10
292.358
 20
338.203
 30
0.000000
  70
    32
  0
VERTEX
  8
0
  5
AC6F
 10
292.402
 20
338.222
 30
0.000000
  70
    32
  0
VERTEX
  8
0
  5
AC70
 10
292.444
 20
338.240
 30
0.000000
  70
    32
  0
VERTEX
  8
0
  5
AC71
 10
292.486
 20
338.259
 30
0.000000
  70
    32
  0
VERTEX
  8
0
  5
AC72
 10
292.528
 20
338.278
 30
0.000000
  70
    32
  0
VERTEX
  8
0
  5
AC73
 10
292.568
 20
338.297
 30
0.000000
  70
    32
  0
VERTEX
  8
0
  5
AC74
 10
292.607
 20
338.316
 30
0.000000
  70
    32
  0
VERTEX
  8
0
  5
AC75
 10
292.646
 20
338.335
 30
0.000000
  70
    32
  0
VERTEX
  8
0
  5
AC76
 10
292.684
 20
338.354
 30
0.000000
  70
    32
  0
VERTEX
  8
0
  5
AC77
 10
292.720
 20
338.373
 30
0.000000
  70
    32
  0
VERTEX
  8
0
  5
AC78
 10
292.756
 20
338.392
 30
0.000000
  70
    32
  0
VERTEX
  8
0
  5
AC79
 10
292.791
 20
338.411
 30
0.000000
  70
    32
  0
VERTEX
  8
0
  5
AC7A
 10
292.826
 20
338.431
 30
0.000000
  70
    32
  0
VERTEX
  8
0
  5
AC7B
 10
292.859
 20
338.450
 30
0.000000
  70
    32
  0
VERTEX
  8
0
  5
AC7C
 10
292.891
 20
338.469
 30
0.000000
  70
    32
  0
VERTEX
  8
0
  5
AC7D
 10
292.923
 20
338.489
 30
0.000000
  70
    32
  0
VERTEX
  8
0
  5
AC7E
 10
292.953
 20
338.508
 30
0.000000
  70
    32
  0
VERTEX
  8
0
  5
AC7F
 10
292.983
 20
338.528
 30
0.000000
  70
    32
  0
VERTEX
  8
0
  5
AC80
 10
293.012
 20
338.547
 30
0.000000
  70
    32
  0
VERTEX
  8
0
  5
AC81
 10
293.040
 20
338.567
 30
0.000000
  70
    32
  0
VERTEX
  8
0
  5
AC82
 10
293.067
 20
338.587
 30
0.000000
  70
    32
  0
VERTEX
  8
0
  5
AC83
 10
293.093
 20
338.606
 30
0.000000
  70
    32
  0
VERTEX
  8
0
  5
AC84
 10
293.118
 20
338.626
 30
0.000000
  70
    32
  0
VERTEX
  8
0
  5
AC85
 10
293.143
 20
338.646
 30
0.000000
  70
    32
  0
VERTEX
  8
0
  5
AC86
 10
293.166
 20
338.665
 30
0.000000
  70
    32
  0
VERTEX
  8
0
  5
AC87
 10
293.189
 20
338.685
 30
0.000000
  70
    32
  0
VERTEX
  8
0
  5
AC88
 10
293.210
 20
338.705
 30
0.000000
  70
    32
  0
VERTEX
  8
0
  5
AC89
 10
293.231
 20
338.725
 30
0.000000
  70
    32
  0
VERTEX
  8
0
  5
AC8A
 10
293.251
 20
338.745
 30
0.000000
  70
    32
  0
VERTEX
  8
0
  5
AC8B
 10
293.270
 20
338.765
 30
0.000000
  70
    32
  0
VERTEX
  8
0
  5
AC8C
 10
293.288
 20
338.785
 30
0.000000
  70
    32
  0
VERTEX
  8
0
  5
AC8D
 10
293.305
 20
338.805
 30
0.000000
  70
    32
  0
VERTEX
  8
0
  5
AC8E
 10
293.321
 20
338.825
 30
0.000000
  70
    32
  0
VERTEX
  8
0
  5
AC8F
 10
293.336
 20
338.845
 30
0.000000
  70
    32
  0
VERTEX
  8
0
  5
AC90
 10
293.350
 20
338.865
 30
0.000000
  70
    32
  0
VERTEX
  8
0
  5
AC91
 10
293.364
 20
338.885
 30
0.000000
  70
    32
  0
VERTEX
  8
0
  5
AC92
 10
293.376
 20
338.905
 30
0.000000
  70
    32
  0
VERTEX
  8
0
  5
AC93
 10
293.388
 20
338.925
 30
0.000000
  70
    32
  0
VERTEX
  8
0
  5
AC94
 10
293.398
 20
338.945
 30
0.000000
  70
    32
  0
VERTEX
  8
0
  5
AC95
 10
293.408
 20
338.965
 30
0.000000
  70
    32
  0
VERTEX
  8
0
  5
AC96
 10
293.417
 20
338.985
 30
0.000000
  70
    32
  0
VERTEX
  8
0
  5
AC97
 10
293.425
 20
339.005
 30
0.000000
  70
    32
  0
VERTEX
  8
0
  5
AC98
 10
293.432
 20
339.026
 30
0.000000
  70
    32
  0
VERTEX
  8
0
  5
AC99
 10
293.438
 20
339.046
 30
0.000000
  70
    32
  0
VERTEX
  8
0
  5
AC9A
 10
293.443
 20
339.066
 30
0.000000
  70
    32
  0
VERTEX
  8
0
  5
AC9B
 10
293.447
 20
339.086
 30
0.000000
  70
    32
  0
VERTEX
  8
0
  5
AC9C
 10
293.450
 20
339.106
 30
0.000000
  70
    32
  0
VERTEX
  8
0
  5
AC9D
 10
293.452
 20
339.127
 30
0.000000
  70
    32
  0
VERTEX
  8
0
  5
AC9E
 10
293.454
 20
339.147
 30
0.000000
  70
    32
  0
VERTEX
  8
0
  5
AC9F
 10
293.454
 20
339.167
 30
0.000000
  70
    32
  0
VERTEX
  8
0
  5
ACA0
 10
293.454
 20
339.187
 30
0.000000
  70
    32
  0
VERTEX
  8
0
  5
ACA1
 10
293.452
 20
339.207
 30
0.000000
  70
    32
  0
VERTEX
  8
0
  5
ACA2
 10
293.450
 20
339.228
 30
0.000000
  70
    32
  0
VERTEX
  8
0
  5
ACA3
 10
293.447
 20
339.248
 30
0.000000
  70
    32
  0
VERTEX
  8
0
  5
ACA4
 10
293.443
 20
339.268
 30
0.000000
  70
    32
  0
VERTEX
  8
0
  5
ACA5
 10
293.438
 20
339.288
 30
0.000000
  70
    32
  0
VERTEX
  8
0
  5
ACA6
 10
293.432
 20
339.308
 30
0.000000
  70
    32
  0
VERTEX
  8
0
  5
ACA7
 10
293.425
 20
339.328
 30
0.000000
  70
    32
  0
VERTEX
  8
0
  5
ACA8
 10
293.417
 20
339.349
 30
0.000000
  70
    32
  0
VERTEX
  8
0
  5
ACA9
 10
293.408
 20
339.369
 30
0.000000
  70
    32
  0
VERTEX
  8
0
  5
ACAA
 10
293.398
 20
339.389
 30
0.000000
  70
    32
  0
VERTEX
  8
0
  5
ACAB
 10
293.388
 20
339.409
 30
0.000000
  70
    32
  0
VERTEX
  8
0
  5
ACAC
 10
293.376
 20
339.429
 30
0.000000
  70
    32
  0
VERTEX
  8
0
  5
ACAD
 10
293.364
 20
339.449
 30
0.000000
  70
    32
  0
VERTEX
  8
0
  5
ACAE
 10
293.350
 20
339.469
 30
0.000000
  70
    32
  0
VERTEX
  8
0
  5
ACAF
 10
293.336
 20
339.489
 30
0.000000
  70
    32
  0
VERTEX
  8
0
  5
ACB0
 10
293.321
 20
339.509
 30
0.000000
  70
    32
  0
VERTEX
  8
0
  5
ACB1
 10
293.305
 20
339.529
 30
0.000000
  70
    32
  0
VERTEX
  8
0
  5
ACB2
 10
293.288
 20
339.549
 30
0.000000
  70
    32
  0
VERTEX
  8
0
  5
ACB3
 10
293.270
 20
339.569
 30
0.000000
  70
    32
  0
VERTEX
  8
0
  5
ACB4
 10
293.251
 20
339.589
 30
0.000000
  70
    32
  0
VERTEX
  8
0
  5
ACB5
 10
293.231
 20
339.609
 30
0.000000
  70
    32
  0
VERTEX
  8
0
  5
ACB6
 10
293.210
 20
339.629
 30
0.000000
  70
    32
  0
VERTEX
  8
0
  5
ACB7
 10
293.189
 20
339.649
 30
0.000000
  70
    32
  0
VERTEX
  8
0
  5
ACB8
 10
293.166
 20
339.668
 30
0.000000
  70
    32
  0
VERTEX
  8
0
  5
ACB9
 10
293.143
 20
339.688
 30
0.000000
  70
    32
  0
VERTEX
  8
0
  5
ACBA
 10
293.118
 20
339.708
 30
0.000000
  70
    32
  0
VERTEX
  8
0
  5
ACBB
 10
293.093
 20
339.728
 30
0.000000
  70
    32
  0
VERTEX
  8
0
  5
ACBC
 10
293.067
 20
339.747
 30
0.000000
  70
    32
  0
VERTEX
  8
0
  5
ACBD
 10
293.040
 20
339.767
 30
0.000000
  70
    32
  0
VERTEX
  8
0
  5
ACBE
 10
293.012
 20
339.787
 30
0.000000
  70
    32
  0
VERTEX
  8
0
  5
ACBF
 10
292.983
 20
339.806
 30
0.000000
  70
    32
  0
VERTEX
  8
0
  5
ACC0
 10
292.953
 20
339.826
 30
0.000000
  70
    32
  0
VERTEX
  8
0
  5
ACC1
 10
292.923
 20
339.845
 30
0.000000
  70
    32
  0
VERTEX
  8
0
  5
ACC2
 10
292.891
 20
339.864
 30
0.000000
  70
    32
  0
VERTEX
  8
0
  5
ACC3
 10
292.859
 20
339.884
 30
0.000000
  70
    32
  0
VERTEX
  8
0
  5
ACC4
 10
292.826
 20
339.903
 30
0.000000
  70
    32
  0
VERTEX
  8
0
  5
ACC5
 10
292.791
 20
339.922
 30
0.000000
  70
    32
  0
VERTEX
  8
0
  5
ACC6
 10
292.756
 20
339.942
 30
0.000000
  70
    32
  0
VERTEX
  8
0
  5
ACC7
 10
292.720
 20
339.961
 30
0.000000
  70
    32
  0
VERTEX
  8
0
  5
ACC8
 10
292.684
 20
339.980
 30
0.000000
  70
    32
  0
VERTEX
  8
0
  5
ACC9
 10
292.646
 20
339.999
 30
0.000000
  70
    32
  0
VERTEX
  8
0
  5
ACCA
 10
292.607
 20
340.018
 30
0.000000
  70
    32
  0
VERTEX
  8
0
  5
ACCB
 10
292.568
 20
340.037
 30
0.000000
  70
    32
  0
VERTEX
  8
0
  5
ACCC
 10
292.528
 20
340.056
 30
0.000000
  70
    32
  0
VERTEX
  8
0
  5
ACCD
 10
292.486
 20
340.075
 30
0.000000
  70
    32
  0
VERTEX
  8
0
  5
ACCE
 10
292.444
 20
340.094
 30
0.000000
  70
    32
  0
VERTEX
  8
0
  5
ACCF
 10
292.402
 20
340.112
 30
0.000000
  70
    32
  0
VERTEX
  8
0
  5
ACD0
 10
292.358
 20
340.131
 30
0.000000
  70
    32
  0
VERTEX
  8
0
  5
ACD1
 10
292.313
 20
340.150
 30
0.000000
  70
    32
  0
VERTEX
  8
0
  5
ACD2
 10
292.268
 20
340.168
 30
0.000000
  70
    32
  0
VERTEX
  8
0
  5
ACD3
 10
292.221
 20
340.187
 30
0.000000
  70
    32
  0
VERTEX
  8
0
  5
ACD4
 10
292.174
 20
340.205
 30
0.000000
  70
    32
  0
VERTEX
  8
0
  5
ACD5
 10
292.126
 20
340.223
 30
0.000000
  70
    32
  0
VERTEX
  8
0
  5
ACD6
 10
292.077
 20
340.242
 30
0.000000
  70
    32
  0
VERTEX
  8
0
  5
ACD7
 10
292.028
 20
340.260
 30
0.000000
  70
    32
  0
VERTEX
  8
0
  5
ACD8
 10
291.977
 20
340.278
 30
0.000000
  70
    32
  0
VERTEX
  8
0
  5
ACD9
 10
291.926
 20
340.296
 30
0.000000
  70
    32
  0
VERTEX
  8
0
  5
ACDA
 10
291.874
 20
340.314
 30
0.000000
  70
    32
  0
VERTEX
  8
0
  5
ACDB
 10
291.821
 20
340.332
 30
0.000000
  70
    32
  0
VERTEX
  8
0
  5
ACDC
 10
291.767
 20
340.350
 30
0.000000
  70
    32
  0
VERTEX
  8
0
  5
ACDD
 10
291.712
 20
340.368
 30
0.000000
  70
    32
  0
VERTEX
  8
0
  5
ACDE
 10
291.657
 20
340.385
 30
0.000000
  70
    32
  0
VERTEX
  8
0
  5
ACDF
 10
291.601
 20
340.403
 30
0.000000
  70
    32
  0
SEQEND
  8
0
  5
ACE0
  0
ARC
  5
9AB9
  8
0
 10
364.10086100394108
 20
395.14771148183729
 30
0.0
 40
75.980762113535263
 50
254.73851957514171
 51
270.00000000000063
  0
ARC
  5
9ABA
  8
0
 10
364.10086100394102
 20
283.1861872547683
 30
0.0
 40
75.980762113533714
 50
90.000000000000185
 51
105.26148042486
  0
ARC
  5
9ABC
  8
0
 10
364.10086100394102
 20
395.14771148183581
 30
0.0
 40
75.980762113533743
 50
270.00000000000063
 51
285.26148042486119
  0
ARC
  5
9ABD
  8
0
 10
364.1008610039413
 20
283.1861872547712
 30
0.0
 40
75.980762113530872
 50
74.738519575139804
 51
90.000000000000185
  0
ARC
  5
9ABF
  8
0
 10
353.85824366185602
 20
318.67142193893858
 30
0.0
 40
39.05456513203481
 50
104.46802942399751
 51
128.66207293015779
  0
ARC
  5
9AC0
  8
0
 10
353.85994936210551
 20
359.66588819816428
 30
0.0
 40
39.058294507367499
 50
231.33909959317899
 51
255.5307980526656
  0
ARC
  5
9AC1
  8
0
 10
374.34605153232428
 20
318.67656831153579
 30
0.0
 40
39.048939099728969
 50
59.467151095053879
 51
75.533739845742446
  0
LINE
  5
9AC2
  8
0
 10
394.18417270751411
 20
352.31090483023081
 30
0.0
 11
394.18417270751388
 21
326.02299390637302
 31
0.0
  0
ARC
  5
9AC3
  8
0
 10
374.34605153232337
 20
359.65733042507043
 30
0.0
 40
39.048939099731363
 50
284.46626015426068
 51
300.53284890494609
  0
LINE
  5
9AC4
  8
0
 10
376.37420154944027
 20
364.7169493683021
 30
0.0
 11
376.17322296361988
 21
364.7169493683021
 31
0.0
  0
ARC
  5
9AC5
  8
0
 10
367.90086100394097
 20
285.16694936829992
 30
0.0
 40
80.000000000002174
 50
73.408497346423701
 51
83.920012597466439
  0
ARC
  5
9AC6
  8
0
 10
378.000861003941
 20
322.86694936830168
 30
0.0
 40
41.000000000000441
 50
59.41903228338176
 51
71.891229276714753
  0
ARC
  5
9AC8
  8
0
 10
378.000861003941
 20
355.46694936830221
 30
0.0
 40
41.000000000000277
 50
288.10877072329151
 51
300.58096771661923
  0
ARC
  5
9AC9
  8
0
 10
367.90086100394001
 20
393.16694936830402
 30
0.0
 40
80.000000000002203
 50
276.07998740253521
 51
286.59150265357943
  0
LINE
  5
9ACA
  8
0
 10
376.17322296361942
 20
313.61694936830202
 30
0.0
 11
376.37420154944073
 21
313.61694936830202
 31
0.0
  0
ARC
  5
9ACB
  8
0
 10
368.00086100394083
 20
297.46694936830193
 30
0.0
 40
18.100000000000179
 50
63.159284835883078
 51
74.015450421477297
  0
ARC
  5
9ACC
  8
0
 10
355.40086100394171
 20
229.86694936830321
 30
0.0
 40
86.799999999999116
 50
78.311859147963389
 51
85.201365405488218
  0
ARC
  5
9ACD
  8
0
 10
343.80086100394777
 20
-36.133050631600838
 30
0.0
 40
352.99999999990303
 50
86.937165404576973
 51
88.555279099774836
  0
ARC
  5
9AD0
  8
0
 10
343.80086100394641
 20
714.46694936830602
 30
0.0
 40
353.00000000000398
 50
271.44472090022578
 51
273.0628345954234
  0
ARC
  5
9AD1
  8
0
 10
355.40086100394899
 20
448.46694936825708
 30
0.0
 40
86.799999999954778
 50
274.79863459451121
 51
281.68814085203798
  0
ARC
  5
9AD2
  8
0
 10
368.00086100394083
 20
380.8669493683031
 30
0.0
 40
18.10000000000128
 50
285.98454957851982
 51
296.84071516411751
  0
ARC
  5
9AD4
  8
0
 10
358.90086100386748
 20
332.26694936845058
 30
0.0
 40
31.999999999834511
 50
114.12147635705919
 51
117.75003895544729
  0
ARC
  5
9AD5
  8
0
 10
343.8008610039501
 20
714.46694936856738
 30
0.0
 40
353.00000000026517
 50
270.32827204845711
 51
271.44472090022401
  0
LINE
  5
9AD6
  8
0
 10
345.8233380538245
 20
316.86115553404431
 30
0.0
 11
344.00117709902253
 21
317.74735509978348
 31
0.0
  0
ARC
  5
9AD8
  8
0
 10
343.80086100395368
 20
-36.133050631523702
 30
0.0
 40
352.99999999982572
 50
88.555279099775447
 51
89.671727951543886
  0
ARC
  5
9AD9
  8
0
 10
391.10086100386587
 20
339.16694936822768
 30
0.0
 40
20.100000000105322
 50
42.65058542794015
 51
48.471774439682818
  0
LINE
  5
9ADB
  8
0
 10
405.88439489413798
 20
325.54868495181393
 30
0.0
 11
404.42693839795919
 21
324.11950236594902
 31
0.0
  0
ARC
  5
9ADC
  8
0
 10
378.00086100395299
 20
355.46694936828328
 30
0.0
 40
40.999999999977859
 50
300.58096771661809
 51
310.13108057799423
  0
ARC
  5
9ADD
  8
0
 10
378.00086100396419
 20
322.86694936833629
 30
0.0
 40
40.999999999958661
 50
49.868919422003259
 51
59.419032283385853
  0
ARC
  5
9ADF
  8
0
 10
358.90086100393978
 20
332.2669493683037
 30
0.0
 40
31.999999999998138
 50
117.750038955438
 51
127.22275511366659
  0
ARC
  5
9AE1
  8
0
 10
358.90086100392932
 20
346.0669493682858
 30
0.0
 40
31.99999999998019
 50
232.77724488633339
 51
242.24996104456559
  0
ARC
  5
9AE2
  8
0
 10
316.50607157846792
 20
339.16694936830208
 30
0.0
 40
7.9298328610589319
 50
348.68351038402648
 51
11.31648961597352
  0
ARC
  5
9AE3
  8
0
 10
337.55792591949091
 20
339.9426333270419
 30
0.0
 40
13.47940212862461
 50
189.9614518106068
 51
233.07461275453841
  0
ARC
  5
9AE4
  8
0
 10
337.55792591949069
 20
338.39126540956238
 30
0.0
 40
13.47940212862448
 50
126.9253872454597
 51
170.0385481893932
  0
ARC
  5
9AE6
  8
0
 10
391.10086100394039
 20
339.16694936830208
 30
0.0
 40
20.100000000000179
 50
317.34941457207219
 51
337.34493653638867
  0
ARC
  5
9AE7
  8
0
 10
391.10086100394108
 20
339.16694936830231
 30
0.0
 40
20.099999999999479
 50
22.65506346361126
 51
42.650585427927922
  0
ARC
  5
9AE8
  8
0
 10
345.50086100396999
 20
327.86694936832322
 30
0.0
 40
9.5000000000357439
 50
211.75686385931351
 51
223.68101834211581
  0
LINE
  5
9AE9
  8
0
 10
337.000861003941
 20
322.86694936830219
 30
0.0
 11
337.42311379323922
 21
322.86694936830219
 31
0.0
  0
ARC
  5
9AEA
  8
0
 10
358.90086100387452
 20
346.06694936821702
 30
0.0
 40
31.99999999989231
 50
230.69496970629521
 51
232.77724488633541
  0
LINE
  5
9AEB
  8
0
 10
337.42311379323922
 20
355.46694936830221
 30
0.0
 11
337.000861003941
 21
355.46694936830221
 31
0.0
  0
POLYLINE
  5
9AEC
  8
0
 66
     1
 10
0.0
 20
0.0
 30
0.0
 70
   128
  0
VERTEX
  5
A826
  8
0
 10
338.6304990956952
 20
357.02805653475849
 30
0.0
  0
VERTEX
  5
A827
  8
0
 10
337.95235918437112
 20
356.23497505131962
 30
0.0
  0
VERTEX
  5
A828
  8
0
 10
337.42311379323922
 20
355.46694936830221
 30
0.0
  0
SEQEND
  5
A829
  8
0
  0
ARC
  5
9AED
  8
0
 10
358.90086100360799
 20
332.2669493687286
 30
0.0
 40
31.999999999459089
 50
127.2227551136545
 51
129.305030293724
  0
LINE
  5
9AEE
  8
0
 10
411.08081075236731
 20
336.97341157506719
 30
0.0
 11
411.08081075236731
 21
341.36048716153698
 31
0.0
  0
ARC
  5
9AEF
  8
0
 10
391.07763953807819
 20
339.17293761993028
 30
0.0
 40
20.123736567799469
 50
337.35466902758009
 51
353.7250300874922
  0
ARC
  5
9AF0
  8
0
 10
391.10086100393562
 20
339.16694936830049
 30
0.0
 40
20.100000000005242
 50
6.2652374213197639
 51
22.65506346361126
  0
LINE
  5
9BCB
  8
0
 10
337.000861003941
 20
82.466023152699876
 30
0.0
 11
337.000861003941
 21
80.899711175042725
 31
0.0
  0
LINE
  5
9BCC
  8
0
 10
337.000861003941
 20
51.432335130357032
 30
0.0
 11
337.000861003941
 21
49.866023152699867
 31
0.0
  0
ARC
  5
9BF3
  8
0
 10
364.10086100394119
 20
10.18526103916831
 30
0.0
 40
75.980762113531654
 50
74.73851957513925
 51
90.000000000002444
  0
ARC
  5
9BF4
  8
0
 10
364.10086100394102
 20
122.1467852662348
 30
0.0
 40
75.980762113534752
 50
269.99999999999858
 51
285.26148042486039
  0
ARC
  5
9BF6
  8
0
 10
364.10086100394108
 20
10.185261039167511
 30
0.0
 40
75.980762113532492
 50
90.000000000002217
 51
105.2614804248594
  0
ARC
  5
9BF7
  8
0
 10
364.10086100394091
 20
122.1467852662315
 30
0.0
 40
75.980762113531512
 50
254.7385195751406
 51
269.99999999999858
  0
ARC
  5
9BF8
  8
0
 10
374.34381959161152
 20
45.671056746341478
 30
0.0
 40
39.053936644393353
 50
52.558303887068398
 51
75.532249702124346
  0
LINE
  5
9BF9
  8
0
 10
398.08680884715523
 20
55.653241678320441
 30
0.0
 11
398.08680884715528
 21
76.6788046270796
 31
0.0
  0
ARC
  5
9BFA
  8
0
 10
374.34138755310619
 20
86.665985994092395
 30
0.0
 40
39.059382258649748
 50
284.46937360160928
 51
307.4400728091972
  0
ARC
  5
9BFB
  8
0
 10
353.86024934697082
 20
86.665561952293203
 30
0.0
 40
39.05895040165047
 50
231.33930578402021
 51
255.5305918618258
  0
ARC
  5
9C05
  8
0
 10
353.86024934697122
 20
45.666484353106611
 30
0.0
 40
39.058950401650741
 50
104.469408138174
 51
128.6606942159811
  0
ARC
  5
9C07
  8
0
 10
343.80086100394789
 20
441.46602315260282
 30
0.0
 40
352.99999999990303
 50
271.444720900226
 51
273.06283459542402
  0
ARC
  5
9C08
  8
0
 10
355.40086100394171
 20
175.46602315269899
 30
0.0
 40
86.799999999999116
 50
274.79863459451292
 51
281.68814085203758
  0
ARC
  5
9C09
  8
0
 10
368.00086100394083
 20
107.8660231526999
 30
0.0
 40
18.1000000000002
 50
285.98454957852363
 51
296.84071516411728
  0
LINE
  5
9C0A
  8
0
 10
376.17322296361942
 20
91.716023152700004
 30
0.0
 11
376.37420154944073
 21
91.716023152700004
 31
0.0
  0
ARC
  5
9C0B
  8
0
 10
367.90086100394012
 20
12.166023152697941
 30
0.0
 40
80.000000000002203
 50
73.408497346421257
 51
83.920012597465671
  0
ARC
  5
9C0C
  8
0
 10
378.000861003941
 20
49.866023152699753
 30
0.0
 40
41.000000000000277
 50
59.419032283380709
 51
71.891229276709495
  0
ARC
  5
9C0E
  8
0
 10
378.000861003941
 20
82.466023152700345
 30
0.0
 40
41.000000000000391
 50
288.10877072328611
 51
300.58096771661963
  0
ARC
  5
9C0F
  8
0
 10
367.90086100394109
 20
120.1660231527021
 30
0.0
 40
80.000000000002203
 50
276.07998740253407
 51
286.59150265357681
  0
LINE
  5
9C10
  8
0
 10
376.17322296361999
 20
40.616023152699917
 30
0.0
 11
376.37420154944027
 21
40.616023152699917
 31
0.0
  0
ARC
  5
9C11
  8
0
 10
368.00086100394083
 20
24.46602315269887
 30
0.0
 40
18.100000000001291
 50
63.159284835883078
 51
74.015450421480779
  0
ARC
  5
9C12
  8
0
 10
355.40086100394899
 20
-43.133976847255049
 30
0.0
 40
86.799999999954821
 50
78.311859147962792
 51
85.201365405489682
  0
ARC
  5
9C13
  8
0
 10
343.80086100394641
 20
-309.13397684730398
 30
0.0
 40
353.00000000000409
 50
86.937165404577385
 51
88.555279099775007
  0
ARC
  5
9C15
  8
0
 10
391.10086100385581
 20
66.166023152615864
 30
0.0
 40
20.100000000119429
 50
42.650585427949963
 51
48.471774439678882
  0
ARC
  5
9C17
  8
0
 10
391.1008610038761
 20
66.166023152763941
 30
0.0
 40
20.100000000090841
 50
311.52822556031589
 51
317.3494145720544
  0
ARC
  5
9C18
  8
0
 10
378.00086100395771
 20
49.866023152724601
 30
0.0
 40
40.99999999997037
 50
49.868919422005789
 51
59.419032283384603
  0
POLYLINE
  5
9C19
  8
0
 66
     1
 10
0.0
 20
0.0
 30
0.0
 70
   128
  0
VERTEX
  5
A82A
  8
0
 10
398.85983526656599
 20
47.168669247468571
 30
0.0
  0
VERTEX
  5
A82B
  8
0
 10
401.7378292056718
 20
49.036151172836959
 30
0.0
  0
VERTEX
  5
A82C
  8
0
 10
404.42693839795891
 20
51.118576150346129
 30
0.0
  0
SEQEND
  5
A82D
  8
0
  0
LINE
  5
9C1A
  8
0
 10
344.00117709902253
 20
44.746428884181327
 30
0.0
 11
345.82333805382382
 21
43.860229318442329
 31
0.0
  0
ARC
  5
9C1C
  8
0
 10
343.800861003931
 20
-309.13397684829818
 30
0.0
 40
353.00000000099828
 50
88.555279099776683
 51
89.671727951541257
  0
LINE
  5
9C1E
  8
0
 10
345.82333805382461
 20
88.471816986957592
 30
0.0
 11
344.00117709902253
 21
87.585617421218316
 31
0.0
  0
POLYLINE
  5
9C1F
  8
0
 66
     1
 10
0.0
 20
0.0
 30
0.0
 70
   128
  0
VERTEX
  5
A82E
  8
0
 10
352.7008610039411
 20
88.578236455568543
 30
0.0
  0
VERTEX
  5
A82F
  8
0
 10
349.26252195386462
 20
88.508277438473996
 30
0.0
  0
VERTEX
  5
A830
  8
0
 10
345.82333805382473
 20
88.471816986957421
 30
0.0
  0
SEQEND
  5
A831
  8
0
  0
ARC
  5
9C20
  8
0
 10
337.55792591954298
 20
66.941707111498076
 30
0.0
 40
13.47940212870256
 50
216.5414060324448
 51
233.07461275451391
  0
ARC
  5
9C22
  8
0
 10
321.8766554858143
 20
66.166023152699822
 30
0.0
 40
3.7946062057849139
 50
314.49569514765892
 51
45.504304852342067
  0
ARC
  5
9C23
  8
0
 10
337.55792591941213
 20
65.390339193988524
 30
0.0
 40
13.47940212854088
 50
157.18983010975671
 51
165.0278872958234
  0
ARC
  5
9C24
  8
0
 10
337.55792591941048
 20
66.941707111410864
 30
0.0
 40
13.479402128539251
 50
194.9721127041766
 51
202.8101698902467
  0
ARC
  5
9C27
  8
0
 10
337.55792591956822
 20
65.390339193873814
 30
0.0
 40
13.47940212874007
 50
126.9253872455039
 51
143.4585939675236
  0
ARC
  5
9C2A
  8
0
 10
358.90086100394012
 20
73.066023152698776
 30
0.0
 40
31.999999999998678
 50
232.7772448863345
 51
242.24996104456241
  0
ARC
  5
9C2C
  8
0
 10
358.90086100392642
 20
59.266023152721218
 30
0.0
 40
31.999999999974399
 50
117.7500389554349
 51
127.22275511366919
  0
ARC
  5
9C2E
  8
0
 10
391.10086100394159
 20
66.166023152700774
 30
0.0
 40
20.099999999998818
 50
22.655063463611668
 51
42.650585427936747
  0
ARC
  5
9C2F
  8
0
 10
391.10086100394119
 20
66.166023152699481
 30
0.0
 40
20.099999999999351
 50
317.34941457206332
 51
337.34493653638827
  0
LINE
  5
9C30
  8
0
 10
337.42311379323928
 20
82.466023152699876
 30
0.0
 11
337.000861003941
 21
82.466023152699876
 31
0.0
  0
ARC
  5
9C31
  8
0
 10
345.5008610039622
 20
77.466023152684144
 30
0.0
 40
9.5000000000262936
 50
136.31898165787621
 51
148.2431361406903
  0
ARC
  5
9C32
  8
0
 10
358.90086100356621
 20
59.26602315318199
 30
0.0
 40
31.99999999938958
 50
127.2227551136545
 51
129.3050302937292
  0
ARC
  5
9C33
  8
0
 10
345.5008610039539
 20
54.866023152709303
 30
0.0
 40
9.5000000000158931
 50
211.75686385930581
 51
223.68101834213269
  0
LINE
  5
9C34
  8
0
 10
337.000861003941
 20
49.866023152699867
 30
0.0
 11
337.42311379323928
 21
49.866023152699867
 31
0.0
  0
ARC
  5
9C35
  8
0
 10
358.90086100392682
 20
73.066023152678994
 30
0.0
 40
31.999999999974872
 50
230.69496970629541
 51
232.77724488633089
  0
LINE
  5
9C36
  8
0
 10
411.08081075236731
 20
68.359560945934831
 30
0.0
 11
411.08081075236731
 21
63.97248535946499
 31
0.0
  0
ARC
  5
9C37
  8
0
 10
391.10086100393482
 20
66.166023152698344
 30
0.0
 40
20.100000000006009
 50
6.2652374213230422
 51
22.655063463611668
  0
ARC
  5
9C38
  8
0
 10
391.07763953807421
 20
66.172011404329098
 30
0.0
 40
20.123736567803689
 50
337.35466902758009
 51
353.72503008748561
  0
LINE
  5
9C39
  8
0
 10
326.7282131467706
 20
58.916023152701413
 30
0.0
 11
326.58281989161611
 21
59.116023152699981
 31
0.0
  0
LINE
  5
9C3A
  8
0
 10
325.19684571908289
 20
61.56602315269997
 30
0.0
 11
325.13268914474338
 21
61.71602315269989
 31
0.0
  0
LINE
  5
9C3B
  8
0
 10
325.13268914474338
 20
70.616023152699853
 30
0.0
 11
325.19684571908311
 21
70.766023152699958
 31
0.0
  0
LINE
  5
9C3C
  8
0
 10
326.58281989161623
 20
73.216023152699947
 30
0.0
 11
326.72821314677168
 21
73.416023152699822
 31
0.0
  0
LINE
  5
9D0B
  8
0
 10
60.560861003940609
 20
218.47600054766781
 30
0.0
 11
60.560861003940659
 21
211.17496348410199
 31
0.0
  0
LINE
  5
9D0C
  8
0
 10
100.5608610039406
 20
211.17496348410219
 30
0.0
 11
100.5608610039406
 21
218.47600054766789
 31
0.0
  0
LINE
  5
9D0D
  8
0
 10
60.560861003940531
 20
239.1669493683288
 30
0.0
 11
60.560861003940559
 21
234.8760005476679
 31
0.0
  0
LINE
  5
9D0E
  8
0
 10
100.5608610039405
 20
234.87600054766801
 30
0.0
 11
100.5608610039405
 21
239.1669493683288
 31
0.0
  0
LINE
  5
9D0F
  8
0
 10
100.5608610039405
 20
239.1669493683288
 30
0.0
 11
60.560861003940531
 21
239.16694936832869
 31
0.0
  0
LINE
  5
9D10
  8
0
 10
60.560861003940651
 20
211.17496348410199
 30
0.0
 11
70.060861003941739
 21
211.17496348410211
 31
0.0
  0
LINE
  5
9D12
  8
0
 10
91.060861003941739
 20
211.17496348410211
 30
0.0
 11
100.5608610039406
 21
211.17496348410219
 31
0.0
  0
ARC
  5
9D43
  8
0
 10
62.444686593532609
 20
216.0535117517793
 30
0.0
 40
18.718559382056799
 50
56.022447789587638
 51
64.304412262268059
  0
POLYLINE
  5
9D46
  8
0
 66
     1
 10
0.0
 20
0.0
 30
0.0
 70
   128
  0
VERTEX
  5
A832
  8
0
 10
90.560861003939948
 20
232.9210005476676
 30
0.0
  0
VERTEX
  5
A833
  8
0
 10
89.284639859866246
 20
232.24117390300691
 30
0.0
  0
VERTEX
  5
A834
  8
0
 10
88.219636230486927
 20
231.5760005476678
 30
0.0
  0
SEQEND
  5
A835
  8
0
  0
POLYLINE
  5
9D4F
  8
0
 66
     1
 10
0.0
 20
0.0
 30
0.0
 70
   128
  0
VERTEX
  5
A836
  8
0
 10
97.881369079629636
 20
237.49265784093581
 30
0.0
  0
VERTEX
  5
A837
  8
0
 10
97.009922679663248
 20
236.9626155041538
 30
0.0
  0
VERTEX
  5
A838
  8
0
 10
95.927778834290123
 20
236.2838851931127
 30
0.0
  0
VERTEX
  5
A839
  8
0
 10
94.604213420747243
 20
235.44508618716179
 30
0.0
  0
VERTEX
  5
A83A
  8
0
 10
93.086770734002073
 20
234.48668847635591
 30
0.0
  0
VERTEX
  5
A83B
  8
0
 10
91.870698632602938
 20
233.72704950175299
 30
0.0
  0
VERTEX
  5
A83C
  8
0
 10
90.560861003939948
 20
232.92100054766749
 30
0.0
  0
SEQEND
  5
A83D
  8
0
  0
LINE
  5
9D51
  8
0
 10
97.881369079629721
 20
233.74280581417409
 30
0.0
 11
97.855511442545293
 21
233.7159053533085
 31
0.0
  0
ARC
  5
9D52
  8
0
 10
102.1258603301536
 20
229.18939484557541
 30
0.0
 40
6.222955648123774
 50
133.33203730065691
 51
156.89522950873089
  0
ARC
  5
9D53
  8
0
 10
106.7291210029183
 20
226.676000547668
 30
0.0
 40
11.45442939074869
 50
154.36631851672109
 51
205.6336814832795
  0
ARC
  5
9D54
  8
0
 10
103.4989954102065
 20
225.1200328875079
 30
0.0
 40
7.869083676568013
 50
205.5941933559026
 51
224.1785398347165
  0
LINE
  5
9D55
  8
0
 10
97.881369079629721
 20
219.6091952811619
 30
0.0
 11
97.855511442545293
 21
219.63609574202741
 31
0.0
  0
ARC
  5
9D57
  8
0
 10
121.64419960261139
 20
251.473928908115
 30
0.0
 40
45.00601714211566
 50
227.1923797965818
 51
238.1300972436332
  0
ARC
  5
9D58
  8
0
 10
57.622726597672681
 20
228.23196820782621
 30
0.0
 40
7.8690836765707068
 50
25.59419335590265
 51
44.178539834711863
  0
LINE
  5
9D59
  8
0
 10
63.266210565336003
 20
233.7159053533083
 30
0.0
 11
63.240352928251902
 21
233.74280581417361
 31
0.0
  0
ARC
  5
9D5B
  8
0
 10
-200.93516480197351
 20
-193.6735099058894
 30
0.0
 40
505.6609223358235
 50
57.526246561190987
 51
58.504197741125353
  0
ARC
  5
9D5C
  8
0
 10
39.477522405270143
 20
251.47392890811389
 30
0.0
 40
45.006017142114828
 50
301.86990275636788
 51
312.8076202034224
  0
POLYLINE
  5
9D5E
  8
0
 66
     1
 10
0.0
 20
0.0
 30
0.0
 70
   128
  0
VERTEX
  5
A83E
  8
0
 10
63.240352928251973
 20
219.60919528116199
 30
0.0
  0
VERTEX
  5
A83F
  8
0
 10
63.253251272536929
 20
219.62260872247299
 30
0.0
  0
VERTEX
  5
A840
  8
0
 10
63.259723310603647
 20
219.62934304510941
 30
0.0
  0
VERTEX
  5
A841
  8
0
 10
63.266210565336067
 20
219.63609574202741
 30
0.0
  0
SEQEND
  5
A842
  8
0
  0
ARC
  5
9D5F
  8
0
 10
58.995861677729408
 20
224.16260624975919
 30
0.0
 40
6.2229556481217143
 50
313.3320373006535
 51
336.8952295087343
  0
ARC
  5
9D60
  8
0
 10
54.39260100496287
 20
226.67600054766771
 30
0.0
 40
11.454429390748841
 50
334.36631851672109
 51
25.633681483278899
  0
ARC
  5
9D6D
  8
0
 10
57.423687641388277
 20
226.5212308332668
 30
0.0
 40
6.6183063153663584
 50
313.5019134281855
 51
322.86286525789291
  0
ARC
  5
9D6E
  8
0
 10
53.849288164650027
 20
231.3151318070627
 30
0.0
 40
12.47343962566304
 50
315.19790050785832
 51
326.58455286569517
  0
LINE
  5
9D6F
  8
0
 10
64.26086100394069
 20
228.90606480938061
 30
0.0
 11
64.260861003940718
 21
224.4459362859551
 31
0.0
  0
POLYLINE
  5
9D70
  8
0
 66
     1
 10
0.0
 20
0.0
 30
0.0
 70
   128
  0
VERTEX
  5
A843
  8
0
 10
62.699753837484273
 20
230.82640587839219
 30
0.0
  0
VERTEX
  5
A844
  8
0
 10
63.492835320923227
 20
229.94753367662801
 30
0.0
  0
VERTEX
  5
A845
  8
0
 10
64.260861003940676
 20
228.90606480938061
 30
0.0
  0
SEQEND
  5
A846
  8
0
  0
ARC
  5
9D71
  8
0
 10
57.422995285430353
 20
226.83015084136591
 30
0.0
 40
6.6192322166268793
 50
37.137790909166448
 51
46.497430404756678
  0
ARC
  5
9D74
  8
0
 10
103.6987267224394
 20
226.8301508413771
 30
0.0
 40
6.619232216610814
 50
133.50256959523759
 51
142.8622090908498
  0
ARC
  5
9D75
  8
0
 10
107.2724338432064
 20
222.03686928829191
 30
0.0
 40
12.473439625631929
 50
135.19790050783641
 51
146.58455286570299
  0
LINE
  5
9D76
  8
0
 10
96.86086100394067
 20
224.4459362859551
 30
0.0
 11
96.860861003940641
 21
228.90606480938081
 31
0.0
  0
ARC
  5
9D77
  8
0
 10
107.2985458907022
 20
231.33635913230009
 30
0.0
 40
12.506925793206049
 50
213.4307406683802
 51
224.78680595807211
  0
ARC
  5
9D78
  8
0
 10
103.6980343665044
 20
226.52123083327771
 30
0.0
 40
6.6183063153818651
 50
217.13713474212659
 51
226.49808657181001
  0
LINE
  5
9D7D
  8
0
 10
58.255067169683052
 20
234.15583549291671
 30
0.0
 11
58.255067169683208
 21
219.19616560241889
 31
0.0
  0
ARC
  5
9D7E
  8
0
 10
45.936290450772361
 20
208.22822187701169
 30
0.0
 40
28.70528536116716
 50
62.61166731391296
 51
64.586584138485463
  0
ARC
  5
9D7F
  8
0
 10
55.15775343625269
 20
225.3173121770819
 30
0.0
 40
9.2954152970382591
 50
42.786279985328846
 51
64.624677270470102
  0
ARC
  5
9D80
  8
0
 10
55.157753436251831
 20
228.0346889182548
 30
0.0
 40
9.2954152970397104
 50
295.37532272953092
 51
317.21372001466989
  0
LINE
  5
9D81
  8
0
 10
59.141266735422079
 20
219.63609574202741
 30
0.0
 11
58.255067169683088
 21
219.19616560241889
 31
0.0
  0
ARC
  5
9D82
  8
0
 10
105.93310746818339
 20
227.99266819605401
 30
0.0
 40
9.2442286081509195
 50
222.72506965475611
 51
244.68588760104029
  0
ARC
  5
9D83
  8
0
 10
105.9639685716311
 20
225.31731217707949
 30
0.0
 40
9.2954152970417372
 50
115.3753227295371
 51
137.21372001467111
  0
LINE
  5
9D84
  8
0
 10
102.8666548381983
 20
234.15583549291699
 30
0.0
 11
101.9804552724593
 21
233.7159053533085
 31
0.0
  0
LINE
  5
9D85
  8
0
 10
102.8666548381982
 20
219.19616560241889
 30
0.0
 11
102.8666548381981
 21
234.15583549291699
 31
0.0
  0
LINE
  5
9D86
  8
0
 10
102.8666548381983
 20
219.19616560241889
 30
0.0
 11
101.980455272459
 21
219.63609574202741
 31
0.0
  0
ARC
  5
9D8B
  8
0
 10
18.808651763518721
 20
267.81682651038091
 30
0.0
 40
70.36639924135865
 50
306.39540630311581
 51
309.1559623087856
  0
ARC
  5
9D8C
  8
0
 10
60.705600869972507
 20
221.65170380602231
 30
0.0
 40
3.2552740393212298
 50
282.69431584415651
 51
321.13805998880912
  0
ARC
  5
9D8D
  8
0
 10
143.71649450803849
 20
269.60056279321918
 30
0.0
 40
72.635740988100011
 50
230.8740546617372
 51
233.54881354006901
  0
ARC
  5
9D8E
  8
0
 10
100.4042304741245
 20
221.63261268088431
 30
0.0
 40
3.2340450815244219
 50
218.7307540766873
 51
257.43687009035619
  0
ARC
  5
9D8F
  8
0
 10
60.717491533756551
 20
231.71938841445069
 30
0.0
 40
3.2340450815251192
 50
38.730754076687347
 51
77.43687009035618
  0
ARC
  5
9D90
  8
0
 10
56.998246171498728
 20
234.3380592499019
 30
0.0
 40
1.2699624085329611
 50
351.75029535680932
 51
25.061344060591619
  0
LINE
  5
9D91
  8
0
 10
55.010861003940533
 20
234.8760005476679
 30
0.0
 11
61.420945462427852
 21
234.87600054766779
 31
0.0
  0
ARC
  5
9D92
  8
0
 10
100.41612113790831
 20
231.70029728931411
 30
0.0
 40
3.2552740393203972
 50
102.6943158441514
 51
141.13805998880429
  0
LINE
  5
9D93
  8
0
 10
99.700776545453351
 20
234.87600054766801
 30
0.0
 11
106.1108610039406
 21
234.87600054766801
 31
0.0
  0
ARC
  5
9D94
  8
0
 10
104.1356153267016
 20
234.33626538598091
 30
0.0
 40
1.2817237095778391
 50
155.09588097467449
 51
188.09247960791731
  0
LINE
  5
9D95
  8
0
 10
61.420945462427909
 20
218.47600054766781
 30
0.0
 11
55.010861003940597
 21
218.47600054766781
 31
0.0
  0
ARC
  5
9D96
  8
0
 10
56.986106681178263
 20
219.01573570935531
 30
0.0
 40
1.281723709579291
 50
335.09588097468128
 51
8.0924796078943224
  0
POLYLINE
  5
9D97
  8
0
 66
     1
 10
0.0
 20
0.0
 30
0.0
 70
   128
  0
VERTEX
  5
A847
  8
0
 10
102.9730743068092
 20
218.47600054766789
 30
0.0
  0
VERTEX
  5
A848
  8
0
 10
102.90311528971471
 20
218.6545253447531
 30
0.0
  0
VERTEX
  5
A849
  8
0
 10
102.8666548381981
 20
219.19616560241889
 30
0.0
  0
SEQEND
  5
A84A
  8
0
  0
LINE
  5
9D98
  8
0
 10
106.1108610039406
 20
218.47600054766789
 30
0.0
 11
99.700776545453422
 21
218.47600054766789
 31
0.0
  0
ARC
  5
9D99
  8
0
 10
32.052432752100181
 20
190.53401419991479
 30
0.0
 40
56.371983977135301
 50
56.409590008965687
 51
59.620854293347477
  0
ARC
  5
9D9B
  8
0
 10
159.55402633596611
 20
141.71938316680081
 30
0.0
 40
113.9124084323779
 50
121.1902750849392
 51
122.77928061274871
  0
LINE
  5
9DA8
  8
0
 10
55.01086100394059
 20
218.47600054766821
 30
0.0
 11
55.010861003940519
 21
234.87600054766779
 31
0.0
  0
LINE
  5
9DAB
  8
0
 10
106.1108610039406
 20
234.87600054766801
 30
0.0
 11
106.1108610039406
 21
218.47600054766841
 31
0.0
  0
LINE
  5
9E6A
  8
0
 10
484.1008610039421
 20
218.476023152724
 30
0.0
 11
484.10086100394221
 21
211.1749860891575
 31
0.0
  0
LINE
  5
9E6B
  8
0
 10
524.1008610039421
 20
211.1749860891575
 30
0.0
 11
524.1008610039421
 21
218.47602315272391
 31
0.0
  0
LINE
  5
9E6C
  8
0
 10
524.10086100394221
 20
234.876023152724
 30
0.0
 11
524.10086100394221
 21
239.1669719733847
 31
0.0
  0
LINE
  5
9E6D
  8
0
 10
484.10086100394221
 20
239.1669719733847
 30
0.0
 11
484.10086100394221
 21
234.87602315272409
 31
0.0
  0
LINE
  5
9E6E
  8
0
 10
484.10086100394221
 20
211.1749860891575
 30
0.0
 11
524.10086100394221
 21
211.17498608915739
 31
0.0
  0
LINE
  5
9E6F
  8
0
 10
524.10086100394221
 20
239.16697197338459
 30
0.0
 11
484.10086100394221
 21
239.1669719733847
 31
0.0
  0
ARC
  5
9E85
  8
0
 10
516.38693432182129
 20
212.88018329923409
 30
0.0
 40
17.093404300472528
 50
105.4161650410794
 51
126.18784730125741
  0
ARC
  5
9E86
  8
0
 10
471.53438485161757
 20
318.38651233634198
 30
0.0
 40
97.727991612050005
 50
294.35930424049212
 51
298.20219756453838
  0
ARC
  5
9E87
  8
0
 10
480.21579223535451
 20
306.4501430297791
 30
0.0
 40
83.130245157692215
 50
296.8168134912749
 51
297.92604761320848
  0
ARC
  5
9E89
  8
0
 10
480.21141269769788
 20
146.89344396976671
 30
0.0
 40
83.139770476861784
 50
62.074015931225688
 51
63.18312296429422
  0
ARC
  5
9E8A
  8
0
 10
471.53438485155522
 20
134.9655339689792
 30
0.0
 40
97.727991612191104
 50
61.797802435462692
 51
65.640695759505149
  0
ARC
  5
9E8B
  8
0
 10
516.81412677848584
 20
241.35547408820821
 30
0.0
 40
18.05964995696198
 50
234.37349860502499
 51
254.02248905259981
  0
ARC
  5
9E8C
  8
0
 10
491.81478768606752
 20
240.4718630061887
 30
0.0
 40
17.093404300446821
 50
285.41616504108532
 51
306.18784730129181
  0
ARC
  5
9E8D
  8
0
 10
536.66733715632949
 20
134.9655339689769
 30
0.0
 40
97.727991612193549
 50
114.35930424049479
 51
118.20219756453641
  0
ARC
  5
9E8E
  8
0
 10
527.98592977261058
 20
146.9019032755034
 30
0.0
 40
83.130245157876629
 50
116.8168134912749
 51
117.9260476132046
  0
LINE
  5
9E90
  8
0
 10
490.48259658745388
 20
232.2602673054781
 30
0.0
 11
489.05341400158881
 21
233.000181316219
 31
0.0
  0
ARC
  5
9E91
  8
0
 10
536.24946981460118
 20
317.54030641267059
 30
0.0
 40
96.784770264303205
 50
241.77906974438801
 51
245.6594284505735
  0
ARC
  5
9E92
  8
0
 10
491.3875952293742
 20
211.99657221717499
 30
0.0
 40
18.059649957031031
 50
54.373498605081103
 51
74.022489052582003
  0
LINE
  5
9E94
  8
0
 10
501.90732321070698
 20
226.67602315272489
 30
0.0
 11
506.29439879717688
 21
226.67602315272489
 31
0.0
  0
ARC
  5
9E98
  8
0
 10
474.89693497124301
 20
208.28780963765161
 30
0.0
 40
28.47994403990765
 50
60.193767051090489
 51
68.999411750708873
  0
ARC
  5
9E9A
  8
0
 10
533.28173543606965
 20
208.33634873857449
 30
0.0
 40
28.426368187490532
 50
110.9922737267824
 51
119.81454747141881
  0
POLYLINE
  5
9E9B
  8
0
 66
     1
 10
0.0
 20
0.0
 30
0.0
 70
   128
  0
VERTEX
  5
A84B
  8
0
 10
523.09821490917341
 20
218.47602315272391
 30
0.0
  0
VERTEX
  5
A84C
  8
0
 10
521.23073298380496
 20
219.2700206085614
 30
0.0
  0
VERTEX
  5
A84D
  8
0
 10
519.14830800629568
 20
220.351864989229
 30
0.0
  0
SEQEND
  5
A84E
  8
0
  0
ARC
  5
9E9D
  8
0
 10
474.91998657180631
 20
245.0156975668861
 30
0.0
 40
28.4263681875053
 50
290.9922737267886
 51
299.81454747141993
  0
ARC
  5
9EA4
  8
0
 10
463.67185996548579
 20
250.41827363734311
 30
0.0
 40
43.763998435108313
 50
301.87212076023218
 51
313.12408003925827
  0
ARC
  5
9EA5
  8
0
 10
543.64988631903032
 20
249.27138821815751
 30
0.0
 40
42.325618316693493
 50
226.6840796473796
 51
238.31971955313551
  0
ARC
  5
9EA9
  8
0
 10
644.33390524688821
 20
36.665495661047771
 30
0.0
 40
235.45498443590731
 50
121.46793967508
 51
122.66727544003081
  0
ARC
  5
9EAB
  8
0
 10
361.55388735581869
 20
32.972139282267847
 30
0.0
 40
239.8130927152782
 50
57.343622673901507
 51
58.521162210983313
  0
LINE
  5
9EAE
  8
0
 10
478.55086100394198
 20
234.87602315272409
 30
0.0
 11
478.55086100394198
 21
218.47602315272451
 31
0.0
  0
LINE
  5
9EAF
  8
0
 10
529.65086100394205
 20
234.87602315272201
 30
0.0
 11
478.55086100394198
 21
234.87602315272409
 31
0.0
  0
LINE
  5
9EB0
  8
0
 10
529.65086100394205
 20
218.47602315271649
 30
0.0
 11
478.55086100394198
 21
218.47602315272451
 31
0.0
  0
LINE
  5
9EB1
  8
0
 10
529.65086100394205
 20
218.4760231527242
 30
0.0
 11
529.65086100394205
 21
234.87602315272389
 31
0.0
  0
ARC
  5
9EB4
  8
0
 10
450.7121445312772
 20
256.9938941572139
 30
0.0
 40
56.694037605797647
 50
306.08164425024017
 51
309.50833800350739
  0
ARC
  5
9EB5
  8
0
 10
567.25649450798232
 20
269.60058539819539
 30
0.0
 40
72.635740988002212
 50
230.8740546617328
 51
233.5488135400698
  0
ARC
  5
9EB6
  8
0
 10
583.09402633585887
 20
141.71940577202551
 30
0.0
 40
113.912408432177
 50
121.19027508493539
 51
122.7792806127496
  0
ARC
  5
9EB8
  8
0
 10
455.59243275207302
 20
190.53403680493179
 30
0.0
 40
56.371983977183604
 50
56.409590008963718
 51
59.620854293344479
  0
LINE
  5
A5C3
  8
0
 10
495.68434281555977
 20
202.9464630293518
 30
0.0
 11
497.05086100394283
 21
202.9464630293518
 31
0.0
  0
ARC
  5
A5C4
  8
0
 10
555.5508610039542
 20
206.94646302935149
 30
0.0
 40
60.00000000001188
 50
176.1774462707225
 51
179.9999999999992
  0
ARC
  5
A5C5
  8
0
 10
555.5508610039542
 20
206.94646302935149
 30
0.0
 40
60.00000000001188
 50
179.9999999999992
 51
183.82255372927739
  0
ARC
  5
A5C6
  8
0
 10
452.6508610039233
 20
206.94646302935189
 30
0.0
 40
60.000000000021679
 50
1.9102131717090041
 51
3.8225537292888521
  0
ARC
  5
A5C7
  8
0
 10
452.6508610039233
 20
206.94646302935189
 30
0.0
 40
60.000000000021643
 50
356.17744627071107
 51
358.08978682829098
  0
LINE
  5
A5C8
  8
0
 10
511.15086100394268
 20
202.94646302935169
 30
0.0
 11
512.51737919232585
 21
202.94646302935169
 31
0.0
  0
LINE
  5
A5D9
  8
0
 10
495.68434281555977
 20
211.1749860891575
 30
0.0
 11
495.68434281555989
 21
202.9464630293518
 31
0.0
  0
LINE
  5
A5DA
  8
0
 10
512.61751840620479
 20
204.94646302935149
 30
0.0
 11
512.61751840620491
 21
210.16602315272351
 31
0.0
  0
LINE
  5
A5DB
  8
0
 10
512.51737919232585
 20
202.94646302933489
 30
0.0
 11
512.51737919232585
 21
211.1749860891575
 31
0.0
  0
LINE
  5
A5F0
  8
0
 10
495.68434281555977
 20
210.94646302935161
 30
0.0
 11
495.68434281555977
 21
210.92542596578599
 31
0.0
  0
LINE
  5
A5F1
  8
0
 10
512.51737919232585
 20
210.92542596578599
 30
0.0
 11
512.51737919232585
 21
210.94646302936849
 31
0.0
  0
LINE
  5
A60B
  8
0
 10
497.05086100394283
 20
210.94646302935161
 30
0.0
 11
495.68434281555977
 21
210.94646302935161
 31
0.0
  0
LINE
  5
A60C
  8
0
 10
512.51737919232585
 20
210.94646302935161
 30
0.0
 11
511.15086100394268
 21
210.94646302935161
 31
0.0
  0
ARC
  5
A61C
  8
0
 10
555.55086100395442
 20
208.16602315272311
 30
0.0
 40
60.00000000001188
 50
177.12544629263709
 51
180.58230709047049
  0
ARC
  5
A61D
  8
0
 10
452.6508610039233
 20
208.16602315272351
 30
0.0
 40
60.000000000021679
 50
1.910213171709001
 51
2.8745537073619669
  0
LINE
  5
A625
  8
0
 10
499.60086100390282
 20
209.9492425120394
 30
0.0
 11
499.50086100394259
 21
209.9492425120394
 31
0.0
  0
LINE
  5
A626
  8
0
 10
499.50086100394259
 20
203.9492425120394
 30
0.0
 11
499.60086100390282
 21
203.9492425120394
 31
0.0
  0
LINE
  5
A627
  8
0
 10
499.5508610039426
 20
203.9492425120394
 30
0.0
 11
499.55086100394249
 21
166.16602315272399
 31
0.0
  0
TEXT
  5
A6C1
  8
0
 62
     3
 10
0.0
 20
0.0
 30
0.0
 40
10.0
  1
TCDHFL08200
  7
STANDARD1
  0
ENDSEC
  0
EOF
