  0
SECTION
  2
HEADER
  9
$ACADVER
  1
AC1009
  9
$INSBASE
 10
0.0
 20
0.0
 30
0.0
  9
$EXTMIN
 10
0.0
 20
-2.960436562073669
 30
0.0
  9
$EXTMAX
 10
526.60086100394267
 20
361.6669493683022
 30
0.0
  9
$LIMMIN
 10
0.0
 20
0.0
  9
$LIMMAX
 10
420.0
 20
297.0
  9
$ORTHOMODE
 70
     1
  9
$REGENMODE
 70
     1
  9
$FILLMODE
 70
     1
  9
$QTEXTMODE
 70
     0
  9
$MIRRTEXT
 70
     0
  9
$DRAGMODE
 70
     2
  9
$LTSCALE
 40
10.0
  9
$OSMODE
 70
    37
  9
$ATTMODE
 70
     1
  9
$TEXTSIZE
 40
2.5
  9
$TRACEWID
 40
1.0
  9
$TEXTSTYLE
  7
STANDARD
  9
$CLAYER
  8
0
  9
$CELTYPE
  6
BYLAYER
  9
$CECOLOR
 62
   256
  9
$DIMSCALE
 40
1.0
  9
$DIMASZ
 40
2.5
  9
$DIMEXO
 40
0.625
  9
$DIMDLI
 40
3.75
  9
$DIMRND
 40
0.0
  9
$DIMDLE
 40
0.0
  9
$DIMEXE
 40
1.25
  9
$DIMTP
 40
0.0
  9
$DIMTM
 40
0.0
  9
$DIMTXT
 40
2.5
  9
$DIMCEN
 40
2.5
  9
$DIMTSZ
 40
0.0
  9
$DIMTOL
 70
     0
  9
$DIMLIM
 70
     0
  9
$DIMTIH
 70
     0
  9
$DIMTOH
 70
     0
  9
$DIMSE1
 70
     0
  9
$DIMSE2
 70
     0
  9
$DIMTAD
 70
     1
  9
$DIMZIN
 70
     8
  9
$DIMBLK
  1

  9
$DIMASO
 70
     1
  9
$DIMSHO
 70
     1
  9
$DIMPOST
  1

  9
$DIMAPOST
  1

  9
$DIMALT
 70
     0
  9
$DIMALTD
 70
     3
  9
$DIMALTF
 40
0.03937007874016
  9
$DIMLFAC
 40
1.0
  9
$DIMTOFL
 70
     1
  9
$DIMTVP
 40
0.0
  9
$DIMTIX
 70
     0
  9
$DIMSOXD
 70
     0
  9
$DIMSAH
 70
     0
  9
$DIMBLK1
  1

  9
$DIMBLK2
  1

  9
$DIMSTYLE
  2
ISO-25
  9
$DIMCLRD
 70
     0
  9
$DIMCLRE
 70
     0
  9
$DIMCLRT
 70
     0
  9
$DIMTFAC
 40
1.0
  9
$DIMGAP
 40
0.625
  9
$LUNITS
 70
     2
  9
$LUPREC
 70
     2
  9
$SKETCHINC
 40
1.0
  9
$FILLETRAD
 40
0.0
  9
$AUNITS
 70
     0
  9
$AUPREC
 70
     2
  9
$MENU
  1
.
  9
$ELEVATION
 40
0.0
  9
$PELEVATION
 40
0.0
  9
$THICKNESS
 40
0.0
  9
$LIMCHECK
 70
     0
  9
$BLIPMODE
 70
     0
  9
$CHAMFERA
 40
0.0
  9
$CHAMFERB
 40
0.0
  9
$SKPOLY
 70
     0
  9
$TDCREATE
 40
2454083.4444627082
  9
$TDUPDATE
 40
2457161.724150266
  9
$TDINDWG
 40
1.0797967824000001
  9
$TDUSRTIMER
 40
1.0797967824000001
  9
$USRTIMER
 70
     1
  9
$ANGBASE
 50
0.0
  9
$ANGDIR
 70
     0
  9
$PDMODE
 70
     0
  9
$PDSIZE
 40
0.0
  9
$PLINEWID
 40
0.0
  9
$COORDS
 70
     1
  9
$SPLFRAME
 70
     0
  9
$SPLINETYPE
 70
     6
  9
$SPLINESEGS
 70
     8
  9
$ATTDIA
 70
     0
  9
$ATTREQ
 70
     1
  9
$HANDLING
 70
     1
  9
$HANDSEED
  5
9ABB
  9
$SURFTAB1
 70
     6
  9
$SURFTAB2
 70
     6
  9
$SURFTYPE
 70
     6
  9
$SURFU
 70
     6
  9
$SURFV
 70
     6
  9
$UCSNAME
  2

  9
$UCSORG
 10
0.0
 20
0.0
 30
0.0
  9
$UCSXDIR
 10
1.0
 20
0.0
 30
0.0
  9
$UCSYDIR
 10
0.0
 20
1.0
 30
0.0
  9
$PUCSNAME
  2

  9
$PUCSORG
 10
0.0
 20
0.0
 30
0.0
  9
$PUCSXDIR
 10
1.0
 20
0.0
 30
0.0
  9
$PUCSYDIR
 10
0.0
 20
1.0
 30
0.0
  9
$USERI1
 70
     0
  9
$USERI2
 70
     0
  9
$USERI3
 70
     0
  9
$USERI4
 70
     0
  9
$USERI5
 70
     0
  9
$USERR1
 40
0.0
  9
$USERR2
 40
0.0
  9
$USERR3
 40
0.0
  9
$USERR4
 40
0.0
  9
$USERR5
 40
0.0
  9
$WORLDVIEW
 70
     1
  9
$SHADEDGE
 70
     3
  9
$SHADEDIF
 70
    70
  9
$TILEMODE
 70
     1
  9
$MAXACTVP
 70
    64
  9
$PLIMCHECK
 70
     0
  9
$PEXTMIN
 10
0.0
 20
0.0
 30
0.0
  9
$PEXTMAX
 10
0.0
 20
0.0
 30
0.0
  9
$PLIMMIN
 10
0.0
 20
0.0
  9
$PLIMMAX
 10
12.0
 20
9.0
  9
$UNITMODE
 70
     0
  9
$VISRETAIN
 70
     1
  9
$PLINEGEN
 70
     0
  9
$PSLTSCALE
 70
     1
  0
ENDSEC
  0
SECTION
  2
TABLES
  0
TABLE
  2
VPORT
 70
     1
  0
VPORT
  2
*ACTIVE
 70
     0
 10
0.0
 20
0.0
 11
1.0
 21
1.0
 12
265.71838506041212
 22
179.35725095608129
 13
0.0
 23
0.0
 14
10.0
 24
10.0
 15
10.0
 25
10.0
 16
0.0
 26
0.0
 36
1.0
 17
0.0
 27
0.0
 37
0.0
 40
390.71523607834058
 41
1.368715083798882
 42
50.0
 43
0.0
 44
0.0
 50
0.0
 51
0.0
 71
     0
 72
  1000
 73
     1
 74
     3
 75
     0
 76
     0
 77
     0
 78
     0
  0
ENDTAB
  0
TABLE
  2
LTYPE
 70
     2
  0
LTYPE
  2
CONTINUOUS
 70
     0
  3
Solid line
 72
    65
 73
     0
 40
0.0
  0
LTYPE
  2
CENTER
 70
     0
  3
____ _ ____ _ ____ _ ____ _ ____ _ ____ _ ____
 72
    65
 73
     4
 40
2.0
 49
1.25
 49
-0.25
 49
0.25
 49
-0.25
  0
ENDTAB
  0
TABLE
  2
LAYER
 70
     4
  0
LAYER
  2
0
 70
     0
 62
     7
  6
CONTINUOUS
  0
LAYER
  2
DEFPOINTS
 70
     0
 62
     7
  6
CONTINUOUS
  0
LAYER
  2
1
 70
     0
 62
     1
  6
CENTER
  0
LAYER
  2
3
 70
     0
 62
     3
  6
CONTINUOUS
  0
ENDTAB
  0
TABLE
  2
STYLE
 70
     2
  0
STYLE
  2
STANDARD
 70
     0
 40
0.0
 41
1.0
 50
0.0
 71
     0
 42
2.5
  3
txt
  4

  0
STYLE
  2
STANDARD1
 70
     0
 40
0.0
 41
1.0
 50
0.0
 71
     0
 42
3.0
  3
txt
  4

  0
ENDTAB
  0
TABLE
  2
VIEW
 70
     1
  0
VIEW
  2
OLE1
 70
     0
 40
17.336203194614189
 10
1078.262703908531
 20
377.67444865954309
 41
31.074911629702001
 11
0.0
 21
0.0
 31
1.0
 12
0.0
 22
0.0
 32
0.0
 42
50.0
 43
0.0
 44
0.0
 50
0.0
 71
     0
  0
ENDTAB
  0
TABLE
  2
UCS
 70
     0
  0
ENDTAB
  0
TABLE
  2
APPID
 70
    42
  0
APPID
  2
ACAD
 70
     0
  0
APPID
  2
_FTCNV
 70
     0
  0
APPID
  2
DCO15
 70
     0
  0
APPID
  2
GENIUS_GENOREF_13
 70
     0
  0
APPID
  2
GENIUS_GENOENT_13
 70
     0
  0
APPID
  2
GENIUS_GENBH_13
 70
     0
  0
APPID
  2
GENIUS_GENOBJ_13
 70
     0
  0
APPID
  2
GENIUS_GENODEF_13
 70
     0
  0
APPID
  2
GENIUS_GENOLIS_13
 70
     0
  0
APPID
  2
GENIUS_GENOBJ-NBEHI-BHF_13
 70
     0
  0
APPID
  2
GENIUS_GENOBJ-NBEHI-BHB_13
 70
     0
  0
APPID
  2
GENIUS_GENOBJ-F-PART_13
 70
     0
  0
APPID
  2
GENIUS_GEFSTDP_13
 70
     0
  0
APPID
  2
GENIUS_GENOBJ-N-RSSYM_13
 70
     0
  0
APPID
  2
GENIUS_GENSYMENT_13
 70
     0
  0
APPID
  2
GENIUS_GENOBJ-N-TIT_13
 70
     0
  0
APPID
  2
GENIUS_GENTITLE_13
 70
     0
  0
APPID
  2
GENIUS_GENZVEED_13
 70
     0
  0
APPID
  2
GENIUS_GENOBJ-N-LEADER_13
 70
     0
  0
APPID
  2
GENIUS_GENOBJ-N-FIL_13
 70
     0
  0
APPID
  2
GENIUS_GENOBJ-N-SEC_13
 70
     0
  0
APPID
  2
GENIUS_GENOBJ-N-CRS_13
 70
     0
  0
APPID
  2
GENIUS_GENOBJ-N-ZOO_13
 70
     0
  0
APPID
  2
GENIUS_GENZOO_13
 70
     0
  0
APPID
  2
GENIUS_GENOBJ-F-TOL_13
 70
     0
  0
APPID
  2
GENIUS_GENFIL_13
 70
     0
  0
APPID
  2
GENIUS_GENOBJ-N-CHA_13
 70
     0
  0
APPID
  2
_CALL_MAC$
 70
     0
  0
APPID
  2
ASM_BASE
 70
     0
  0
APPID
  2
ASM_EXPLO_VER_2_00
 70
     0
  0
APPID
  2
ASM_CADM_VER_12_00
 70
     0
  0
APPID
  2
ASM_BASEFORO
 70
     0
  0
APPID
  2
ASM_BASETRAVI
 70
     0
  0
APPID
  2
ASM_BASETRAVI1
 70
     0
  0
APPID
  2
ASM_GRUPPI
 70
     0
  0
APPID
  2
ASM_CADM_ALBERO
 70
     0
  0
APPID
  2
ASM_GOLE
 70
     0
  0
APPID
  2
ACAD_MLEADERVER
 70
     0
  0
APPID
  2
ACAD_EXEMPT_FROM_CAD_STANDARDS
 70
     0
  0
APPID
  2
ACAD_DSTYLE_DIMJAG
 70
     0
  0
APPID
  2
ACAD_DSTYLE_DIMTALN
 70
     0
  0
APPID
  2
ACAD_NAV_VCDISPLAY
 70
     0
  0
ENDTAB
  0
TABLE
  2
DIMSTYLE
 70
     2
  0
DIMSTYLE
  2
ISO-25
 70
     0
  3

  4

  5

  6

  7

 40
1.0
 41
2.5
 42
0.625
 43
3.75
 44
1.25
 45
0.0
 46
0.0
 47
0.0
 48
0.0
140
2.5
141
2.5
142
0.0
143
0.03937007874016
144
1.0
145
0.0
146
1.0
147
0.625
 71
     0
 72
     0
 73
     0
 74
     0
 75
     0
 76
     0
 77
     1
 78
     8
170
     0
171
     3
172
     1
173
     0
174
     0
175
     0
176
     0
177
     0
178
     0
  0
DIMSTYLE
  2
STANDARD
 70
     0
  3

  4

  5

  6

  7

 40
1.0
 41
0.18
 42
0.0625
 43
0.38
 44
0.18
 45
0.0
 46
0.0
 47
0.0
 48
0.0
140
0.18
141
0.09
142
0.0
143
25.399999999999999
144
1.0
145
0.0
146
1.0
147
0.09
 71
     0
 72
     0
 73
     1
 74
     1
 75
     0
 76
     0
 77
     0
 78
     0
170
     0
171
     2
172
     0
173
     0
174
     0
175
     0
176
     0
177
     0
178
     0
  0
ENDTAB
  0
ENDSEC
  0
SECTION
  2
BLOCKS
  0
BLOCK
  8
0
  2
$MODEL_SPACE
 70
     0
 10
0.0
 20
0.0
 30
0.0
  3
$MODEL_SPACE
  1

  0
ENDBLK
  5
21
  8
0
  0
BLOCK
 67
     1
  8
0
  2
$PAPER_SPACE
 70
     0
 10
0.0
 20
0.0
 30
0.0
  3
$PAPER_SPACE
  1

  0
ENDBLK
  5
53
 67
     1
  8
0
  0
ENDSEC
  0
SECTION
  2
ENTITIES
  0
LINE
  5
8729
  8
0
 10
180.06086100394089
 20
203.17602315272401
 30
0.0
 11
180.56086100394089
 21
202.30999774893959
 31
0.0
  0
LINE
  5
872A
  8
0
 10
180.060861003941
 20
211.6132770859177
 30
0.0
 11
180.060861003941
 21
203.17602315272401
 31
0.0
  0
ARC
  5
872B
  8
0
 10
189.060861003941
 20
203.6760231527239
 30
0.0
 40
12.000000000000091
 50
109.66663821504039
 51
138.5903778907302
  0
ARC
  5
872C
  8
0
 10
189.060861003941
 20
203.6760231527239
 30
0.0
 40
12.00000000000011
 50
58.992994420976693
 51
70.333361784962634
  0
LINE
  5
872D
  8
0
 10
181.55530750447591
 20
196.2565797363248
 30
0.0
 11
182.56086100394111
 21
195.67602315272401
 31
0.0
  0
LINE
  5
872E
  8
0
 10
195.560861003941
 20
195.67602315272401
 30
0.0
 11
196.56641450340609
 21
196.2565797363248
 31
0.0
  0
LINE
  5
872F
  8
0
 10
196.56641449674191
 20
199.09546657297079
 30
0.0
 11
195.560861003941
 21
199.67602315272401
 31
0.0
  0
LINE
  5
8730
  8
0
 10
182.560861003941
 20
199.67602315272401
 30
0.0
 11
181.5553075261351
 21
199.09546658162819
 31
0.0
  0
LINE
  5
8731
  8
0
 10
183.26086100394099
 20
173.17602315272401
 30
0.0
 11
183.26086100394099
 21
172.67602315272401
 31
0.0
  0
LINE
  5
8732
  8
0
 10
194.86086100394101
 20
172.67602315272401
 30
0.0
 11
194.86086100394101
 21
173.17602315272401
 31
0.0
  0
LINE
  5
8733
  8
0
 10
185.060861003941
 20
217.40902315272399
 30
0.0
 11
185.06086100394111
 21
214.97602315272411
 31
0.0
  0
LINE
  5
8734
  8
0
 10
185.060861003941
 20
195.67602315272401
 30
0.0
 11
185.060861003941
 21
173.17602315272401
 31
0.0
  0
LINE
  5
8735
  8
0
 10
193.060861003941
 20
173.17602315272401
 30
0.0
 11
193.060861003941
 21
195.67602315272401
 31
0.0
  0
LINE
  5
8736
  8
0
 10
193.060861003941
 20
214.9760231527242
 30
0.0
 11
193.060861003941
 21
217.40902315272399
 31
0.0
  0
LINE
  5
8737
  8
0
 10
193.06086100388711
 20
217.40902315272399
 30
0.0
 11
192.29386100396829
 21
218.1760231527094
 31
0.0
  0
LINE
  5
8738
  8
0
 10
185.8278610039136
 20
218.1760231527094
 30
0.0
 11
185.0608610039948
 21
217.40902315272399
 31
0.0
  0
LINE
  5
8739
  8
0
 10
195.560861003941
 20
167.87602315272409
 30
0.0
 11
196.56641450340609
 21
168.14546040085199
 31
0.0
  0
LINE
  5
873A
  8
0
 10
181.55530750447591
 20
168.14546040085199
 30
0.0
 11
182.560861003941
 21
167.87602315272409
 31
0.0
  0
LINE
  5
873B
  8
0
 10
184.3198168151572
 20
211.0099977802889
 30
0.0
 11
184.3198168151572
 21
211.6132770859179
 31
0.0
  0
ARC
  5
873C
  8
0
 10
189.060861003941
 20
203.6760231527241
 30
0.0
 40
9.2454042637411185
 50
79.219577602090226
 51
120.8505233450019
  0
LINE
  5
873D
  8
0
 10
180.060861003941
 20
203.17602315272401
 30
0.0
 11
180.560861003941
 21
203.17602315272401
 31
0.0
  0
LINE
  5
873E
  8
0
 10
180.060861003941
 20
211.6132770859179
 30
0.0
 11
184.3198168151572
 21
211.6132770859179
 31
0.0
  0
LINE
  5
873F
  8
0
 10
193.09942510520241
 20
214.9760231527242
 30
0.0
 11
185.02229690267961
 21
214.97602315272411
 31
0.0
  0
LINE
  5
8742
  8
0
 10
236.560861003941
 20
203.66602315272399
 30
0.0
 11
237.573467914345
 21
203.66602315272399
 31
0.0
  0
LINE
  5
8745
  8
0
 10
234.560861003941
 20
224.58488787206429
 30
0.0
 11
237.57346791434509
 21
225.39887986523999
 31
0.0
  0
ARC
  5
8746
  8
0
 10
236.560861003941
 20
200.66602315272391
 30
0.0
 40
3.0000000000000941
 50
90.0
 51
127.31268606276041
  0
LINE
  5
8748
  8
0
 10
233.56086100394111
 20
199.67602315272401
 30
0.0
 11
233.560861003941
 21
200.66602315272411
 31
0.0
  0
LINE
  5
8749
  8
0
 10
180.560861003941
 20
199.67602315272401
 30
0.0
 11
233.56086100394111
 21
199.67602315272401
 31
0.0
  0
LINE
  5
874A
  8
0
 10
180.560861003941
 20
199.67602315272401
 30
0.0
 11
180.560861003941
 21
203.17602315272401
 31
0.0
  0
ARC
  5
874B
  8
0
 10
236.56086100394111
 20
200.66602315272411
 30
0.0
 40
3.0000000000001461
 50
127.31268606276041
 51
180.0
  0
LINE
  5
874C
  8
0
 10
184.25665347249151
 20
210.99293134689049
 30
0.0
 11
234.560861003941
 21
224.58488787206429
 31
0.0
  0
ARC
  5
874D
  8
0
 10
185.560861003941
 20
206.16602315272419
 30
0.0
 40
5.0
 50
105.1200000000015
 51
180.0
  0
LINE
  5
874E
  8
0
 10
180.560861003941
 20
203.17602315272401
 30
0.0
 11
180.560861003941
 21
206.16602315272419
 31
0.0
  0
ARC
  5
8750
  8
0
 10
251.26290203280831
 20
196.66602315272399
 30
0.0
 40
7.0000000000000249
 50
77.162119930448497
 51
90.0
  0
LINE
  5
8751
  8
0
 10
251.26290203280831
 20
203.66602315272399
 30
0.0
 11
237.573467914345
 21
203.66602315272399
 31
0.0
  0
LINE
  5
8752
  8
0
 10
237.57346791434509
 20
225.39887986523999
 30
0.0
 11
252.81825409353701
 21
229.5179482523844
 31
0.0
  0
ARC
  5
8754
  8
0
 10
251.2629020328082
 20
196.6660231527238
 30
0.0
 40
7.0000000000001492
 50
52.121131074473823
 51
77.162119930448497
  0
LINE
  5
8755
  8
0
 10
252.81825409353701
 20
229.5179482523844
 30
0.0
 11
255.83086100394101
 21
230.33194024556011
 31
0.0
  0
LINE
  5
875B
  8
0
 10
256.47631808559129
 20
230.5063396650753
 30
0.0
 11
264.15086100394097
 21
234.9372390848917
 31
0.0
  0
ARC
  5
875C
  8
0
 10
268.40086100394097
 20
227.5760231527241
 30
0.0
 40
8.4999999999999432
 50
90.0
 51
120.0000000000005
  0
LINE
  5
875D
  8
0
 10
268.40086100394097
 20
236.0760231527241
 30
0.0
 11
271.90086100394097
 21
236.07602315272399
 31
0.0
  0
ARC
  5
875E
  8
0
 10
271.90086100394092
 20
227.0760231527241
 30
0.0
 40
9.0000000000000213
 50
22.789786440877791
 51
90.0
  0
LINE
  5
8764
  8
0
 10
275.1109404155597
 20
208.65302155990929
 30
0.0
 11
274.74236846268309
 21
208.19379042427431
 31
0.0
  0
LINE
  5
8768
  8
0
 10
255.83086100394101
 20
230.33194024556011
 30
0.0
 11
256.47631808559129
 21
230.5063396650753
 31
0.0
  0
POLYLINE
  5
876A
  8
0
 66
     1
 10
0.0
 20
0.0
 30
0.0
 70
   128
  0
VERTEX
  5
955B
  8
0
 10
196.56641450340609
 20
196.2565797363248
 30
0.0
  0
VERTEX
  5
955C
  8
0
 10
195.64711881126931
 20
195.83536882836529
 30
0.0
  0
VERTEX
  5
955D
  8
0
 10
194.6900261285399
 20
195.67602315272401
 30
0.0
  0
SEQEND
  5
955E
  8
0
  0
POLYLINE
  5
876B
  8
0
 66
     1
 10
0.0
 20
0.0
 30
0.0
 70
   128
  0
VERTEX
  5
955F
  8
0
 10
194.6900261285399
 20
195.67602315272401
 30
0.0
  0
VERTEX
  5
9560
  8
0
 10
193.7518319411067
 20
195.82926028474409
 30
0.0
  0
VERTEX
  5
9561
  8
0
 10
192.81363775367359
 20
196.2565797363248
 30
0.0
  0
SEQEND
  5
9562
  8
0
  0
LINE
  5
876C
  8
0
 10
192.81363774534279
 20
199.0954665643136
 30
0.0
 11
192.81363775367359
 21
196.2565797363248
 31
0.0
  0
POLYLINE
  5
876D
  8
0
 66
     1
 10
0.0
 20
0.0
 30
0.0
 70
   128
  0
VERTEX
  5
9563
  8
0
 10
192.81363773701199
 20
199.09546655950371
 30
0.0
  0
VERTEX
  5
9564
  8
0
 10
193.73293343707101
 20
199.5166774742321
 30
0.0
  0
VERTEX
  5
9565
  8
0
 10
194.6900261285399
 20
199.67602315272401
 30
0.0
  0
SEQEND
  5
9566
  8
0
  0
POLYLINE
  5
876E
  8
0
 66
     1
 10
0.0
 20
0.0
 30
0.0
 70
   128
  0
VERTEX
  5
9567
  8
0
 10
194.6900261285399
 20
199.67602315272401
 30
0.0
  0
VERTEX
  5
9568
  8
0
 10
195.6282203093088
 20
199.5227860228382
 30
0.0
  0
VERTEX
  5
9569
  8
0
 10
196.5664144900777
 20
199.09546657681841
 30
0.0
  0
SEQEND
  5
956A
  8
0
  0
LINE
  5
876F
  8
0
 10
196.56641450340609
 20
196.2565797363248
 30
0.0
 11
196.56641449674191
 21
199.09546657297079
 31
0.0
  0
POLYLINE
  5
8770
  8
0
 66
     1
 10
0.0
 20
0.0
 30
0.0
 70
   128
  0
VERTEX
  5
956B
  8
0
 10
189.060861003941
 20
195.67602315272401
 30
0.0
  0
VERTEX
  5
956C
  8
0
 10
187.18447262907469
 20
195.82926028474409
 30
0.0
  0
VERTEX
  5
956D
  8
0
 10
185.30808425420841
 20
196.2565797363248
 30
0.0
  0
SEQEND
  5
956E
  8
0
  0
LINE
  5
8771
  8
0
 10
185.30808425420841
 20
196.2565797363248
 30
0.0
 11
185.30808423754689
 21
199.09546656431351
 31
0.0
  0
POLYLINE
  5
8772
  8
0
 66
     1
 10
0.0
 20
0.0
 30
0.0
 70
   128
  0
VERTEX
  5
956F
  8
0
 10
185.30808422088529
 20
199.09546655950371
 30
0.0
  0
VERTEX
  5
9570
  8
0
 10
187.14667562100331
 20
199.5166774742321
 30
0.0
  0
VERTEX
  5
9571
  8
0
 10
189.060861003941
 20
199.67602315272401
 30
0.0
  0
SEQEND
  5
9572
  8
0
  0
POLYLINE
  5
8773
  8
0
 66
     1
 10
0.0
 20
0.0
 30
0.0
 70
   128
  0
VERTEX
  5
9573
  8
0
 10
189.060861003941
 20
199.67602315272401
 30
0.0
  0
VERTEX
  5
9574
  8
0
 10
190.9372493354887
 20
199.52278602764059
 30
0.0
  0
VERTEX
  5
9575
  8
0
 10
192.81363766703649
 20
199.09546659413331
 30
0.0
  0
SEQEND
  5
9576
  8
0
  0
POLYLINE
  5
8774
  8
0
 66
     1
 10
0.0
 20
0.0
 30
0.0
 70
   128
  0
VERTEX
  5
9577
  8
0
 10
192.81363775367359
 20
196.2565797363248
 30
0.0
  0
VERTEX
  5
9578
  8
0
 10
190.97504636939991
 20
195.83536882836529
 30
0.0
  0
VERTEX
  5
9579
  8
0
 10
189.060861003941
 20
195.67602315272401
 30
0.0
  0
SEQEND
  5
957A
  8
0
  0
POLYLINE
  5
8776
  8
0
 66
     1
 10
0.0
 20
0.0
 30
0.0
 70
   128
  0
VERTEX
  5
957B
  8
0
 10
183.4316958793421
 20
199.67602315272401
 30
0.0
  0
VERTEX
  5
957C
  8
0
 10
184.36989004511599
 20
199.52278602764059
 30
0.0
  0
VERTEX
  5
957D
  8
0
 10
185.30808421088989
 20
199.09546659413331
 30
0.0
  0
SEQEND
  5
957E
  8
0
  0
POLYLINE
  5
8777
  8
0
 66
     1
 10
0.0
 20
0.0
 30
0.0
 70
   128
  0
VERTEX
  5
957F
  8
0
 10
185.30808425420841
 20
196.2565797363248
 30
0.0
  0
VERTEX
  5
9580
  8
0
 10
184.3887885620716
 20
195.83536882836529
 30
0.0
  0
VERTEX
  5
9581
  8
0
 10
183.43169587934219
 20
195.67602315272401
 30
0.0
  0
SEQEND
  5
9582
  8
0
  0
POLYLINE
  5
8779
  8
0
 66
     1
 10
0.0
 20
0.0
 30
0.0
 70
   128
  0
VERTEX
  5
9583
  8
0
 10
183.43169587934219
 20
195.67602315272401
 30
0.0
  0
VERTEX
  5
9584
  8
0
 10
182.49350169190899
 20
195.82926028474409
 30
0.0
  0
VERTEX
  5
9585
  8
0
 10
181.55530750447591
 20
196.2565797363248
 30
0.0
  0
SEQEND
  5
9586
  8
0
  0
LINE
  5
877A
  8
0
 10
181.55530750447591
 20
196.2565797363248
 30
0.0
 11
181.5553075261351
 21
199.09546658162819
 31
0.0
  0
POLYLINE
  5
877B
  8
0
 66
     1
 10
0.0
 20
0.0
 30
0.0
 70
   128
  0
VERTEX
  5
9587
  8
0
 10
181.55530754779431
 20
199.0954665941332
 30
0.0
  0
VERTEX
  5
9588
  8
0
 10
182.47460321933431
 20
199.51667748449461
 30
0.0
  0
VERTEX
  5
9589
  8
0
 10
183.4316958793421
 20
199.67602315272401
 30
0.0
  0
SEQEND
  5
958A
  8
0
  0
LINE
  5
877D
  8
0
 10
182.56086100394089
 20
195.6760231527241
 30
0.0
 11
195.560861003941
 21
195.67602315272401
 31
0.0
  0
LINE
  5
877F
  8
0
 10
192.81363775367359
 20
168.14546040085199
 30
0.0
 11
192.81363775367359
 21
172.67602315272401
 31
0.0
  0
POLYLINE
  5
8780
  8
0
 66
     1
 10
0.0
 20
0.0
 30
0.0
 70
   128
  0
VERTEX
  5
958B
  8
0
 10
192.81363775367359
 20
168.14546040085199
 30
0.0
  0
VERTEX
  5
958C
  8
0
 10
190.9456861262008
 20
167.94776903694139
 30
0.0
  0
VERTEX
  5
958D
  8
0
 10
189.06086100394089
 20
167.87602315272409
 30
0.0
  0
SEQEND
  5
958E
  8
0
  0
POLYLINE
  5
8781
  8
0
 66
     1
 10
0.0
 20
0.0
 30
0.0
 70
   128
  0
VERTEX
  5
958F
  8
0
 10
189.06086100394089
 20
167.87602315272409
 30
0.0
  0
VERTEX
  5
9590
  8
0
 10
187.18447262907469
 20
167.94714075319371
 30
0.0
  0
VERTEX
  5
9591
  8
0
 10
185.3080842542085
 20
168.14546040085199
 30
0.0
  0
SEQEND
  5
9592
  8
0
  0
LINE
  5
8782
  8
0
 10
185.3080842542085
 20
168.14546040085199
 30
0.0
 11
185.30808425420841
 21
172.67602315272401
 31
0.0
  0
LINE
  5
8784
  8
0
 10
196.56641450340609
 20
168.14546040085199
 30
0.0
 11
196.56641450340609
 21
172.67602315272401
 31
0.0
  0
POLYLINE
  5
8785
  8
0
 66
     1
 10
0.0
 20
0.0
 30
0.0
 70
   128
  0
VERTEX
  5
9593
  8
0
 10
196.56641450340609
 20
168.14546040085199
 30
0.0
  0
VERTEX
  5
9594
  8
0
 10
195.63243868966981
 20
167.94776903694131
 30
0.0
  0
VERTEX
  5
9595
  8
0
 10
194.6900261285399
 20
167.87602315272409
 30
0.0
  0
SEQEND
  5
9596
  8
0
  0
POLYLINE
  5
8786
  8
0
 66
     1
 10
0.0
 20
0.0
 30
0.0
 70
   128
  0
VERTEX
  5
9597
  8
0
 10
194.6900261285399
 20
167.87602315272409
 30
0.0
  0
VERTEX
  5
9598
  8
0
 10
193.7518319411067
 20
167.94714075319371
 30
0.0
  0
VERTEX
  5
9599
  8
0
 10
192.81363775367359
 20
168.14546040085199
 30
0.0
  0
SEQEND
  5
959A
  8
0
  0
POLYLINE
  5
8787
  8
0
 66
     1
 10
0.0
 20
0.0
 30
0.0
 70
   128
  0
VERTEX
  5
959B
  8
0
 10
185.30808425420841
 20
168.14546040085199
 30
0.0
  0
VERTEX
  5
959C
  8
0
 10
184.3741084404721
 20
167.94776903694139
 30
0.0
  0
VERTEX
  5
959D
  8
0
 10
183.4316958793421
 20
167.87602315272409
 30
0.0
  0
SEQEND
  5
959E
  8
0
  0
POLYLINE
  5
8788
  8
0
 66
     1
 10
0.0
 20
0.0
 30
0.0
 70
   128
  0
VERTEX
  5
959F
  8
0
 10
183.4316958793421
 20
167.87602315272409
 30
0.0
  0
VERTEX
  5
95A0
  8
0
 10
182.49350169190899
 20
167.94714075319371
 30
0.0
  0
VERTEX
  5
95A1
  8
0
 10
181.55530750447591
 20
168.14546040085199
 30
0.0
  0
SEQEND
  5
95A2
  8
0
  0
LINE
  5
8789
  8
0
 10
181.55530750447591
 20
168.14546040085199
 30
0.0
 11
181.55530750447591
 21
172.67602315272401
 31
0.0
  0
LINE
  5
878A
  8
0
 10
181.55530750447579
 20
172.67602315272401
 30
0.0
 11
196.56641450340609
 21
172.67602315272401
 31
0.0
  0
LINE
  5
878D
  8
0
 10
183.26086100394099
 20
173.17602315272401
 30
0.0
 11
194.86086100394101
 21
173.17602315272401
 31
0.0
  0
LINE
  5
878E
  8
0
 10
193.060861003941
 20
217.40902315272399
 30
0.0
 11
185.060861003941
 21
217.40902315272399
 31
0.0
  0
LINE
  5
878F
  8
0
 10
192.29386100396829
 20
218.1760231527094
 30
0.0
 11
185.8278610039136
 21
218.1760231527094
 31
0.0
  0
LINE
  5
8790
  8
0
 10
182.5608610039406
 20
167.87602315272409
 30
0.0
 11
195.560861003941
 21
167.87602315272409
 31
0.0
  0
ARC
  5
8794
  8
0
 10
189.06086100394111
 20
339.16694936830208
 30
0.0
 40
9.0000000000000053
 50
301.7883306170516
 51
58.211669382948379
  0
LINE
  5
8795
  8
0
 10
184.31981681515731
 20
331.51694936830211
 30
0.0
 11
193.8019051927248
 21
331.51694936830211
 31
0.0
  0
ARC
  5
8796
  8
0
 10
189.06086100394111
 20
339.16694936830208
 30
0.0
 40
9.0000000000000266
 50
121.7883306170516
 51
238.2116693829484
  0
LINE
  5
8797
  8
0
 10
193.8019051927248
 20
346.81694936830212
 30
0.0
 11
184.31981681515731
 21
346.81694936830212
 31
0.0
  0
ARC
  5
87A5
  8
0
 10
255.83086100394101
 20
331.61694936830202
 30
0.0
 40
7.499999999999984
 50
89.064353442241966
 51
113.002741716909
  0
LINE
  5
87A6
  8
0
 10
255.9533314085304
 20
339.21794936830202
 30
0.0
 11
255.9533314085304
 21
339.11594936830198
 31
0.0
  0
ARC
  5
87A7
  8
0
 10
255.83086100394101
 20
346.71694936830198
 30
0.0
 40
7.5000000000000124
 50
246.99725828309101
 51
270.9356465577581
  0
LINE
  5
87A8
  8
0
 10
236.51473688408311
 20
346.76938014399002
 30
0.0
 11
252.90004718372811
 21
339.81330320477008
 31
0.0
  0
ARC
  5
87A9
  8
0
 10
234.560861003941
 20
342.16694936830208
 30
0.0
 40
4.999999999999984
 50
66.997258283090986
 51
90.0
  0
LINE
  5
87AA
  8
0
 10
180.56086100394111
 20
347.16694936830203
 30
0.0
 11
234.560861003941
 21
347.16694936830208
 31
0.0
  0
LINE
  5
87AC
  8
0
 10
234.56086100394111
 20
349.66694936830203
 30
0.0
 11
180.56086100394111
 21
349.66694936830203
 31
0.0
  0
ARC
  5
87AD
  8
0
 10
234.56086100394111
 20
342.16694936830208
 30
0.0
 40
7.499999999999968
 50
66.316696874028324
 51
90.0
  0
LINE
  5
87AE
  8
0
 10
252.81825409353709
 20
342.34860170649972
 30
0.0
 11
237.57346791434509
 21
349.0352970301044
 31
0.0
  0
ARC
  5
87AF
  8
0
 10
255.8308610039411
 20
349.21694936830193
 30
0.0
 40
7.4999999999999138
 50
246.31669687402831
 51
270.0
  0
ARC
  5
87B0
  8
0
 10
255.8308610039411
 20
329.11694936830202
 30
0.0
 40
7.5000000000000062
 50
90.0
 51
113.68330312597161
  0
LINE
  5
87B1
  8
0
 10
237.57346791434509
 20
329.2986017064996
 30
0.0
 11
252.81825409353709
 21
335.98529703010439
 31
0.0
  0
ARC
  5
87B2
  8
0
 10
234.56086100394111
 20
336.16694936830208
 30
0.0
 40
7.5000000000000577
 50
270.0
 51
293.68330312597158
  0
LINE
  5
87B3
  8
0
 10
180.56086100394111
 20
328.6669493683022
 30
0.0
 11
234.56086100394111
 21
328.66694936830208
 31
0.0
  0
LINE
  5
87B5
  8
0
 10
234.560861003941
 20
331.16694936830208
 30
0.0
 11
180.56086100394111
 21
331.16694936830203
 31
0.0
  0
ARC
  5
87B6
  8
0
 10
234.560861003941
 20
336.16694936830203
 30
0.0
 40
4.9999999999999041
 50
270.0
 51
293.00274171690899
  0
LINE
  5
87B7
  8
0
 10
252.90004718372811
 20
338.52059553183392
 30
0.0
 11
236.51473688408311
 21
331.56451859261409
 31
0.0
  0
LINE
  5
87B8
  8
0
 10
255.8308610039411
 20
336.61694936830202
 30
0.0
 11
280.79366494190231
 21
336.6169493683019
 31
0.0
  0
LINE
  5
87B9
  8
0
 10
280.79366494190231
 20
341.7169493683021
 30
0.0
 11
255.8308610039411
 21
341.7169493683021
 31
0.0
  0
LINE
  5
87C2
  8
0
 10
233.96858401256841
 20
331.16694936830208
 30
0.0
 11
233.96858401256841
 21
347.16694936830203
 31
0.0
  0
LINE
  5
87C3
  8
0
 10
226.060861003941
 20
335.06694936830212
 30
0.0
 11
197.07272720352279
 21
335.06694936830212
 31
0.0
  0
ARC
  5
87C4
  8
0
 10
226.060861003941
 20
339.16694936830208
 30
0.0
 40
4.1000000000000218
 50
270.0
 51
90.0
  0
LINE
  5
87C5
  8
0
 10
197.07272720352279
 20
343.26694936830211
 30
0.0
 11
226.060861003941
 21
343.26694936830211
 31
0.0
  0
LINE
  5
87C6
  8
0
 10
180.560861003941
 20
328.6669493683022
 30
0.0
 11
180.560861003941
 21
336.20890947675241
 31
0.0
  0
LINE
  5
87C7
  8
0
 10
180.560861003941
 20
342.12498925985182
 30
0.0
 11
180.560861003941
 21
349.66694936830203
 31
0.0
  0
LINE
  5
87C8
  8
0
 10
255.580297080751
 20
339.22113602214699
 30
0.0
 11
255.580297080751
 21
339.11276271445701
 31
0.0
  0
ARC
  5
87CB
  8
0
 10
80.56086100394171
 20
203.6760231527239
 30
0.0
 40
12.00000000000011
 50
109.6645740520642
 51
129.60565239386679
  0
ARC
  5
87CC
  8
0
 10
80.56086100394171
 20
203.6760231527239
 30
0.0
 40
12.000000000000099
 50
50.394347606133188
 51
70.331619325699194
  0
LINE
  5
87CD
  8
0
 10
80.610861003941352
 20
230.33194024556011
 30
0.0
 11
80.610861003941395
 21
218.1760231527094
 31
0.0
  0
LINE
  5
87CE
  8
0
 10
80.510861003941443
 20
218.1760231527094
 30
0.0
 11
80.510861003941386
 21
230.33194024556011
 31
0.0
  0
LINE
  5
87CF
  8
0
 10
74.760861003941812
 20
173.17602315272401
 30
0.0
 11
74.760861003941841
 21
172.67602315272401
 31
0.0
  0
LINE
  5
87D0
  8
0
 10
86.360861003941835
 20
172.67602315272401
 30
0.0
 11
86.360861003941807
 21
173.17602315272401
 31
0.0
  0
LINE
  5
87D1
  8
0
 10
76.560861003941653
 20
217.40902315272399
 30
0.0
 11
76.560861003941682
 21
214.97602315272411
 31
0.0
  0
LINE
  5
87D2
  8
0
 10
76.560861003941739
 20
195.67602315272401
 30
0.0
 11
76.560861003941824
 21
173.17602315272401
 31
0.0
  0
LINE
  5
87D3
  8
0
 10
84.560861003941824
 20
173.17602315272401
 30
0.0
 11
84.560861003941724
 21
195.67602315272401
 31
0.0
  0
LINE
  5
87D4
  8
0
 10
84.560861003941639
 20
214.97602315272411
 30
0.0
 11
84.560861003941639
 21
217.40902315272399
 31
0.0
  0
LINE
  5
87D5
  8
0
 10
84.560861003887766
 20
217.40902315272399
 30
0.0
 11
83.793861003969027
 21
218.1760231527094
 31
0.0
  0
LINE
  5
87D6
  8
0
 10
77.327861003914279
 20
218.1760231527094
 30
0.0
 11
76.560861003995512
 21
217.40902315272399
 31
0.0
  0
LINE
  5
87D7
  8
0
 10
84.599425105203395
 20
214.97602315272411
 30
0.0
 11
76.522296902679926
 21
214.97602315272411
 31
0.0
  0
LINE
  5
87D8
  8
0
 10
88.210861003941886
 20
202.1760231527239
 30
0.0
 11
88.210861003941659
 21
212.92142741646509
 31
0.0
  0
LINE
  5
87D9
  8
0
 10
72.910861003941704
 20
211.6132770859179
 30
0.0
 11
88.210861003941673
 21
211.6132770859179
 31
0.0
  0
LINE
  5
87DA
  8
0
 10
72.910861003941676
 20
212.92142741646501
 30
0.0
 11
72.910861003941932
 21
202.17602315272379
 31
0.0
  0
LINE
  5
87DC
  8
0
 10
72.910861003941733
 20
203.1760231527239
 30
0.0
 11
88.210861003941716
 21
203.17602315272401
 31
0.0
  0
LINE
  5
87E0
  8
0
 10
88.560861003941739
 20
202.17602315272401
 30
0.0
 11
72.560861003941739
 21
202.1760231527239
 31
0.0
  0
ARC
  5
87E2
  8
0
 10
87.560861003941739
 20
203.17602315272401
 30
0.0
 40
3.4999999999999849
 50
270.0
 51
0.0
  0
LINE
  5
87E3
  8
0
 10
73.560861003941739
 20
199.67602315272401
 30
0.0
 11
87.560861003941767
 21
199.67602315272401
 31
0.0
  0
ARC
  5
87E4
  8
0
 10
73.56086100394171
 20
203.1760231527239
 30
0.0
 40
3.4999999999999849
 50
180.0
 51
270.0
  0
LINE
  5
87E6
  8
0
 10
91.060861003941739
 20
203.17602315272401
 30
0.0
 11
91.060861003941739
 21
224.5848878720642
 31
0.0
  0
LINE
  5
87E7
  8
0
 10
70.060861003941739
 20
224.5848878720642
 30
0.0
 11
70.060861003941739
 21
203.17602315272401
 31
0.0
  0
LINE
  5
87E8
  8
0
 10
88.560861003941739
 20
224.5848878720642
 30
0.0
 11
88.560861003941739
 21
202.17602315272401
 31
0.0
  0
LINE
  5
87E9
  8
0
 10
72.560861003941739
 20
202.1760231527239
 30
0.0
 11
72.560861003941739
 21
224.5848878720642
 31
0.0
  0
POLYLINE
  5
87F0
  8
0
 10
80.611861003941385
 20
230.36503116372543
 30
0.0
 66
     1
 70
     8
  0
VERTEX
  8
0
  5
96AB
 10
80.6119
 20
230.365
 30
0.000000
  70
    32
  0
VERTEX
  8
0
  5
96AC
 10
80.6115
 20
230.358
 30
0.000000
  70
    32
  0
VERTEX
  8
0
  5
96AD
 10
80.6112
 20
230.352
 30
0.000000
  70
    32
  0
VERTEX
  8
0
  5
96AE
 10
80.6110
 20
230.345
 30
0.000000
  70
    32
  0
VERTEX
  8
0
  5
96AF
 10
80.6109
 20
230.339
 30
0.000000
  70
    32
  0
VERTEX
  8
0
  5
96B0
 10
80.6109
 20
230.332
 30
0.000000
  70
    32
  0
VERTEX
  8
0
  5
96B1
 10
80.6109
 20
230.325
 30
0.000000
  70
    32
  0
VERTEX
  8
0
  5
96B2
 10
80.6110
 20
230.319
 30
0.000000
  70
    32
  0
VERTEX
  8
0
  5
96B3
 10
80.6112
 20
230.312
 30
0.000000
  70
    32
  0
VERTEX
  8
0
  5
96B4
 10
80.6115
 20
230.306
 30
0.000000
  70
    32
  0
VERTEX
  8
0
  5
96B5
 10
80.6119
 20
230.299
 30
0.000000
  70
    32
  0
VERTEX
  8
0
  5
96B6
 10
80.6123
 20
230.292
 30
0.000000
  70
    32
  0
VERTEX
  8
0
  5
96B7
 10
80.6128
 20
230.286
 30
0.000000
  70
    32
  0
VERTEX
  8
0
  5
96B8
 10
80.6134
 20
230.279
 30
0.000000
  70
    32
  0
VERTEX
  8
0
  5
96B9
 10
80.6141
 20
230.272
 30
0.000000
  70
    32
  0
VERTEX
  8
0
  5
96BA
 10
80.6149
 20
230.266
 30
0.000000
  70
    32
  0
VERTEX
  8
0
  5
96BB
 10
80.6157
 20
230.259
 30
0.000000
  70
    32
  0
VERTEX
  8
0
  5
96BC
 10
80.6166
 20
230.253
 30
0.000000
  70
    32
  0
VERTEX
  8
0
  5
96BD
 10
80.6176
 20
230.246
 30
0.000000
  70
    32
  0
VERTEX
  8
0
  5
96BE
 10
80.6187
 20
230.239
 30
0.000000
  70
    32
  0
VERTEX
  8
0
  5
96BF
 10
80.6198
 20
230.233
 30
0.000000
  70
    32
  0
VERTEX
  8
0
  5
96C0
 10
80.6211
 20
230.226
 30
0.000000
  70
    32
  0
VERTEX
  8
0
  5
96C1
 10
80.6224
 20
230.220
 30
0.000000
  70
    32
  0
VERTEX
  8
0
  5
96C2
 10
80.6238
 20
230.213
 30
0.000000
  70
    32
  0
VERTEX
  8
0
  5
96C3
 10
80.6253
 20
230.206
 30
0.000000
  70
    32
  0
VERTEX
  8
0
  5
96C4
 10
80.6268
 20
230.200
 30
0.000000
  70
    32
  0
VERTEX
  8
0
  5
96C5
 10
80.6285
 20
230.193
 30
0.000000
  70
    32
  0
VERTEX
  8
0
  5
96C6
 10
80.6302
 20
230.187
 30
0.000000
  70
    32
  0
VERTEX
  8
0
  5
96C7
 10
80.6320
 20
230.180
 30
0.000000
  70
    32
  0
VERTEX
  8
0
  5
96C8
 10
80.6339
 20
230.173
 30
0.000000
  70
    32
  0
VERTEX
  8
0
  5
96C9
 10
80.6358
 20
230.167
 30
0.000000
  70
    32
  0
VERTEX
  8
0
  5
96CA
 10
80.6378
 20
230.160
 30
0.000000
  70
    32
  0
VERTEX
  8
0
  5
96CB
 10
80.6400
 20
230.154
 30
0.000000
  70
    32
  0
VERTEX
  8
0
  5
96CC
 10
80.6422
 20
230.147
 30
0.000000
  70
    32
  0
VERTEX
  8
0
  5
96CD
 10
80.6444
 20
230.140
 30
0.000000
  70
    32
  0
VERTEX
  8
0
  5
96CE
 10
80.6468
 20
230.134
 30
0.000000
  70
    32
  0
VERTEX
  8
0
  5
96CF
 10
80.6492
 20
230.127
 30
0.000000
  70
    32
  0
VERTEX
  8
0
  5
96D0
 10
80.6517
 20
230.121
 30
0.000000
  70
    32
  0
VERTEX
  8
0
  5
96D1
 10
80.6543
 20
230.114
 30
0.000000
  70
    32
  0
VERTEX
  8
0
  5
96D2
 10
80.6570
 20
230.108
 30
0.000000
  70
    32
  0
VERTEX
  8
0
  5
96D3
 10
80.6597
 20
230.101
 30
0.000000
  70
    32
  0
VERTEX
  8
0
  5
96D4
 10
80.6626
 20
230.094
 30
0.000000
  70
    32
  0
VERTEX
  8
0
  5
96D5
 10
80.6655
 20
230.088
 30
0.000000
  70
    32
  0
VERTEX
  8
0
  5
96D6
 10
80.6685
 20
230.081
 30
0.000000
  70
    32
  0
VERTEX
  8
0
  5
96D7
 10
80.6715
 20
230.075
 30
0.000000
  70
    32
  0
VERTEX
  8
0
  5
96D8
 10
80.6747
 20
230.068
 30
0.000000
  70
    32
  0
VERTEX
  8
0
  5
96D9
 10
80.6779
 20
230.062
 30
0.000000
  70
    32
  0
VERTEX
  8
0
  5
96DA
 10
80.6812
 20
230.055
 30
0.000000
  70
    32
  0
VERTEX
  8
0
  5
96DB
 10
80.6846
 20
230.048
 30
0.000000
  70
    32
  0
VERTEX
  8
0
  5
96DC
 10
80.6881
 20
230.042
 30
0.000000
  70
    32
  0
VERTEX
  8
0
  5
96DD
 10
80.6916
 20
230.035
 30
0.000000
  70
    32
  0
VERTEX
  8
0
  5
96DE
 10
80.6952
 20
230.029
 30
0.000000
  70
    32
  0
VERTEX
  8
0
  5
96DF
 10
80.6989
 20
230.022
 30
0.000000
  70
    32
  0
VERTEX
  8
0
  5
96E0
 10
80.7027
 20
230.016
 30
0.000000
  70
    32
  0
VERTEX
  8
0
  5
96E1
 10
80.7066
 20
230.009
 30
0.000000
  70
    32
  0
VERTEX
  8
0
  5
96E2
 10
80.7105
 20
230.003
 30
0.000000
  70
    32
  0
VERTEX
  8
0
  5
96E3
 10
80.7145
 20
229.996
 30
0.000000
  70
    32
  0
VERTEX
  8
0
  5
96E4
 10
80.7186
 20
229.990
 30
0.000000
  70
    32
  0
VERTEX
  8
0
  5
96E5
 10
80.7228
 20
229.983
 30
0.000000
  70
    32
  0
VERTEX
  8
0
  5
96E6
 10
80.7271
 20
229.977
 30
0.000000
  70
    32
  0
VERTEX
  8
0
  5
96E7
 10
80.7314
 20
229.970
 30
0.000000
  70
    32
  0
VERTEX
  8
0
  5
96E8
 10
80.7358
 20
229.964
 30
0.000000
  70
    32
  0
VERTEX
  8
0
  5
96E9
 10
80.7403
 20
229.957
 30
0.000000
  70
    32
  0
VERTEX
  8
0
  5
96EA
 10
80.7449
 20
229.951
 30
0.000000
  70
    32
  0
VERTEX
  8
0
  5
96EB
 10
80.7495
 20
229.944
 30
0.000000
  70
    32
  0
VERTEX
  8
0
  5
96EC
 10
80.7542
 20
229.938
 30
0.000000
  70
    32
  0
VERTEX
  8
0
  5
96ED
 10
80.7590
 20
229.931
 30
0.000000
  70
    32
  0
VERTEX
  8
0
  5
96EE
 10
80.7639
 20
229.925
 30
0.000000
  70
    32
  0
VERTEX
  8
0
  5
96EF
 10
80.7689
 20
229.918
 30
0.000000
  70
    32
  0
VERTEX
  8
0
  5
96F0
 10
80.7739
 20
229.912
 30
0.000000
  70
    32
  0
VERTEX
  8
0
  5
96F1
 10
80.7790
 20
229.905
 30
0.000000
  70
    32
  0
VERTEX
  8
0
  5
96F2
 10
80.7842
 20
229.899
 30
0.000000
  70
    32
  0
VERTEX
  8
0
  5
96F3
 10
80.7895
 20
229.892
 30
0.000000
  70
    32
  0
VERTEX
  8
0
  5
96F4
 10
80.7948
 20
229.886
 30
0.000000
  70
    32
  0
VERTEX
  8
0
  5
96F5
 10
80.8003
 20
229.879
 30
0.000000
  70
    32
  0
VERTEX
  8
0
  5
96F6
 10
80.8058
 20
229.873
 30
0.000000
  70
    32
  0
VERTEX
  8
0
  5
96F7
 10
80.8114
 20
229.867
 30
0.000000
  70
    32
  0
VERTEX
  8
0
  5
96F8
 10
80.8170
 20
229.860
 30
0.000000
  70
    32
  0
VERTEX
  8
0
  5
96F9
 10
80.8228
 20
229.854
 30
0.000000
  70
    32
  0
VERTEX
  8
0
  5
96FA
 10
80.8286
 20
229.847
 30
0.000000
  70
    32
  0
VERTEX
  8
0
  5
96FB
 10
80.8345
 20
229.841
 30
0.000000
  70
    32
  0
VERTEX
  8
0
  5
96FC
 10
80.8404
 20
229.834
 30
0.000000
  70
    32
  0
VERTEX
  8
0
  5
96FD
 10
80.8465
 20
229.828
 30
0.000000
  70
    32
  0
VERTEX
  8
0
  5
96FE
 10
80.8526
 20
229.822
 30
0.000000
  70
    32
  0
VERTEX
  8
0
  5
96FF
 10
80.8588
 20
229.815
 30
0.000000
  70
    32
  0
VERTEX
  8
0
  5
9700
 10
80.8651
 20
229.809
 30
0.000000
  70
    32
  0
VERTEX
  8
0
  5
9701
 10
80.8715
 20
229.802
 30
0.000000
  70
    32
  0
VERTEX
  8
0
  5
9702
 10
80.8779
 20
229.796
 30
0.000000
  70
    32
  0
VERTEX
  8
0
  5
9703
 10
80.8844
 20
229.790
 30
0.000000
  70
    32
  0
VERTEX
  8
0
  5
9704
 10
80.8910
 20
229.783
 30
0.000000
  70
    32
  0
VERTEX
  8
0
  5
9705
 10
80.8977
 20
229.777
 30
0.000000
  70
    32
  0
VERTEX
  8
0
  5
9706
 10
80.9044
 20
229.771
 30
0.000000
  70
    32
  0
VERTEX
  8
0
  5
9707
 10
80.9112
 20
229.764
 30
0.000000
  70
    32
  0
VERTEX
  8
0
  5
9708
 10
80.9181
 20
229.758
 30
0.000000
  70
    32
  0
VERTEX
  8
0
  5
9709
 10
80.9251
 20
229.752
 30
0.000000
  70
    32
  0
VERTEX
  8
0
  5
970A
 10
80.9321
 20
229.745
 30
0.000000
  70
    32
  0
VERTEX
  8
0
  5
970B
 10
80.9393
 20
229.739
 30
0.000000
  70
    32
  0
VERTEX
  8
0
  5
970C
 10
80.9465
 20
229.733
 30
0.000000
  70
    32
  0
VERTEX
  8
0
  5
970D
 10
80.9538
 20
229.726
 30
0.000000
  70
    32
  0
VERTEX
  8
0
  5
970E
 10
80.9611
 20
229.720
 30
0.000000
  70
    32
  0
VERTEX
  8
0
  5
970F
 10
80.9685
 20
229.714
 30
0.000000
  70
    32
  0
VERTEX
  8
0
  5
9710
 10
80.9760
 20
229.707
 30
0.000000
  70
    32
  0
VERTEX
  8
0
  5
9711
 10
80.9836
 20
229.701
 30
0.000000
  70
    32
  0
VERTEX
  8
0
  5
9712
 10
80.9913
 20
229.695
 30
0.000000
  70
    32
  0
VERTEX
  8
0
  5
9713
 10
80.9990
 20
229.688
 30
0.000000
  70
    32
  0
VERTEX
  8
0
  5
9714
 10
81.0068
 20
229.682
 30
0.000000
  70
    32
  0
VERTEX
  8
0
  5
9715
 10
81.0147
 20
229.676
 30
0.000000
  70
    32
  0
VERTEX
  8
0
  5
9716
 10
81.0227
 20
229.670
 30
0.000000
  70
    32
  0
VERTEX
  8
0
  5
9717
 10
81.0307
 20
229.663
 30
0.000000
  70
    32
  0
VERTEX
  8
0
  5
9718
 10
81.0388
 20
229.657
 30
0.000000
  70
    32
  0
VERTEX
  8
0
  5
9719
 10
81.0470
 20
229.651
 30
0.000000
  70
    32
  0
VERTEX
  8
0
  5
971A
 10
81.0553
 20
229.645
 30
0.000000
  70
    32
  0
VERTEX
  8
0
  5
971B
 10
81.0636
 20
229.639
 30
0.000000
  70
    32
  0
VERTEX
  8
0
  5
971C
 10
81.0720
 20
229.632
 30
0.000000
  70
    32
  0
VERTEX
  8
0
  5
971D
 10
81.0805
 20
229.626
 30
0.000000
  70
    32
  0
VERTEX
  8
0
  5
971E
 10
81.0891
 20
229.620
 30
0.000000
  70
    32
  0
VERTEX
  8
0
  5
971F
 10
81.0977
 20
229.614
 30
0.000000
  70
    32
  0
VERTEX
  8
0
  5
9720
 10
81.1065
 20
229.608
 30
0.000000
  70
    32
  0
VERTEX
  8
0
  5
9721
 10
81.1152
 20
229.601
 30
0.000000
  70
    32
  0
VERTEX
  8
0
  5
9722
 10
81.1241
 20
229.595
 30
0.000000
  70
    32
  0
VERTEX
  8
0
  5
9723
 10
81.1330
 20
229.589
 30
0.000000
  70
    32
  0
VERTEX
  8
0
  5
9724
 10
81.1421
 20
229.583
 30
0.000000
  70
    32
  0
VERTEX
  8
0
  5
9725
 10
81.1511
 20
229.577
 30
0.000000
  70
    32
  0
VERTEX
  8
0
  5
9726
 10
81.1603
 20
229.571
 30
0.000000
  70
    32
  0
VERTEX
  8
0
  5
9727
 10
81.1695
 20
229.564
 30
0.000000
  70
    32
  0
VERTEX
  8
0
  5
9728
 10
81.1788
 20
229.558
 30
0.000000
  70
    32
  0
VERTEX
  8
0
  5
9729
 10
81.1882
 20
229.552
 30
0.000000
  70
    32
  0
VERTEX
  8
0
  5
972A
 10
81.1977
 20
229.546
 30
0.000000
  70
    32
  0
VERTEX
  8
0
  5
972B
 10
81.2072
 20
229.540
 30
0.000000
  70
    32
  0
SEQEND
  8
0
  5
972C
  0
LINE
  5
87F1
  8
0
 10
80.509861003941396
 20
230.36503116372549
 30
0.0
 11
80.611861003941385
 21
230.36503116372549
 31
0.0
  0
POLYLINE
  5
87F2
  8
0
 10
79.91450716747346
 20
229.54004835455274
 30
0.0
 66
     1
 70
     8
  0
VERTEX
  8
0
  5
972D
 10
79.9145
 20
229.540
 30
0.000000
  70
    32
  0
VERTEX
  8
0
  5
972E
 10
79.9240
 20
229.546
 30
0.000000
  70
    32
  0
VERTEX
  8
0
  5
972F
 10
79.9335
 20
229.552
 30
0.000000
  70
    32
  0
VERTEX
  8
0
  5
9730
 10
79.9429
 20
229.558
 30
0.000000
  70
    32
  0
VERTEX
  8
0
  5
9731
 10
79.9522
 20
229.564
 30
0.000000
  70
    32
  0
VERTEX
  8
0
  5
9732
 10
79.9614
 20
229.571
 30
0.000000
  70
    32
  0
VERTEX
  8
0
  5
9733
 10
79.9706
 20
229.577
 30
0.000000
  70
    32
  0
VERTEX
  8
0
  5
9734
 10
79.9797
 20
229.583
 30
0.000000
  70
    32
  0
VERTEX
  8
0
  5
9735
 10
79.9887
 20
229.589
 30
0.000000
  70
    32
  0
VERTEX
  8
0
  5
9736
 10
79.9976
 20
229.595
 30
0.000000
  70
    32
  0
VERTEX
  8
0
  5
9737
 10
80.0065
 20
229.601
 30
0.000000
  70
    32
  0
VERTEX
  8
0
  5
9738
 10
80.0153
 20
229.608
 30
0.000000
  70
    32
  0
VERTEX
  8
0
  5
9739
 10
80.0240
 20
229.614
 30
0.000000
  70
    32
  0
VERTEX
  8
0
  5
973A
 10
80.0326
 20
229.620
 30
0.000000
  70
    32
  0
VERTEX
  8
0
  5
973B
 10
80.0412
 20
229.626
 30
0.000000
  70
    32
  0
VERTEX
  8
0
  5
973C
 10
80.0497
 20
229.632
 30
0.000000
  70
    32
  0
VERTEX
  8
0
  5
973D
 10
80.0581
 20
229.639
 30
0.000000
  70
    32
  0
VERTEX
  8
0
  5
973E
 10
80.0664
 20
229.645
 30
0.000000
  70
    32
  0
VERTEX
  8
0
  5
973F
 10
80.0747
 20
229.651
 30
0.000000
  70
    32
  0
VERTEX
  8
0
  5
9740
 10
80.0829
 20
229.657
 30
0.000000
  70
    32
  0
VERTEX
  8
0
  5
9741
 10
80.0910
 20
229.663
 30
0.000000
  70
    32
  0
VERTEX
  8
0
  5
9742
 10
80.0990
 20
229.670
 30
0.000000
  70
    32
  0
VERTEX
  8
0
  5
9743
 10
80.1070
 20
229.676
 30
0.000000
  70
    32
  0
VERTEX
  8
0
  5
9744
 10
80.1149
 20
229.682
 30
0.000000
  70
    32
  0
VERTEX
  8
0
  5
9745
 10
80.1227
 20
229.688
 30
0.000000
  70
    32
  0
VERTEX
  8
0
  5
9746
 10
80.1304
 20
229.695
 30
0.000000
  70
    32
  0
VERTEX
  8
0
  5
9747
 10
80.1381
 20
229.701
 30
0.000000
  70
    32
  0
VERTEX
  8
0
  5
9748
 10
80.1457
 20
229.707
 30
0.000000
  70
    32
  0
VERTEX
  8
0
  5
9749
 10
80.1532
 20
229.714
 30
0.000000
  70
    32
  0
VERTEX
  8
0
  5
974A
 10
80.1606
 20
229.720
 30
0.000000
  70
    32
  0
VERTEX
  8
0
  5
974B
 10
80.1680
 20
229.726
 30
0.000000
  70
    32
  0
VERTEX
  8
0
  5
974C
 10
80.1752
 20
229.733
 30
0.000000
  70
    32
  0
VERTEX
  8
0
  5
974D
 10
80.1825
 20
229.739
 30
0.000000
  70
    32
  0
VERTEX
  8
0
  5
974E
 10
80.1896
 20
229.745
 30
0.000000
  70
    32
  0
VERTEX
  8
0
  5
974F
 10
80.1966
 20
229.752
 30
0.000000
  70
    32
  0
VERTEX
  8
0
  5
9750
 10
80.2036
 20
229.758
 30
0.000000
  70
    32
  0
VERTEX
  8
0
  5
9751
 10
80.2105
 20
229.764
 30
0.000000
  70
    32
  0
VERTEX
  8
0
  5
9752
 10
80.2173
 20
229.771
 30
0.000000
  70
    32
  0
VERTEX
  8
0
  5
9753
 10
80.2241
 20
229.777
 30
0.000000
  70
    32
  0
VERTEX
  8
0
  5
9754
 10
80.2307
 20
229.783
 30
0.000000
  70
    32
  0
VERTEX
  8
0
  5
9755
 10
80.2373
 20
229.790
 30
0.000000
  70
    32
  0
VERTEX
  8
0
  5
9756
 10
80.2438
 20
229.796
 30
0.000000
  70
    32
  0
VERTEX
  8
0
  5
9757
 10
80.2503
 20
229.802
 30
0.000000
  70
    32
  0
VERTEX
  8
0
  5
9758
 10
80.2566
 20
229.809
 30
0.000000
  70
    32
  0
VERTEX
  8
0
  5
9759
 10
80.2629
 20
229.815
 30
0.000000
  70
    32
  0
VERTEX
  8
0
  5
975A
 10
80.2691
 20
229.822
 30
0.000000
  70
    32
  0
VERTEX
  8
0
  5
975B
 10
80.2752
 20
229.828
 30
0.000000
  70
    32
  0
VERTEX
  8
0
  5
975C
 10
80.2813
 20
229.834
 30
0.000000
  70
    32
  0
VERTEX
  8
0
  5
975D
 10
80.2873
 20
229.841
 30
0.000000
  70
    32
  0
VERTEX
  8
0
  5
975E
 10
80.2932
 20
229.847
 30
0.000000
  70
    32
  0
VERTEX
  8
0
  5
975F
 10
80.2990
 20
229.854
 30
0.000000
  70
    32
  0
VERTEX
  8
0
  5
9760
 10
80.3047
 20
229.860
 30
0.000000
  70
    32
  0
VERTEX
  8
0
  5
9761
 10
80.3104
 20
229.867
 30
0.000000
  70
    32
  0
VERTEX
  8
0
  5
9762
 10
80.3160
 20
229.873
 30
0.000000
  70
    32
  0
VERTEX
  8
0
  5
9763
 10
80.3215
 20
229.879
 30
0.000000
  70
    32
  0
VERTEX
  8
0
  5
9764
 10
80.3269
 20
229.886
 30
0.000000
  70
    32
  0
VERTEX
  8
0
  5
9765
 10
80.3322
 20
229.892
 30
0.000000
  70
    32
  0
VERTEX
  8
0
  5
9766
 10
80.3375
 20
229.899
 30
0.000000
  70
    32
  0
VERTEX
  8
0
  5
9767
 10
80.3427
 20
229.905
 30
0.000000
  70
    32
  0
VERTEX
  8
0
  5
9768
 10
80.3478
 20
229.912
 30
0.000000
  70
    32
  0
VERTEX
  8
0
  5
9769
 10
80.3529
 20
229.918
 30
0.000000
  70
    32
  0
VERTEX
  8
0
  5
976A
 10
80.3578
 20
229.925
 30
0.000000
  70
    32
  0
VERTEX
  8
0
  5
976B
 10
80.3627
 20
229.931
 30
0.000000
  70
    32
  0
VERTEX
  8
0
  5
976C
 10
80.3675
 20
229.938
 30
0.000000
  70
    32
  0
VERTEX
  8
0
  5
976D
 10
80.3722
 20
229.944
 30
0.000000
  70
    32
  0
VERTEX
  8
0
  5
976E
 10
80.3769
 20
229.951
 30
0.000000
  70
    32
  0
VERTEX
  8
0
  5
976F
 10
80.3814
 20
229.957
 30
0.000000
  70
    32
  0
VERTEX
  8
0
  5
9770
 10
80.3859
 20
229.964
 30
0.000000
  70
    32
  0
VERTEX
  8
0
  5
9771
 10
80.3903
 20
229.970
 30
0.000000
  70
    32
  0
VERTEX
  8
0
  5
9772
 10
80.3947
 20
229.977
 30
0.000000
  70
    32
  0
VERTEX
  8
0
  5
9773
 10
80.3989
 20
229.983
 30
0.000000
  70
    32
  0
VERTEX
  8
0
  5
9774
 10
80.4031
 20
229.990
 30
0.000000
  70
    32
  0
VERTEX
  8
0
  5
9775
 10
80.4072
 20
229.996
 30
0.000000
  70
    32
  0
VERTEX
  8
0
  5
9776
 10
80.4112
 20
230.003
 30
0.000000
  70
    32
  0
VERTEX
  8
0
  5
9777
 10
80.4151
 20
230.009
 30
0.000000
  70
    32
  0
VERTEX
  8
0
  5
9778
 10
80.4190
 20
230.016
 30
0.000000
  70
    32
  0
VERTEX
  8
0
  5
9779
 10
80.4228
 20
230.022
 30
0.000000
  70
    32
  0
VERTEX
  8
0
  5
977A
 10
80.4265
 20
230.029
 30
0.000000
  70
    32
  0
VERTEX
  8
0
  5
977B
 10
80.4301
 20
230.035
 30
0.000000
  70
    32
  0
VERTEX
  8
0
  5
977C
 10
80.4337
 20
230.042
 30
0.000000
  70
    32
  0
VERTEX
  8
0
  5
977D
 10
80.4371
 20
230.048
 30
0.000000
  70
    32
  0
VERTEX
  8
0
  5
977E
 10
80.4405
 20
230.055
 30
0.000000
  70
    32
  0
VERTEX
  8
0
  5
977F
 10
80.4438
 20
230.062
 30
0.000000
  70
    32
  0
VERTEX
  8
0
  5
9780
 10
80.4470
 20
230.068
 30
0.000000
  70
    32
  0
VERTEX
  8
0
  5
9781
 10
80.4502
 20
230.075
 30
0.000000
  70
    32
  0
VERTEX
  8
0
  5
9782
 10
80.4533
 20
230.081
 30
0.000000
  70
    32
  0
VERTEX
  8
0
  5
9783
 10
80.4562
 20
230.088
 30
0.000000
  70
    32
  0
VERTEX
  8
0
  5
9784
 10
80.4591
 20
230.094
 30
0.000000
  70
    32
  0
VERTEX
  8
0
  5
9785
 10
80.4620
 20
230.101
 30
0.000000
  70
    32
  0
VERTEX
  8
0
  5
9786
 10
80.4647
 20
230.108
 30
0.000000
  70
    32
  0
VERTEX
  8
0
  5
9787
 10
80.4674
 20
230.114
 30
0.000000
  70
    32
  0
VERTEX
  8
0
  5
9788
 10
80.4700
 20
230.121
 30
0.000000
  70
    32
  0
VERTEX
  8
0
  5
9789
 10
80.4725
 20
230.127
 30
0.000000
  70
    32
  0
VERTEX
  8
0
  5
978A
 10
80.4749
 20
230.134
 30
0.000000
  70
    32
  0
VERTEX
  8
0
  5
978B
 10
80.4773
 20
230.140
 30
0.000000
  70
    32
  0
VERTEX
  8
0
  5
978C
 10
80.4796
 20
230.147
 30
0.000000
  70
    32
  0
VERTEX
  8
0
  5
978D
 10
80.4818
 20
230.154
 30
0.000000
  70
    32
  0
VERTEX
  8
0
  5
978E
 10
80.4839
 20
230.160
 30
0.000000
  70
    32
  0
VERTEX
  8
0
  5
978F
 10
80.4859
 20
230.167
 30
0.000000
  70
    32
  0
VERTEX
  8
0
  5
9790
 10
80.4879
 20
230.173
 30
0.000000
  70
    32
  0
VERTEX
  8
0
  5
9791
 10
80.4897
 20
230.180
 30
0.000000
  70
    32
  0
VERTEX
  8
0
  5
9792
 10
80.4915
 20
230.187
 30
0.000000
  70
    32
  0
VERTEX
  8
0
  5
9793
 10
80.4933
 20
230.193
 30
0.000000
  70
    32
  0
VERTEX
  8
0
  5
9794
 10
80.4949
 20
230.200
 30
0.000000
  70
    32
  0
VERTEX
  8
0
  5
9795
 10
80.4964
 20
230.206
 30
0.000000
  70
    32
  0
VERTEX
  8
0
  5
9796
 10
80.4979
 20
230.213
 30
0.000000
  70
    32
  0
VERTEX
  8
0
  5
9797
 10
80.4993
 20
230.220
 30
0.000000
  70
    32
  0
VERTEX
  8
0
  5
9798
 10
80.5006
 20
230.226
 30
0.000000
  70
    32
  0
VERTEX
  8
0
  5
9799
 10
80.5019
 20
230.233
 30
0.000000
  70
    32
  0
VERTEX
  8
0
  5
979A
 10
80.5030
 20
230.239
 30
0.000000
  70
    32
  0
VERTEX
  8
0
  5
979B
 10
80.5041
 20
230.246
 30
0.000000
  70
    32
  0
VERTEX
  8
0
  5
979C
 10
80.5051
 20
230.253
 30
0.000000
  70
    32
  0
VERTEX
  8
0
  5
979D
 10
80.5060
 20
230.259
 30
0.000000
  70
    32
  0
VERTEX
  8
0
  5
979E
 10
80.5069
 20
230.266
 30
0.000000
  70
    32
  0
VERTEX
  8
0
  5
979F
 10
80.5076
 20
230.272
 30
0.000000
  70
    32
  0
VERTEX
  8
0
  5
97A0
 10
80.5083
 20
230.279
 30
0.000000
  70
    32
  0
VERTEX
  8
0
  5
97A1
 10
80.5089
 20
230.286
 30
0.000000
  70
    32
  0
VERTEX
  8
0
  5
97A2
 10
80.5094
 20
230.292
 30
0.000000
  70
    32
  0
VERTEX
  8
0
  5
97A3
 10
80.5099
 20
230.299
 30
0.000000
  70
    32
  0
VERTEX
  8
0
  5
97A4
 10
80.5102
 20
230.306
 30
0.000000
  70
    32
  0
VERTEX
  8
0
  5
97A5
 10
80.5105
 20
230.312
 30
0.000000
  70
    32
  0
VERTEX
  8
0
  5
97A6
 10
80.5107
 20
230.319
 30
0.000000
  70
    32
  0
VERTEX
  8
0
  5
97A7
 10
80.5108
 20
230.325
 30
0.000000
  70
    32
  0
VERTEX
  8
0
  5
97A8
 10
80.5109
 20
230.332
 30
0.000000
  70
    32
  0
VERTEX
  8
0
  5
97A9
 10
80.5108
 20
230.339
 30
0.000000
  70
    32
  0
VERTEX
  8
0
  5
97AA
 10
80.5107
 20
230.345
 30
0.000000
  70
    32
  0
VERTEX
  8
0
  5
97AB
 10
80.5105
 20
230.352
 30
0.000000
  70
    32
  0
VERTEX
  8
0
  5
97AC
 10
80.5102
 20
230.358
 30
0.000000
  70
    32
  0
VERTEX
  8
0
  5
97AD
 10
80.5099
 20
230.365
 30
0.000000
  70
    32
  0
SEQEND
  8
0
  5
97AE
  0
LINE
  5
87F3
  8
0
 10
72.958430228253505
 20
225.11281579940251
 30
0.0
 11
79.914507167473289
 21
229.5400483545526
 31
0.0
  0
POLYLINE
  5
87F4
  8
0
 10
72.958430228253476
 20
225.11281579940251
 30
0.0
 66
     1
 70
     8
  0
VERTEX
  8
0
  5
97AF
 10
72.9584
 20
225.113
 30
0.000000
  70
    32
  0
VERTEX
  8
0
  5
97B0
 10
72.9523
 20
225.109
 30
0.000000
  70
    32
  0
VERTEX
  8
0
  5
97B1
 10
72.9463
 20
225.105
 30
0.000000
  70
    32
  0
VERTEX
  8
0
  5
97B2
 10
72.9402
 20
225.101
 30
0.000000
  70
    32
  0
VERTEX
  8
0
  5
97B3
 10
72.9343
 20
225.097
 30
0.000000
  70
    32
  0
VERTEX
  8
0
  5
97B4
 10
72.9284
 20
225.093
 30
0.000000
  70
    32
  0
VERTEX
  8
0
  5
97B5
 10
72.9225
 20
225.089
 30
0.000000
  70
    32
  0
VERTEX
  8
0
  5
97B6
 10
72.9166
 20
225.085
 30
0.000000
  70
    32
  0
VERTEX
  8
0
  5
97B7
 10
72.9109
 20
225.081
 30
0.000000
  70
    32
  0
VERTEX
  8
0
  5
97B8
 10
72.9051
 20
225.078
 30
0.000000
  70
    32
  0
VERTEX
  8
0
  5
97B9
 10
72.8994
 20
225.074
 30
0.000000
  70
    32
  0
VERTEX
  8
0
  5
97BA
 10
72.8938
 20
225.070
 30
0.000000
  70
    32
  0
VERTEX
  8
0
  5
97BB
 10
72.8882
 20
225.066
 30
0.000000
  70
    32
  0
VERTEX
  8
0
  5
97BC
 10
72.8826
 20
225.062
 30
0.000000
  70
    32
  0
VERTEX
  8
0
  5
97BD
 10
72.8771
 20
225.058
 30
0.000000
  70
    32
  0
VERTEX
  8
0
  5
97BE
 10
72.8716
 20
225.054
 30
0.000000
  70
    32
  0
VERTEX
  8
0
  5
97BF
 10
72.8662
 20
225.050
 30
0.000000
  70
    32
  0
VERTEX
  8
0
  5
97C0
 10
72.8608
 20
225.046
 30
0.000000
  70
    32
  0
VERTEX
  8
0
  5
97C1
 10
72.8555
 20
225.042
 30
0.000000
  70
    32
  0
VERTEX
  8
0
  5
97C2
 10
72.8502
 20
225.038
 30
0.000000
  70
    32
  0
VERTEX
  8
0
  5
97C3
 10
72.8450
 20
225.034
 30
0.000000
  70
    32
  0
VERTEX
  8
0
  5
97C4
 10
72.8398
 20
225.030
 30
0.000000
  70
    32
  0
VERTEX
  8
0
  5
97C5
 10
72.8347
 20
225.026
 30
0.000000
  70
    32
  0
VERTEX
  8
0
  5
97C6
 10
72.8296
 20
225.022
 30
0.000000
  70
    32
  0
VERTEX
  8
0
  5
97C7
 10
72.8245
 20
225.018
 30
0.000000
  70
    32
  0
VERTEX
  8
0
  5
97C8
 10
72.8195
 20
225.014
 30
0.000000
  70
    32
  0
VERTEX
  8
0
  5
97C9
 10
72.8146
 20
225.010
 30
0.000000
  70
    32
  0
VERTEX
  8
0
  5
97CA
 10
72.8097
 20
225.006
 30
0.000000
  70
    32
  0
VERTEX
  8
0
  5
97CB
 10
72.8048
 20
225.002
 30
0.000000
  70
    32
  0
VERTEX
  8
0
  5
97CC
 10
72.8000
 20
224.998
 30
0.000000
  70
    32
  0
VERTEX
  8
0
  5
97CD
 10
72.7952
 20
224.994
 30
0.000000
  70
    32
  0
VERTEX
  8
0
  5
97CE
 10
72.7905
 20
224.990
 30
0.000000
  70
    32
  0
VERTEX
  8
0
  5
97CF
 10
72.7858
 20
224.986
 30
0.000000
  70
    32
  0
VERTEX
  8
0
  5
97D0
 10
72.7812
 20
224.982
 30
0.000000
  70
    32
  0
VERTEX
  8
0
  5
97D1
 10
72.7766
 20
224.977
 30
0.000000
  70
    32
  0
VERTEX
  8
0
  5
97D2
 10
72.7721
 20
224.973
 30
0.000000
  70
    32
  0
VERTEX
  8
0
  5
97D3
 10
72.7676
 20
224.969
 30
0.000000
  70
    32
  0
VERTEX
  8
0
  5
97D4
 10
72.7631
 20
224.965
 30
0.000000
  70
    32
  0
VERTEX
  8
0
  5
97D5
 10
72.7588
 20
224.961
 30
0.000000
  70
    32
  0
VERTEX
  8
0
  5
97D6
 10
72.7544
 20
224.957
 30
0.000000
  70
    32
  0
VERTEX
  8
0
  5
97D7
 10
72.7501
 20
224.953
 30
0.000000
  70
    32
  0
VERTEX
  8
0
  5
97D8
 10
72.7459
 20
224.949
 30
0.000000
  70
    32
  0
VERTEX
  8
0
  5
97D9
 10
72.7417
 20
224.945
 30
0.000000
  70
    32
  0
VERTEX
  8
0
  5
97DA
 10
72.7375
 20
224.941
 30
0.000000
  70
    32
  0
VERTEX
  8
0
  5
97DB
 10
72.7334
 20
224.937
 30
0.000000
  70
    32
  0
VERTEX
  8
0
  5
97DC
 10
72.7293
 20
224.933
 30
0.000000
  70
    32
  0
VERTEX
  8
0
  5
97DD
 10
72.7253
 20
224.929
 30
0.000000
  70
    32
  0
VERTEX
  8
0
  5
97DE
 10
72.7214
 20
224.924
 30
0.000000
  70
    32
  0
VERTEX
  8
0
  5
97DF
 10
72.7174
 20
224.920
 30
0.000000
  70
    32
  0
VERTEX
  8
0
  5
97E0
 10
72.7136
 20
224.916
 30
0.000000
  70
    32
  0
VERTEX
  8
0
  5
97E1
 10
72.7097
 20
224.912
 30
0.000000
  70
    32
  0
VERTEX
  8
0
  5
97E2
 10
72.7060
 20
224.908
 30
0.000000
  70
    32
  0
VERTEX
  8
0
  5
97E3
 10
72.7022
 20
224.904
 30
0.000000
  70
    32
  0
VERTEX
  8
0
  5
97E4
 10
72.6986
 20
224.900
 30
0.000000
  70
    32
  0
VERTEX
  8
0
  5
97E5
 10
72.6949
 20
224.896
 30
0.000000
  70
    32
  0
VERTEX
  8
0
  5
97E6
 10
72.6914
 20
224.892
 30
0.000000
  70
    32
  0
VERTEX
  8
0
  5
97E7
 10
72.6878
 20
224.887
 30
0.000000
  70
    32
  0
VERTEX
  8
0
  5
97E8
 10
72.6843
 20
224.883
 30
0.000000
  70
    32
  0
VERTEX
  8
0
  5
97E9
 10
72.6809
 20
224.879
 30
0.000000
  70
    32
  0
VERTEX
  8
0
  5
97EA
 10
72.6775
 20
224.875
 30
0.000000
  70
    32
  0
VERTEX
  8
0
  5
97EB
 10
72.6742
 20
224.871
 30
0.000000
  70
    32
  0
VERTEX
  8
0
  5
97EC
 10
72.6709
 20
224.867
 30
0.000000
  70
    32
  0
VERTEX
  8
0
  5
97ED
 10
72.6676
 20
224.863
 30
0.000000
  70
    32
  0
VERTEX
  8
0
  5
97EE
 10
72.6644
 20
224.858
 30
0.000000
  70
    32
  0
VERTEX
  8
0
  5
97EF
 10
72.6613
 20
224.854
 30
0.000000
  70
    32
  0
VERTEX
  8
0
  5
97F0
 10
72.6582
 20
224.850
 30
0.000000
  70
    32
  0
VERTEX
  8
0
  5
97F1
 10
72.6551
 20
224.846
 30
0.000000
  70
    32
  0
VERTEX
  8
0
  5
97F2
 10
72.6521
 20
224.842
 30
0.000000
  70
    32
  0
VERTEX
  8
0
  5
97F3
 10
72.6491
 20
224.838
 30
0.000000
  70
    32
  0
VERTEX
  8
0
  5
97F4
 10
72.6462
 20
224.833
 30
0.000000
  70
    32
  0
VERTEX
  8
0
  5
97F5
 10
72.6434
 20
224.829
 30
0.000000
  70
    32
  0
VERTEX
  8
0
  5
97F6
 10
72.6406
 20
224.825
 30
0.000000
  70
    32
  0
VERTEX
  8
0
  5
97F7
 10
72.6378
 20
224.821
 30
0.000000
  70
    32
  0
VERTEX
  8
0
  5
97F8
 10
72.6351
 20
224.817
 30
0.000000
  70
    32
  0
VERTEX
  8
0
  5
97F9
 10
72.6324
 20
224.813
 30
0.000000
  70
    32
  0
VERTEX
  8
0
  5
97FA
 10
72.6298
 20
224.808
 30
0.000000
  70
    32
  0
VERTEX
  8
0
  5
97FB
 10
72.6272
 20
224.804
 30
0.000000
  70
    32
  0
VERTEX
  8
0
  5
97FC
 10
72.6247
 20
224.800
 30
0.000000
  70
    32
  0
VERTEX
  8
0
  5
97FD
 10
72.6222
 20
224.796
 30
0.000000
  70
    32
  0
VERTEX
  8
0
  5
97FE
 10
72.6198
 20
224.792
 30
0.000000
  70
    32
  0
VERTEX
  8
0
  5
97FF
 10
72.6174
 20
224.788
 30
0.000000
  70
    32
  0
VERTEX
  8
0
  5
9800
 10
72.6151
 20
224.783
 30
0.000000
  70
    32
  0
VERTEX
  8
0
  5
9801
 10
72.6128
 20
224.779
 30
0.000000
  70
    32
  0
VERTEX
  8
0
  5
9802
 10
72.6106
 20
224.775
 30
0.000000
  70
    32
  0
VERTEX
  8
0
  5
9803
 10
72.6084
 20
224.771
 30
0.000000
  70
    32
  0
VERTEX
  8
0
  5
9804
 10
72.6063
 20
224.767
 30
0.000000
  70
    32
  0
VERTEX
  8
0
  5
9805
 10
72.6042
 20
224.762
 30
0.000000
  70
    32
  0
VERTEX
  8
0
  5
9806
 10
72.6021
 20
224.758
 30
0.000000
  70
    32
  0
VERTEX
  8
0
  5
9807
 10
72.6002
 20
224.754
 30
0.000000
  70
    32
  0
VERTEX
  8
0
  5
9808
 10
72.5982
 20
224.750
 30
0.000000
  70
    32
  0
VERTEX
  8
0
  5
9809
 10
72.5963
 20
224.746
 30
0.000000
  70
    32
  0
VERTEX
  8
0
  5
980A
 10
72.5945
 20
224.741
 30
0.000000
  70
    32
  0
VERTEX
  8
0
  5
980B
 10
72.5927
 20
224.737
 30
0.000000
  70
    32
  0
VERTEX
  8
0
  5
980C
 10
72.5910
 20
224.733
 30
0.000000
  70
    32
  0
VERTEX
  8
0
  5
980D
 10
72.5893
 20
224.729
 30
0.000000
  70
    32
  0
VERTEX
  8
0
  5
980E
 10
72.5876
 20
224.724
 30
0.000000
  70
    32
  0
VERTEX
  8
0
  5
980F
 10
72.5860
 20
224.720
 30
0.000000
  70
    32
  0
VERTEX
  8
0
  5
9810
 10
72.5845
 20
224.716
 30
0.000000
  70
    32
  0
VERTEX
  8
0
  5
9811
 10
72.5830
 20
224.712
 30
0.000000
  70
    32
  0
VERTEX
  8
0
  5
9812
 10
72.5815
 20
224.708
 30
0.000000
  70
    32
  0
VERTEX
  8
0
  5
9813
 10
72.5801
 20
224.703
 30
0.000000
  70
    32
  0
VERTEX
  8
0
  5
9814
 10
72.5788
 20
224.699
 30
0.000000
  70
    32
  0
VERTEX
  8
0
  5
9815
 10
72.5775
 20
224.695
 30
0.000000
  70
    32
  0
VERTEX
  8
0
  5
9816
 10
72.5762
 20
224.691
 30
0.000000
  70
    32
  0
VERTEX
  8
0
  5
9817
 10
72.5750
 20
224.686
 30
0.000000
  70
    32
  0
VERTEX
  8
0
  5
9818
 10
72.5739
 20
224.682
 30
0.000000
  70
    32
  0
VERTEX
  8
0
  5
9819
 10
72.5728
 20
224.678
 30
0.000000
  70
    32
  0
VERTEX
  8
0
  5
981A
 10
72.5717
 20
224.674
 30
0.000000
  70
    32
  0
VERTEX
  8
0
  5
981B
 10
72.5707
 20
224.670
 30
0.000000
  70
    32
  0
VERTEX
  8
0
  5
981C
 10
72.5697
 20
224.665
 30
0.000000
  70
    32
  0
VERTEX
  8
0
  5
981D
 10
72.5688
 20
224.661
 30
0.000000
  70
    32
  0
VERTEX
  8
0
  5
981E
 10
72.5680
 20
224.657
 30
0.000000
  70
    32
  0
VERTEX
  8
0
  5
981F
 10
72.5672
 20
224.653
 30
0.000000
  70
    32
  0
VERTEX
  8
0
  5
9820
 10
72.5664
 20
224.648
 30
0.000000
  70
    32
  0
VERTEX
  8
0
  5
9821
 10
72.5657
 20
224.644
 30
0.000000
  70
    32
  0
VERTEX
  8
0
  5
9822
 10
72.5650
 20
224.640
 30
0.000000
  70
    32
  0
VERTEX
  8
0
  5
9823
 10
72.5644
 20
224.636
 30
0.000000
  70
    32
  0
VERTEX
  8
0
  5
9824
 10
72.5638
 20
224.631
 30
0.000000
  70
    32
  0
VERTEX
  8
0
  5
9825
 10
72.5633
 20
224.627
 30
0.000000
  70
    32
  0
VERTEX
  8
0
  5
9826
 10
72.5629
 20
224.623
 30
0.000000
  70
    32
  0
VERTEX
  8
0
  5
9827
 10
72.5624
 20
224.619
 30
0.000000
  70
    32
  0
VERTEX
  8
0
  5
9828
 10
72.5621
 20
224.615
 30
0.000000
  70
    32
  0
VERTEX
  8
0
  5
9829
 10
72.5617
 20
224.610
 30
0.000000
  70
    32
  0
VERTEX
  8
0
  5
982A
 10
72.5615
 20
224.606
 30
0.000000
  70
    32
  0
VERTEX
  8
0
  5
982B
 10
72.5613
 20
224.602
 30
0.000000
  70
    32
  0
VERTEX
  8
0
  5
982C
 10
72.5611
 20
224.598
 30
0.000000
  70
    32
  0
VERTEX
  8
0
  5
982D
 10
72.5610
 20
224.593
 30
0.000000
  70
    32
  0
VERTEX
  8
0
  5
982E
 10
72.5609
 20
224.589
 30
0.000000
  70
    32
  0
VERTEX
  8
0
  5
982F
 10
72.5609
 20
224.585
 30
0.000000
  70
    32
  0
SEQEND
  8
0
  5
9830
  0
POLYLINE
  5
87F5
  8
0
 10
70.692513342139094
 20
225.39887986523988
 30
0.0
 66
     1
 70
     8
  0
VERTEX
  8
0
  5
9831
 10
70.6925
 20
225.399
 30
0.000000
  70
    32
  0
VERTEX
  8
0
  5
9832
 10
70.6828
 20
225.393
 30
0.000000
  70
    32
  0
VERTEX
  8
0
  5
9833
 10
70.6732
 20
225.387
 30
0.000000
  70
    32
  0
VERTEX
  8
0
  5
9834
 10
70.6637
 20
225.381
 30
0.000000
  70
    32
  0
VERTEX
  8
0
  5
9835
 10
70.6542
 20
225.375
 30
0.000000
  70
    32
  0
VERTEX
  8
0
  5
9836
 10
70.6448
 20
225.369
 30
0.000000
  70
    32
  0
VERTEX
  8
0
  5
9837
 10
70.6354
 20
225.363
 30
0.000000
  70
    32
  0
VERTEX
  8
0
  5
9838
 10
70.6262
 20
225.357
 30
0.000000
  70
    32
  0
VERTEX
  8
0
  5
9839
 10
70.6170
 20
225.351
 30
0.000000
  70
    32
  0
VERTEX
  8
0
  5
983A
 10
70.6079
 20
225.345
 30
0.000000
  70
    32
  0
VERTEX
  8
0
  5
983B
 10
70.5988
 20
225.339
 30
0.000000
  70
    32
  0
VERTEX
  8
0
  5
983C
 10
70.5899
 20
225.332
 30
0.000000
  70
    32
  0
VERTEX
  8
0
  5
983D
 10
70.5810
 20
225.326
 30
0.000000
  70
    32
  0
VERTEX
  8
0
  5
983E
 10
70.5721
 20
225.320
 30
0.000000
  70
    32
  0
VERTEX
  8
0
  5
983F
 10
70.5634
 20
225.314
 30
0.000000
  70
    32
  0
VERTEX
  8
0
  5
9840
 10
70.5547
 20
225.308
 30
0.000000
  70
    32
  0
VERTEX
  8
0
  5
9841
 10
70.5461
 20
225.302
 30
0.000000
  70
    32
  0
VERTEX
  8
0
  5
9842
 10
70.5376
 20
225.296
 30
0.000000
  70
    32
  0
VERTEX
  8
0
  5
9843
 10
70.5291
 20
225.290
 30
0.000000
  70
    32
  0
VERTEX
  8
0
  5
9844
 10
70.5207
 20
225.284
 30
0.000000
  70
    32
  0
VERTEX
  8
0
  5
9845
 10
70.5124
 20
225.277
 30
0.000000
  70
    32
  0
VERTEX
  8
0
  5
9846
 10
70.5042
 20
225.271
 30
0.000000
  70
    32
  0
VERTEX
  8
0
  5
9847
 10
70.4960
 20
225.265
 30
0.000000
  70
    32
  0
VERTEX
  8
0
  5
9848
 10
70.4879
 20
225.259
 30
0.000000
  70
    32
  0
VERTEX
  8
0
  5
9849
 10
70.4799
 20
225.253
 30
0.000000
  70
    32
  0
VERTEX
  8
0
  5
984A
 10
70.4719
 20
225.247
 30
0.000000
  70
    32
  0
VERTEX
  8
0
  5
984B
 10
70.4641
 20
225.240
 30
0.000000
  70
    32
  0
VERTEX
  8
0
  5
984C
 10
70.4563
 20
225.234
 30
0.000000
  70
    32
  0
VERTEX
  8
0
  5
984D
 10
70.4485
 20
225.228
 30
0.000000
  70
    32
  0
VERTEX
  8
0
  5
984E
 10
70.4409
 20
225.222
 30
0.000000
  70
    32
  0
VERTEX
  8
0
  5
984F
 10
70.4333
 20
225.216
 30
0.000000
  70
    32
  0
VERTEX
  8
0
  5
9850
 10
70.4258
 20
225.209
 30
0.000000
  70
    32
  0
VERTEX
  8
0
  5
9851
 10
70.4184
 20
225.203
 30
0.000000
  70
    32
  0
VERTEX
  8
0
  5
9852
 10
70.4110
 20
225.197
 30
0.000000
  70
    32
  0
VERTEX
  8
0
  5
9853
 10
70.4038
 20
225.191
 30
0.000000
  70
    32
  0
VERTEX
  8
0
  5
9854
 10
70.3966
 20
225.184
 30
0.000000
  70
    32
  0
VERTEX
  8
0
  5
9855
 10
70.3894
 20
225.178
 30
0.000000
  70
    32
  0
VERTEX
  8
0
  5
9856
 10
70.3824
 20
225.172
 30
0.000000
  70
    32
  0
VERTEX
  8
0
  5
9857
 10
70.3754
 20
225.166
 30
0.000000
  70
    32
  0
VERTEX
  8
0
  5
9858
 10
70.3685
 20
225.159
 30
0.000000
  70
    32
  0
VERTEX
  8
0
  5
9859
 10
70.3617
 20
225.153
 30
0.000000
  70
    32
  0
VERTEX
  8
0
  5
985A
 10
70.3549
 20
225.147
 30
0.000000
  70
    32
  0
VERTEX
  8
0
  5
985B
 10
70.3482
 20
225.140
 30
0.000000
  70
    32
  0
VERTEX
  8
0
  5
985C
 10
70.3416
 20
225.134
 30
0.000000
  70
    32
  0
VERTEX
  8
0
  5
985D
 10
70.3351
 20
225.128
 30
0.000000
  70
    32
  0
VERTEX
  8
0
  5
985E
 10
70.3287
 20
225.122
 30
0.000000
  70
    32
  0
VERTEX
  8
0
  5
985F
 10
70.3223
 20
225.115
 30
0.000000
  70
    32
  0
VERTEX
  8
0
  5
9860
 10
70.3160
 20
225.109
 30
0.000000
  70
    32
  0
VERTEX
  8
0
  5
9861
 10
70.3098
 20
225.103
 30
0.000000
  70
    32
  0
VERTEX
  8
0
  5
9862
 10
70.3036
 20
225.096
 30
0.000000
  70
    32
  0
VERTEX
  8
0
  5
9863
 10
70.2975
 20
225.090
 30
0.000000
  70
    32
  0
VERTEX
  8
0
  5
9864
 10
70.2915
 20
225.084
 30
0.000000
  70
    32
  0
VERTEX
  8
0
  5
9865
 10
70.2856
 20
225.077
 30
0.000000
  70
    32
  0
VERTEX
  8
0
  5
9866
 10
70.2798
 20
225.071
 30
0.000000
  70
    32
  0
VERTEX
  8
0
  5
9867
 10
70.2740
 20
225.065
 30
0.000000
  70
    32
  0
VERTEX
  8
0
  5
9868
 10
70.2683
 20
225.058
 30
0.000000
  70
    32
  0
VERTEX
  8
0
  5
9869
 10
70.2627
 20
225.052
 30
0.000000
  70
    32
  0
VERTEX
  8
0
  5
986A
 10
70.2571
 20
225.045
 30
0.000000
  70
    32
  0
VERTEX
  8
0
  5
986B
 10
70.2517
 20
225.039
 30
0.000000
  70
    32
  0
VERTEX
  8
0
  5
986C
 10
70.2463
 20
225.033
 30
0.000000
  70
    32
  0
VERTEX
  8
0
  5
986D
 10
70.2410
 20
225.026
 30
0.000000
  70
    32
  0
VERTEX
  8
0
  5
986E
 10
70.2357
 20
225.020
 30
0.000000
  70
    32
  0
VERTEX
  8
0
  5
986F
 10
70.2306
 20
225.014
 30
0.000000
  70
    32
  0
VERTEX
  8
0
  5
9870
 10
70.2255
 20
225.007
 30
0.000000
  70
    32
  0
VERTEX
  8
0
  5
9871
 10
70.2205
 20
225.001
 30
0.000000
  70
    32
  0
VERTEX
  8
0
  5
9872
 10
70.2155
 20
224.994
 30
0.000000
  70
    32
  0
VERTEX
  8
0
  5
9873
 10
70.2107
 20
224.988
 30
0.000000
  70
    32
  0
VERTEX
  8
0
  5
9874
 10
70.2059
 20
224.982
 30
0.000000
  70
    32
  0
VERTEX
  8
0
  5
9875
 10
70.2012
 20
224.975
 30
0.000000
  70
    32
  0
VERTEX
  8
0
  5
9876
 10
70.1966
 20
224.969
 30
0.000000
  70
    32
  0
VERTEX
  8
0
  5
9877
 10
70.1920
 20
224.962
 30
0.000000
  70
    32
  0
VERTEX
  8
0
  5
9878
 10
70.1876
 20
224.956
 30
0.000000
  70
    32
  0
VERTEX
  8
0
  5
9879
 10
70.1832
 20
224.949
 30
0.000000
  70
    32
  0
VERTEX
  8
0
  5
987A
 10
70.1788
 20
224.943
 30
0.000000
  70
    32
  0
VERTEX
  8
0
  5
987B
 10
70.1746
 20
224.936
 30
0.000000
  70
    32
  0
VERTEX
  8
0
  5
987C
 10
70.1704
 20
224.930
 30
0.000000
  70
    32
  0
VERTEX
  8
0
  5
987D
 10
70.1664
 20
224.924
 30
0.000000
  70
    32
  0
VERTEX
  8
0
  5
987E
 10
70.1623
 20
224.917
 30
0.000000
  70
    32
  0
VERTEX
  8
0
  5
987F
 10
70.1584
 20
224.911
 30
0.000000
  70
    32
  0
VERTEX
  8
0
  5
9880
 10
70.1546
 20
224.904
 30
0.000000
  70
    32
  0
VERTEX
  8
0
  5
9881
 10
70.1508
 20
224.898
 30
0.000000
  70
    32
  0
VERTEX
  8
0
  5
9882
 10
70.1471
 20
224.891
 30
0.000000
  70
    32
  0
VERTEX
  8
0
  5
9883
 10
70.1435
 20
224.885
 30
0.000000
  70
    32
  0
VERTEX
  8
0
  5
9884
 10
70.1399
 20
224.878
 30
0.000000
  70
    32
  0
VERTEX
  8
0
  5
9885
 10
70.1364
 20
224.872
 30
0.000000
  70
    32
  0
VERTEX
  8
0
  5
9886
 10
70.1331
 20
224.865
 30
0.000000
  70
    32
  0
VERTEX
  8
0
  5
9887
 10
70.1297
 20
224.859
 30
0.000000
  70
    32
  0
VERTEX
  8
0
  5
9888
 10
70.1265
 20
224.852
 30
0.000000
  70
    32
  0
VERTEX
  8
0
  5
9889
 10
70.1233
 20
224.846
 30
0.000000
  70
    32
  0
VERTEX
  8
0
  5
988A
 10
70.1203
 20
224.839
 30
0.000000
  70
    32
  0
VERTEX
  8
0
  5
988B
 10
70.1173
 20
224.833
 30
0.000000
  70
    32
  0
VERTEX
  8
0
  5
988C
 10
70.1143
 20
224.826
 30
0.000000
  70
    32
  0
VERTEX
  8
0
  5
988D
 10
70.1115
 20
224.820
 30
0.000000
  70
    32
  0
VERTEX
  8
0
  5
988E
 10
70.1087
 20
224.813
 30
0.000000
  70
    32
  0
VERTEX
  8
0
  5
988F
 10
70.1060
 20
224.807
 30
0.000000
  70
    32
  0
VERTEX
  8
0
  5
9890
 10
70.1034
 20
224.800
 30
0.000000
  70
    32
  0
VERTEX
  8
0
  5
9891
 10
70.1009
 20
224.794
 30
0.000000
  70
    32
  0
VERTEX
  8
0
  5
9892
 10
70.0984
 20
224.787
 30
0.000000
  70
    32
  0
VERTEX
  8
0
  5
9893
 10
70.0960
 20
224.781
 30
0.000000
  70
    32
  0
VERTEX
  8
0
  5
9894
 10
70.0937
 20
224.774
 30
0.000000
  70
    32
  0
VERTEX
  8
0
  5
9895
 10
70.0915
 20
224.768
 30
0.000000
  70
    32
  0
VERTEX
  8
0
  5
9896
 10
70.0894
 20
224.761
 30
0.000000
  70
    32
  0
VERTEX
  8
0
  5
9897
 10
70.0873
 20
224.755
 30
0.000000
  70
    32
  0
VERTEX
  8
0
  5
9898
 10
70.0853
 20
224.748
 30
0.000000
  70
    32
  0
VERTEX
  8
0
  5
9899
 10
70.0834
 20
224.742
 30
0.000000
  70
    32
  0
VERTEX
  8
0
  5
989A
 10
70.0815
 20
224.735
 30
0.000000
  70
    32
  0
VERTEX
  8
0
  5
989B
 10
70.0798
 20
224.729
 30
0.000000
  70
    32
  0
VERTEX
  8
0
  5
989C
 10
70.0781
 20
224.722
 30
0.000000
  70
    32
  0
VERTEX
  8
0
  5
989D
 10
70.0765
 20
224.716
 30
0.000000
  70
    32
  0
VERTEX
  8
0
  5
989E
 10
70.0750
 20
224.709
 30
0.000000
  70
    32
  0
VERTEX
  8
0
  5
989F
 10
70.0735
 20
224.703
 30
0.000000
  70
    32
  0
VERTEX
  8
0
  5
98A0
 10
70.0722
 20
224.696
 30
0.000000
  70
    32
  0
VERTEX
  8
0
  5
98A1
 10
70.0709
 20
224.690
 30
0.000000
  70
    32
  0
VERTEX
  8
0
  5
98A2
 10
70.0697
 20
224.683
 30
0.000000
  70
    32
  0
VERTEX
  8
0
  5
98A3
 10
70.0685
 20
224.676
 30
0.000000
  70
    32
  0
VERTEX
  8
0
  5
98A4
 10
70.0675
 20
224.670
 30
0.000000
  70
    32
  0
VERTEX
  8
0
  5
98A5
 10
70.0665
 20
224.663
 30
0.000000
  70
    32
  0
VERTEX
  8
0
  5
98A6
 10
70.0656
 20
224.657
 30
0.000000
  70
    32
  0
VERTEX
  8
0
  5
98A7
 10
70.0648
 20
224.650
 30
0.000000
  70
    32
  0
VERTEX
  8
0
  5
98A8
 10
70.0640
 20
224.644
 30
0.000000
  70
    32
  0
VERTEX
  8
0
  5
98A9
 10
70.0634
 20
224.637
 30
0.000000
  70
    32
  0
VERTEX
  8
0
  5
98AA
 10
70.0628
 20
224.631
 30
0.000000
  70
    32
  0
VERTEX
  8
0
  5
98AB
 10
70.0623
 20
224.624
 30
0.000000
  70
    32
  0
VERTEX
  8
0
  5
98AC
 10
70.0618
 20
224.618
 30
0.000000
  70
    32
  0
VERTEX
  8
0
  5
98AD
 10
70.0615
 20
224.611
 30
0.000000
  70
    32
  0
VERTEX
  8
0
  5
98AE
 10
70.0612
 20
224.605
 30
0.000000
  70
    32
  0
VERTEX
  8
0
  5
98AF
 10
70.0610
 20
224.598
 30
0.000000
  70
    32
  0
VERTEX
  8
0
  5
98B0
 10
70.0609
 20
224.591
 30
0.000000
  70
    32
  0
VERTEX
  8
0
  5
98B1
 10
70.0609
 20
224.585
 30
0.000000
  70
    32
  0
SEQEND
  8
0
  5
98B2
  0
LINE
  5
87F6
  8
0
 10
77.379208665743761
 20
229.5179482523844
 30
0.0
 11
70.69251334213908
 21
225.39887986523991
 31
0.0
  0
POLYLINE
  5
87F7
  8
0
 10
77.379208665743846
 20
229.51794825238449
 30
0.0
 66
     1
 70
     8
  0
VERTEX
  8
0
  5
98B3
 10
77.3792
 20
229.518
 30
0.000000
  70
    32
  0
VERTEX
  8
0
  5
98B4
 10
77.3889
 20
229.524
 30
0.000000
  70
    32
  0
VERTEX
  8
0
  5
98B5
 10
77.3985
 20
229.530
 30
0.000000
  70
    32
  0
VERTEX
  8
0
  5
98B6
 10
77.4081
 20
229.536
 30
0.000000
  70
    32
  0
VERTEX
  8
0
  5
98B7
 10
77.4175
 20
229.542
 30
0.000000
  70
    32
  0
VERTEX
  8
0
  5
98B8
 10
77.4270
 20
229.548
 30
0.000000
  70
    32
  0
VERTEX
  8
0
  5
98B9
 10
77.4363
 20
229.554
 30
0.000000
  70
    32
  0
VERTEX
  8
0
  5
98BA
 10
77.4455
 20
229.560
 30
0.000000
  70
    32
  0
VERTEX
  8
0
  5
98BB
 10
77.4547
 20
229.566
 30
0.000000
  70
    32
  0
VERTEX
  8
0
  5
98BC
 10
77.4639
 20
229.572
 30
0.000000
  70
    32
  0
VERTEX
  8
0
  5
98BD
 10
77.4729
 20
229.578
 30
0.000000
  70
    32
  0
VERTEX
  8
0
  5
98BE
 10
77.4819
 20
229.584
 30
0.000000
  70
    32
  0
VERTEX
  8
0
  5
98BF
 10
77.4908
 20
229.590
 30
0.000000
  70
    32
  0
VERTEX
  8
0
  5
98C0
 10
77.4996
 20
229.597
 30
0.000000
  70
    32
  0
VERTEX
  8
0
  5
98C1
 10
77.5083
 20
229.603
 30
0.000000
  70
    32
  0
VERTEX
  8
0
  5
98C2
 10
77.5170
 20
229.609
 30
0.000000
  70
    32
  0
VERTEX
  8
0
  5
98C3
 10
77.5256
 20
229.615
 30
0.000000
  70
    32
  0
VERTEX
  8
0
  5
98C4
 10
77.5342
 20
229.621
 30
0.000000
  70
    32
  0
VERTEX
  8
0
  5
98C5
 10
77.5426
 20
229.627
 30
0.000000
  70
    32
  0
VERTEX
  8
0
  5
98C6
 10
77.5510
 20
229.633
 30
0.000000
  70
    32
  0
VERTEX
  8
0
  5
98C7
 10
77.5593
 20
229.639
 30
0.000000
  70
    32
  0
VERTEX
  8
0
  5
98C8
 10
77.5676
 20
229.646
 30
0.000000
  70
    32
  0
VERTEX
  8
0
  5
98C9
 10
77.5757
 20
229.652
 30
0.000000
  70
    32
  0
VERTEX
  8
0
  5
98CA
 10
77.5838
 20
229.658
 30
0.000000
  70
    32
  0
VERTEX
  8
0
  5
98CB
 10
77.5918
 20
229.664
 30
0.000000
  70
    32
  0
VERTEX
  8
0
  5
98CC
 10
77.5998
 20
229.670
 30
0.000000
  70
    32
  0
VERTEX
  8
0
  5
98CD
 10
77.6077
 20
229.676
 30
0.000000
  70
    32
  0
VERTEX
  8
0
  5
98CE
 10
77.6155
 20
229.683
 30
0.000000
  70
    32
  0
VERTEX
  8
0
  5
98CF
 10
77.6232
 20
229.689
 30
0.000000
  70
    32
  0
VERTEX
  8
0
  5
98D0
 10
77.6308
 20
229.695
 30
0.000000
  70
    32
  0
VERTEX
  8
0
  5
98D1
 10
77.6384
 20
229.701
 30
0.000000
  70
    32
  0
VERTEX
  8
0
  5
98D2
 10
77.6459
 20
229.707
 30
0.000000
  70
    32
  0
VERTEX
  8
0
  5
98D3
 10
77.6533
 20
229.714
 30
0.000000
  70
    32
  0
VERTEX
  8
0
  5
98D4
 10
77.6607
 20
229.720
 30
0.000000
  70
    32
  0
VERTEX
  8
0
  5
98D5
 10
77.6680
 20
229.726
 30
0.000000
  70
    32
  0
VERTEX
  8
0
  5
98D6
 10
77.6752
 20
229.732
 30
0.000000
  70
    32
  0
VERTEX
  8
0
  5
98D7
 10
77.6823
 20
229.739
 30
0.000000
  70
    32
  0
VERTEX
  8
0
  5
98D8
 10
77.6893
 20
229.745
 30
0.000000
  70
    32
  0
VERTEX
  8
0
  5
98D9
 10
77.6963
 20
229.751
 30
0.000000
  70
    32
  0
VERTEX
  8
0
  5
98DA
 10
77.7032
 20
229.758
 30
0.000000
  70
    32
  0
VERTEX
  8
0
  5
98DB
 10
77.7101
 20
229.764
 30
0.000000
  70
    32
  0
VERTEX
  8
0
  5
98DC
 10
77.7168
 20
229.770
 30
0.000000
  70
    32
  0
VERTEX
  8
0
  5
98DD
 10
77.7235
 20
229.776
 30
0.000000
  70
    32
  0
VERTEX
  8
0
  5
98DE
 10
77.7301
 20
229.783
 30
0.000000
  70
    32
  0
VERTEX
  8
0
  5
98DF
 10
77.7366
 20
229.789
 30
0.000000
  70
    32
  0
VERTEX
  8
0
  5
98E0
 10
77.7431
 20
229.795
 30
0.000000
  70
    32
  0
VERTEX
  8
0
  5
98E1
 10
77.7494
 20
229.802
 30
0.000000
  70
    32
  0
VERTEX
  8
0
  5
98E2
 10
77.7557
 20
229.808
 30
0.000000
  70
    32
  0
VERTEX
  8
0
  5
98E3
 10
77.7620
 20
229.814
 30
0.000000
  70
    32
  0
VERTEX
  8
0
  5
98E4
 10
77.7681
 20
229.821
 30
0.000000
  70
    32
  0
VERTEX
  8
0
  5
98E5
 10
77.7742
 20
229.827
 30
0.000000
  70
    32
  0
VERTEX
  8
0
  5
98E6
 10
77.7802
 20
229.833
 30
0.000000
  70
    32
  0
VERTEX
  8
0
  5
98E7
 10
77.7861
 20
229.840
 30
0.000000
  70
    32
  0
VERTEX
  8
0
  5
98E8
 10
77.7920
 20
229.846
 30
0.000000
  70
    32
  0
VERTEX
  8
0
  5
98E9
 10
77.7977
 20
229.852
 30
0.000000
  70
    32
  0
VERTEX
  8
0
  5
98EA
 10
77.8034
 20
229.859
 30
0.000000
  70
    32
  0
VERTEX
  8
0
  5
98EB
 10
77.8090
 20
229.865
 30
0.000000
  70
    32
  0
VERTEX
  8
0
  5
98EC
 10
77.8146
 20
229.871
 30
0.000000
  70
    32
  0
VERTEX
  8
0
  5
98ED
 10
77.8201
 20
229.878
 30
0.000000
  70
    32
  0
VERTEX
  8
0
  5
98EE
 10
77.8254
 20
229.884
 30
0.000000
  70
    32
  0
VERTEX
  8
0
  5
98EF
 10
77.8308
 20
229.891
 30
0.000000
  70
    32
  0
VERTEX
  8
0
  5
98F0
 10
77.8360
 20
229.897
 30
0.000000
  70
    32
  0
VERTEX
  8
0
  5
98F1
 10
77.8412
 20
229.903
 30
0.000000
  70
    32
  0
VERTEX
  8
0
  5
98F2
 10
77.8462
 20
229.910
 30
0.000000
  70
    32
  0
VERTEX
  8
0
  5
98F3
 10
77.8512
 20
229.916
 30
0.000000
  70
    32
  0
VERTEX
  8
0
  5
98F4
 10
77.8562
 20
229.923
 30
0.000000
  70
    32
  0
VERTEX
  8
0
  5
98F5
 10
77.8610
 20
229.929
 30
0.000000
  70
    32
  0
VERTEX
  8
0
  5
98F6
 10
77.8658
 20
229.935
 30
0.000000
  70
    32
  0
VERTEX
  8
0
  5
98F7
 10
77.8705
 20
229.942
 30
0.000000
  70
    32
  0
VERTEX
  8
0
  5
98F8
 10
77.8751
 20
229.948
 30
0.000000
  70
    32
  0
VERTEX
  8
0
  5
98F9
 10
77.8797
 20
229.955
 30
0.000000
  70
    32
  0
VERTEX
  8
0
  5
98FA
 10
77.8842
 20
229.961
 30
0.000000
  70
    32
  0
VERTEX
  8
0
  5
98FB
 10
77.8886
 20
229.967
 30
0.000000
  70
    32
  0
VERTEX
  8
0
  5
98FC
 10
77.8929
 20
229.974
 30
0.000000
  70
    32
  0
VERTEX
  8
0
  5
98FD
 10
77.8971
 20
229.980
 30
0.000000
  70
    32
  0
VERTEX
  8
0
  5
98FE
 10
77.9013
 20
229.987
 30
0.000000
  70
    32
  0
VERTEX
  8
0
  5
98FF
 10
77.9054
 20
229.993
 30
0.000000
  70
    32
  0
VERTEX
  8
0
  5
9900
 10
77.9094
 20
230.000
 30
0.000000
  70
    32
  0
VERTEX
  8
0
  5
9901
 10
77.9133
 20
230.006
 30
0.000000
  70
    32
  0
VERTEX
  8
0
  5
9902
 10
77.9172
 20
230.013
 30
0.000000
  70
    32
  0
VERTEX
  8
0
  5
9903
 10
77.9209
 20
230.019
 30
0.000000
  70
    32
  0
VERTEX
  8
0
  5
9904
 10
77.9246
 20
230.026
 30
0.000000
  70
    32
  0
VERTEX
  8
0
  5
9905
 10
77.9283
 20
230.032
 30
0.000000
  70
    32
  0
VERTEX
  8
0
  5
9906
 10
77.9318
 20
230.038
 30
0.000000
  70
    32
  0
VERTEX
  8
0
  5
9907
 10
77.9353
 20
230.045
 30
0.000000
  70
    32
  0
VERTEX
  8
0
  5
9908
 10
77.9387
 20
230.051
 30
0.000000
  70
    32
  0
VERTEX
  8
0
  5
9909
 10
77.9420
 20
230.058
 30
0.000000
  70
    32
  0
VERTEX
  8
0
  5
990A
 10
77.9452
 20
230.064
 30
0.000000
  70
    32
  0
VERTEX
  8
0
  5
990B
 10
77.9484
 20
230.071
 30
0.000000
  70
    32
  0
VERTEX
  8
0
  5
990C
 10
77.9515
 20
230.077
 30
0.000000
  70
    32
  0
VERTEX
  8
0
  5
990D
 10
77.9545
 20
230.084
 30
0.000000
  70
    32
  0
VERTEX
  8
0
  5
990E
 10
77.9574
 20
230.090
 30
0.000000
  70
    32
  0
VERTEX
  8
0
  5
990F
 10
77.9602
 20
230.097
 30
0.000000
  70
    32
  0
VERTEX
  8
0
  5
9910
 10
77.9630
 20
230.103
 30
0.000000
  70
    32
  0
VERTEX
  8
0
  5
9911
 10
77.9657
 20
230.110
 30
0.000000
  70
    32
  0
VERTEX
  8
0
  5
9912
 10
77.9683
 20
230.116
 30
0.000000
  70
    32
  0
VERTEX
  8
0
  5
9913
 10
77.9709
 20
230.123
 30
0.000000
  70
    32
  0
VERTEX
  8
0
  5
9914
 10
77.9733
 20
230.129
 30
0.000000
  70
    32
  0
VERTEX
  8
0
  5
9915
 10
77.9757
 20
230.136
 30
0.000000
  70
    32
  0
VERTEX
  8
0
  5
9916
 10
77.9780
 20
230.142
 30
0.000000
  70
    32
  0
VERTEX
  8
0
  5
9917
 10
77.9802
 20
230.149
 30
0.000000
  70
    32
  0
VERTEX
  8
0
  5
9918
 10
77.9824
 20
230.155
 30
0.000000
  70
    32
  0
VERTEX
  8
0
  5
9919
 10
77.9844
 20
230.162
 30
0.000000
  70
    32
  0
VERTEX
  8
0
  5
991A
 10
77.9864
 20
230.169
 30
0.000000
  70
    32
  0
VERTEX
  8
0
  5
991B
 10
77.9883
 20
230.175
 30
0.000000
  70
    32
  0
VERTEX
  8
0
  5
991C
 10
77.9902
 20
230.182
 30
0.000000
  70
    32
  0
VERTEX
  8
0
  5
991D
 10
77.9919
 20
230.188
 30
0.000000
  70
    32
  0
VERTEX
  8
0
  5
991E
 10
77.9936
 20
230.195
 30
0.000000
  70
    32
  0
VERTEX
  8
0
  5
991F
 10
77.9952
 20
230.201
 30
0.000000
  70
    32
  0
VERTEX
  8
0
  5
9920
 10
77.9967
 20
230.208
 30
0.000000
  70
    32
  0
VERTEX
  8
0
  5
9921
 10
77.9982
 20
230.214
 30
0.000000
  70
    32
  0
VERTEX
  8
0
  5
9922
 10
77.9996
 20
230.221
 30
0.000000
  70
    32
  0
VERTEX
  8
0
  5
9923
 10
78.0009
 20
230.227
 30
0.000000
  70
    32
  0
VERTEX
  8
0
  5
9924
 10
78.0021
 20
230.234
 30
0.000000
  70
    32
  0
VERTEX
  8
0
  5
9925
 10
78.0032
 20
230.240
 30
0.000000
  70
    32
  0
VERTEX
  8
0
  5
9926
 10
78.0043
 20
230.247
 30
0.000000
  70
    32
  0
VERTEX
  8
0
  5
9927
 10
78.0052
 20
230.253
 30
0.000000
  70
    32
  0
VERTEX
  8
0
  5
9928
 10
78.0061
 20
230.260
 30
0.000000
  70
    32
  0
VERTEX
  8
0
  5
9929
 10
78.0070
 20
230.267
 30
0.000000
  70
    32
  0
VERTEX
  8
0
  5
992A
 10
78.0077
 20
230.273
 30
0.000000
  70
    32
  0
VERTEX
  8
0
  5
992B
 10
78.0084
 20
230.280
 30
0.000000
  70
    32
  0
VERTEX
  8
0
  5
992C
 10
78.0089
 20
230.286
 30
0.000000
  70
    32
  0
VERTEX
  8
0
  5
992D
 10
78.0095
 20
230.293
 30
0.000000
  70
    32
  0
VERTEX
  8
0
  5
992E
 10
78.0099
 20
230.299
 30
0.000000
  70
    32
  0
VERTEX
  8
0
  5
992F
 10
78.0102
 20
230.306
 30
0.000000
  70
    32
  0
VERTEX
  8
0
  5
9930
 10
78.0105
 20
230.312
 30
0.000000
  70
    32
  0
VERTEX
  8
0
  5
9931
 10
78.0107
 20
230.319
 30
0.000000
  70
    32
  0
VERTEX
  8
0
  5
9932
 10
78.0108
 20
230.325
 30
0.000000
  70
    32
  0
VERTEX
  8
0
  5
9933
 10
78.0109
 20
230.332
 30
0.000000
  70
    32
  0
SEQEND
  8
0
  5
9934
  0
LINE
  5
87F8
  8
0
 10
78.010861003941415
 20
236.07602315272399
 30
0.0
 11
78.010861003941386
 21
230.33194024556011
 31
0.0
  0
LINE
  5
87FA
  8
0
 10
83.11086100394138
 20
230.33194024556011
 30
0.0
 11
83.110861003940443
 21
236.0760231527241
 31
0.0
  0
POLYLINE
  5
87FB
  8
0
 10
83.11086100394138
 20
230.33194024555996
 30
0.0
 66
     1
 70
     8
  0
VERTEX
  8
0
  5
9935
 10
83.1109
 20
230.332
 30
0.000000
  70
    32
  0
VERTEX
  8
0
  5
9936
 10
83.1109
 20
230.325
 30
0.000000
  70
    32
  0
VERTEX
  8
0
  5
9937
 10
83.1110
 20
230.319
 30
0.000000
  70
    32
  0
VERTEX
  8
0
  5
9938
 10
83.1112
 20
230.312
 30
0.000000
  70
    32
  0
VERTEX
  8
0
  5
9939
 10
83.1115
 20
230.306
 30
0.000000
  70
    32
  0
VERTEX
  8
0
  5
993A
 10
83.1118
 20
230.299
 30
0.000000
  70
    32
  0
VERTEX
  8
0
  5
993B
 10
83.1123
 20
230.293
 30
0.000000
  70
    32
  0
VERTEX
  8
0
  5
993C
 10
83.1128
 20
230.286
 30
0.000000
  70
    32
  0
VERTEX
  8
0
  5
993D
 10
83.1134
 20
230.280
 30
0.000000
  70
    32
  0
VERTEX
  8
0
  5
993E
 10
83.1140
 20
230.273
 30
0.000000
  70
    32
  0
VERTEX
  8
0
  5
993F
 10
83.1148
 20
230.267
 30
0.000000
  70
    32
  0
VERTEX
  8
0
  5
9940
 10
83.1156
 20
230.260
 30
0.000000
  70
    32
  0
VERTEX
  8
0
  5
9941
 10
83.1165
 20
230.253
 30
0.000000
  70
    32
  0
VERTEX
  8
0
  5
9942
 10
83.1175
 20
230.247
 30
0.000000
  70
    32
  0
VERTEX
  8
0
  5
9943
 10
83.1185
 20
230.240
 30
0.000000
  70
    32
  0
VERTEX
  8
0
  5
9944
 10
83.1197
 20
230.234
 30
0.000000
  70
    32
  0
VERTEX
  8
0
  5
9945
 10
83.1209
 20
230.227
 30
0.000000
  70
    32
  0
VERTEX
  8
0
  5
9946
 10
83.1222
 20
230.221
 30
0.000000
  70
    32
  0
VERTEX
  8
0
  5
9947
 10
83.1235
 20
230.214
 30
0.000000
  70
    32
  0
VERTEX
  8
0
  5
9948
 10
83.1250
 20
230.208
 30
0.000000
  70
    32
  0
VERTEX
  8
0
  5
9949
 10
83.1265
 20
230.201
 30
0.000000
  70
    32
  0
VERTEX
  8
0
  5
994A
 10
83.1281
 20
230.195
 30
0.000000
  70
    32
  0
VERTEX
  8
0
  5
994B
 10
83.1298
 20
230.188
 30
0.000000
  70
    32
  0
VERTEX
  8
0
  5
994C
 10
83.1315
 20
230.182
 30
0.000000
  70
    32
  0
VERTEX
  8
0
  5
994D
 10
83.1334
 20
230.175
 30
0.000000
  70
    32
  0
VERTEX
  8
0
  5
994E
 10
83.1353
 20
230.169
 30
0.000000
  70
    32
  0
VERTEX
  8
0
  5
994F
 10
83.1373
 20
230.162
 30
0.000000
  70
    32
  0
VERTEX
  8
0
  5
9950
 10
83.1394
 20
230.155
 30
0.000000
  70
    32
  0
VERTEX
  8
0
  5
9951
 10
83.1415
 20
230.149
 30
0.000000
  70
    32
  0
VERTEX
  8
0
  5
9952
 10
83.1437
 20
230.142
 30
0.000000
  70
    32
  0
VERTEX
  8
0
  5
9953
 10
83.1460
 20
230.136
 30
0.000000
  70
    32
  0
VERTEX
  8
0
  5
9954
 10
83.1484
 20
230.129
 30
0.000000
  70
    32
  0
VERTEX
  8
0
  5
9955
 10
83.1509
 20
230.123
 30
0.000000
  70
    32
  0
VERTEX
  8
0
  5
9956
 10
83.1534
 20
230.116
 30
0.000000
  70
    32
  0
VERTEX
  8
0
  5
9957
 10
83.1560
 20
230.110
 30
0.000000
  70
    32
  0
VERTEX
  8
0
  5
9958
 10
83.1587
 20
230.103
 30
0.000000
  70
    32
  0
VERTEX
  8
0
  5
9959
 10
83.1615
 20
230.097
 30
0.000000
  70
    32
  0
VERTEX
  8
0
  5
995A
 10
83.1643
 20
230.090
 30
0.000000
  70
    32
  0
VERTEX
  8
0
  5
995B
 10
83.1673
 20
230.084
 30
0.000000
  70
    32
  0
VERTEX
  8
0
  5
995C
 10
83.1703
 20
230.077
 30
0.000000
  70
    32
  0
VERTEX
  8
0
  5
995D
 10
83.1733
 20
230.071
 30
0.000000
  70
    32
  0
VERTEX
  8
0
  5
995E
 10
83.1765
 20
230.064
 30
0.000000
  70
    32
  0
VERTEX
  8
0
  5
995F
 10
83.1797
 20
230.058
 30
0.000000
  70
    32
  0
VERTEX
  8
0
  5
9960
 10
83.1831
 20
230.051
 30
0.000000
  70
    32
  0
VERTEX
  8
0
  5
9961
 10
83.1864
 20
230.045
 30
0.000000
  70
    32
  0
VERTEX
  8
0
  5
9962
 10
83.1899
 20
230.038
 30
0.000000
  70
    32
  0
VERTEX
  8
0
  5
9963
 10
83.1935
 20
230.032
 30
0.000000
  70
    32
  0
VERTEX
  8
0
  5
9964
 10
83.1971
 20
230.026
 30
0.000000
  70
    32
  0
VERTEX
  8
0
  5
9965
 10
83.2008
 20
230.019
 30
0.000000
  70
    32
  0
VERTEX
  8
0
  5
9966
 10
83.2046
 20
230.013
 30
0.000000
  70
    32
  0
VERTEX
  8
0
  5
9967
 10
83.2084
 20
230.006
 30
0.000000
  70
    32
  0
VERTEX
  8
0
  5
9968
 10
83.2123
 20
230.000
 30
0.000000
  70
    32
  0
VERTEX
  8
0
  5
9969
 10
83.2164
 20
229.993
 30
0.000000
  70
    32
  0
VERTEX
  8
0
  5
996A
 10
83.2204
 20
229.987
 30
0.000000
  70
    32
  0
VERTEX
  8
0
  5
996B
 10
83.2246
 20
229.980
 30
0.000000
  70
    32
  0
VERTEX
  8
0
  5
996C
 10
83.2288
 20
229.974
 30
0.000000
  70
    32
  0
VERTEX
  8
0
  5
996D
 10
83.2332
 20
229.967
 30
0.000000
  70
    32
  0
VERTEX
  8
0
  5
996E
 10
83.2376
 20
229.961
 30
0.000000
  70
    32
  0
VERTEX
  8
0
  5
996F
 10
83.2420
 20
229.955
 30
0.000000
  70
    32
  0
VERTEX
  8
0
  5
9970
 10
83.2466
 20
229.948
 30
0.000000
  70
    32
  0
VERTEX
  8
0
  5
9971
 10
83.2512
 20
229.942
 30
0.000000
  70
    32
  0
VERTEX
  8
0
  5
9972
 10
83.2559
 20
229.935
 30
0.000000
  70
    32
  0
VERTEX
  8
0
  5
9973
 10
83.2607
 20
229.929
 30
0.000000
  70
    32
  0
VERTEX
  8
0
  5
9974
 10
83.2655
 20
229.923
 30
0.000000
  70
    32
  0
VERTEX
  8
0
  5
9975
 10
83.2705
 20
229.916
 30
0.000000
  70
    32
  0
VERTEX
  8
0
  5
9976
 10
83.2755
 20
229.910
 30
0.000000
  70
    32
  0
VERTEX
  8
0
  5
9977
 10
83.2806
 20
229.903
 30
0.000000
  70
    32
  0
VERTEX
  8
0
  5
9978
 10
83.2857
 20
229.897
 30
0.000000
  70
    32
  0
VERTEX
  8
0
  5
9979
 10
83.2910
 20
229.891
 30
0.000000
  70
    32
  0
VERTEX
  8
0
  5
997A
 10
83.2963
 20
229.884
 30
0.000000
  70
    32
  0
VERTEX
  8
0
  5
997B
 10
83.3017
 20
229.878
 30
0.000000
  70
    32
  0
VERTEX
  8
0
  5
997C
 10
83.3071
 20
229.871
 30
0.000000
  70
    32
  0
VERTEX
  8
0
  5
997D
 10
83.3127
 20
229.865
 30
0.000000
  70
    32
  0
VERTEX
  8
0
  5
997E
 10
83.3183
 20
229.859
 30
0.000000
  70
    32
  0
VERTEX
  8
0
  5
997F
 10
83.3240
 20
229.852
 30
0.000000
  70
    32
  0
VERTEX
  8
0
  5
9980
 10
83.3298
 20
229.846
 30
0.000000
  70
    32
  0
VERTEX
  8
0
  5
9981
 10
83.3356
 20
229.840
 30
0.000000
  70
    32
  0
VERTEX
  8
0
  5
9982
 10
83.3415
 20
229.833
 30
0.000000
  70
    32
  0
VERTEX
  8
0
  5
9983
 10
83.3475
 20
229.827
 30
0.000000
  70
    32
  0
VERTEX
  8
0
  5
9984
 10
83.3536
 20
229.821
 30
0.000000
  70
    32
  0
VERTEX
  8
0
  5
9985
 10
83.3598
 20
229.814
 30
0.000000
  70
    32
  0
VERTEX
  8
0
  5
9986
 10
83.3660
 20
229.808
 30
0.000000
  70
    32
  0
VERTEX
  8
0
  5
9987
 10
83.3723
 20
229.802
 30
0.000000
  70
    32
  0
VERTEX
  8
0
  5
9988
 10
83.3787
 20
229.795
 30
0.000000
  70
    32
  0
VERTEX
  8
0
  5
9989
 10
83.3851
 20
229.789
 30
0.000000
  70
    32
  0
VERTEX
  8
0
  5
998A
 10
83.3916
 20
229.783
 30
0.000000
  70
    32
  0
VERTEX
  8
0
  5
998B
 10
83.3982
 20
229.776
 30
0.000000
  70
    32
  0
VERTEX
  8
0
  5
998C
 10
83.4049
 20
229.770
 30
0.000000
  70
    32
  0
VERTEX
  8
0
  5
998D
 10
83.4117
 20
229.764
 30
0.000000
  70
    32
  0
VERTEX
  8
0
  5
998E
 10
83.4185
 20
229.758
 30
0.000000
  70
    32
  0
VERTEX
  8
0
  5
998F
 10
83.4254
 20
229.751
 30
0.000000
  70
    32
  0
VERTEX
  8
0
  5
9990
 10
83.4324
 20
229.745
 30
0.000000
  70
    32
  0
VERTEX
  8
0
  5
9991
 10
83.4394
 20
229.739
 30
0.000000
  70
    32
  0
VERTEX
  8
0
  5
9992
 10
83.4466
 20
229.732
 30
0.000000
  70
    32
  0
VERTEX
  8
0
  5
9993
 10
83.4538
 20
229.726
 30
0.000000
  70
    32
  0
VERTEX
  8
0
  5
9994
 10
83.4610
 20
229.720
 30
0.000000
  70
    32
  0
VERTEX
  8
0
  5
9995
 10
83.4684
 20
229.714
 30
0.000000
  70
    32
  0
VERTEX
  8
0
  5
9996
 10
83.4758
 20
229.707
 30
0.000000
  70
    32
  0
VERTEX
  8
0
  5
9997
 10
83.4833
 20
229.701
 30
0.000000
  70
    32
  0
VERTEX
  8
0
  5
9998
 10
83.4909
 20
229.695
 30
0.000000
  70
    32
  0
VERTEX
  8
0
  5
9999
 10
83.4985
 20
229.689
 30
0.000000
  70
    32
  0
VERTEX
  8
0
  5
999A
 10
83.5063
 20
229.683
 30
0.000000
  70
    32
  0
VERTEX
  8
0
  5
999B
 10
83.5141
 20
229.676
 30
0.000000
  70
    32
  0
VERTEX
  8
0
  5
999C
 10
83.5219
 20
229.670
 30
0.000000
  70
    32
  0
VERTEX
  8
0
  5
999D
 10
83.5299
 20
229.664
 30
0.000000
  70
    32
  0
VERTEX
  8
0
  5
999E
 10
83.5379
 20
229.658
 30
0.000000
  70
    32
  0
VERTEX
  8
0
  5
999F
 10
83.5460
 20
229.652
 30
0.000000
  70
    32
  0
VERTEX
  8
0
  5
99A0
 10
83.5542
 20
229.646
 30
0.000000
  70
    32
  0
VERTEX
  8
0
  5
99A1
 10
83.5624
 20
229.639
 30
0.000000
  70
    32
  0
VERTEX
  8
0
  5
99A2
 10
83.5707
 20
229.633
 30
0.000000
  70
    32
  0
VERTEX
  8
0
  5
99A3
 10
83.5791
 20
229.627
 30
0.000000
  70
    32
  0
VERTEX
  8
0
  5
99A4
 10
83.5876
 20
229.621
 30
0.000000
  70
    32
  0
VERTEX
  8
0
  5
99A5
 10
83.5961
 20
229.615
 30
0.000000
  70
    32
  0
VERTEX
  8
0
  5
99A6
 10
83.6047
 20
229.609
 30
0.000000
  70
    32
  0
VERTEX
  8
0
  5
99A7
 10
83.6134
 20
229.603
 30
0.000000
  70
    32
  0
VERTEX
  8
0
  5
99A8
 10
83.6221
 20
229.597
 30
0.000000
  70
    32
  0
VERTEX
  8
0
  5
99A9
 10
83.6310
 20
229.590
 30
0.000000
  70
    32
  0
VERTEX
  8
0
  5
99AA
 10
83.6399
 20
229.584
 30
0.000000
  70
    32
  0
VERTEX
  8
0
  5
99AB
 10
83.6488
 20
229.578
 30
0.000000
  70
    32
  0
VERTEX
  8
0
  5
99AC
 10
83.6579
 20
229.572
 30
0.000000
  70
    32
  0
VERTEX
  8
0
  5
99AD
 10
83.6670
 20
229.566
 30
0.000000
  70
    32
  0
VERTEX
  8
0
  5
99AE
 10
83.6762
 20
229.560
 30
0.000000
  70
    32
  0
VERTEX
  8
0
  5
99AF
 10
83.6854
 20
229.554
 30
0.000000
  70
    32
  0
VERTEX
  8
0
  5
99B0
 10
83.6948
 20
229.548
 30
0.000000
  70
    32
  0
VERTEX
  8
0
  5
99B1
 10
83.7042
 20
229.542
 30
0.000000
  70
    32
  0
VERTEX
  8
0
  5
99B2
 10
83.7137
 20
229.536
 30
0.000000
  70
    32
  0
VERTEX
  8
0
  5
99B3
 10
83.7232
 20
229.530
 30
0.000000
  70
    32
  0
VERTEX
  8
0
  5
99B4
 10
83.7328
 20
229.524
 30
0.000000
  70
    32
  0
VERTEX
  8
0
  5
99B5
 10
83.7425
 20
229.518
 30
0.000000
  70
    32
  0
SEQEND
  8
0
  5
99B6
  0
LINE
  5
87FC
  8
0
 10
90.429208665743801
 20
225.39887986523999
 30
0.0
 11
83.742513342139034
 21
229.5179482523844
 31
0.0
  0
POLYLINE
  5
87FD
  8
0
 10
91.060861003941469
 20
224.58488787206423
 30
0.0
 66
     1
 70
     8
  0
VERTEX
  8
0
  5
99B7
 10
91.0609
 20
224.585
 30
0.000000
  70
    32
  0
VERTEX
  8
0
  5
99B8
 10
91.0608
 20
224.591
 30
0.000000
  70
    32
  0
VERTEX
  8
0
  5
99B9
 10
91.0607
 20
224.598
 30
0.000000
  70
    32
  0
VERTEX
  8
0
  5
99BA
 10
91.0605
 20
224.605
 30
0.000000
  70
    32
  0
VERTEX
  8
0
  5
99BB
 10
91.0602
 20
224.611
 30
0.000000
  70
    32
  0
VERTEX
  8
0
  5
99BC
 10
91.0599
 20
224.618
 30
0.000000
  70
    32
  0
VERTEX
  8
0
  5
99BD
 10
91.0595
 20
224.624
 30
0.000000
  70
    32
  0
VERTEX
  8
0
  5
99BE
 10
91.0589
 20
224.631
 30
0.000000
  70
    32
  0
VERTEX
  8
0
  5
99BF
 10
91.0584
 20
224.637
 30
0.000000
  70
    32
  0
VERTEX
  8
0
  5
99C0
 10
91.0577
 20
224.644
 30
0.000000
  70
    32
  0
VERTEX
  8
0
  5
99C1
 10
91.0570
 20
224.650
 30
0.000000
  70
    32
  0
VERTEX
  8
0
  5
99C2
 10
91.0561
 20
224.657
 30
0.000000
  70
    32
  0
VERTEX
  8
0
  5
99C3
 10
91.0552
 20
224.663
 30
0.000000
  70
    32
  0
VERTEX
  8
0
  5
99C4
 10
91.0543
 20
224.670
 30
0.000000
  70
    32
  0
VERTEX
  8
0
  5
99C5
 10
91.0532
 20
224.676
 30
0.000000
  70
    32
  0
VERTEX
  8
0
  5
99C6
 10
91.0521
 20
224.683
 30
0.000000
  70
    32
  0
VERTEX
  8
0
  5
99C7
 10
91.0509
 20
224.690
 30
0.000000
  70
    32
  0
VERTEX
  8
0
  5
99C8
 10
91.0496
 20
224.696
 30
0.000000
  70
    32
  0
VERTEX
  8
0
  5
99C9
 10
91.0482
 20
224.703
 30
0.000000
  70
    32
  0
VERTEX
  8
0
  5
99CA
 10
91.0467
 20
224.709
 30
0.000000
  70
    32
  0
VERTEX
  8
0
  5
99CB
 10
91.0452
 20
224.716
 30
0.000000
  70
    32
  0
VERTEX
  8
0
  5
99CC
 10
91.0436
 20
224.722
 30
0.000000
  70
    32
  0
VERTEX
  8
0
  5
99CD
 10
91.0419
 20
224.729
 30
0.000000
  70
    32
  0
VERTEX
  8
0
  5
99CE
 10
91.0402
 20
224.735
 30
0.000000
  70
    32
  0
VERTEX
  8
0
  5
99CF
 10
91.0383
 20
224.742
 30
0.000000
  70
    32
  0
VERTEX
  8
0
  5
99D0
 10
91.0364
 20
224.748
 30
0.000000
  70
    32
  0
VERTEX
  8
0
  5
99D1
 10
91.0344
 20
224.755
 30
0.000000
  70
    32
  0
VERTEX
  8
0
  5
99D2
 10
91.0324
 20
224.761
 30
0.000000
  70
    32
  0
VERTEX
  8
0
  5
99D3
 10
91.0302
 20
224.768
 30
0.000000
  70
    32
  0
VERTEX
  8
0
  5
99D4
 10
91.0280
 20
224.774
 30
0.000000
  70
    32
  0
VERTEX
  8
0
  5
99D5
 10
91.0257
 20
224.781
 30
0.000000
  70
    32
  0
VERTEX
  8
0
  5
99D6
 10
91.0233
 20
224.787
 30
0.000000
  70
    32
  0
VERTEX
  8
0
  5
99D7
 10
91.0209
 20
224.794
 30
0.000000
  70
    32
  0
VERTEX
  8
0
  5
99D8
 10
91.0183
 20
224.800
 30
0.000000
  70
    32
  0
VERTEX
  8
0
  5
99D9
 10
91.0157
 20
224.807
 30
0.000000
  70
    32
  0
VERTEX
  8
0
  5
99DA
 10
91.0130
 20
224.813
 30
0.000000
  70
    32
  0
VERTEX
  8
0
  5
99DB
 10
91.0102
 20
224.820
 30
0.000000
  70
    32
  0
VERTEX
  8
0
  5
99DC
 10
91.0074
 20
224.826
 30
0.000000
  70
    32
  0
VERTEX
  8
0
  5
99DD
 10
91.0045
 20
224.833
 30
0.000000
  70
    32
  0
VERTEX
  8
0
  5
99DE
 10
91.0015
 20
224.839
 30
0.000000
  70
    32
  0
VERTEX
  8
0
  5
99DF
 10
90.9984
 20
224.846
 30
0.000000
  70
    32
  0
VERTEX
  8
0
  5
99E0
 10
90.9952
 20
224.852
 30
0.000000
  70
    32
  0
VERTEX
  8
0
  5
99E1
 10
90.9920
 20
224.859
 30
0.000000
  70
    32
  0
VERTEX
  8
0
  5
99E2
 10
90.9887
 20
224.865
 30
0.000000
  70
    32
  0
VERTEX
  8
0
  5
99E3
 10
90.9853
 20
224.872
 30
0.000000
  70
    32
  0
VERTEX
  8
0
  5
99E4
 10
90.9818
 20
224.878
 30
0.000000
  70
    32
  0
VERTEX
  8
0
  5
99E5
 10
90.9783
 20
224.885
 30
0.000000
  70
    32
  0
VERTEX
  8
0
  5
99E6
 10
90.9746
 20
224.891
 30
0.000000
  70
    32
  0
VERTEX
  8
0
  5
99E7
 10
90.9709
 20
224.898
 30
0.000000
  70
    32
  0
VERTEX
  8
0
  5
99E8
 10
90.9672
 20
224.904
 30
0.000000
  70
    32
  0
VERTEX
  8
0
  5
99E9
 10
90.9633
 20
224.911
 30
0.000000
  70
    32
  0
VERTEX
  8
0
  5
99EA
 10
90.9594
 20
224.917
 30
0.000000
  70
    32
  0
VERTEX
  8
0
  5
99EB
 10
90.9554
 20
224.924
 30
0.000000
  70
    32
  0
VERTEX
  8
0
  5
99EC
 10
90.9513
 20
224.930
 30
0.000000
  70
    32
  0
VERTEX
  8
0
  5
99ED
 10
90.9471
 20
224.936
 30
0.000000
  70
    32
  0
VERTEX
  8
0
  5
99EE
 10
90.9429
 20
224.943
 30
0.000000
  70
    32
  0
VERTEX
  8
0
  5
99EF
 10
90.9386
 20
224.949
 30
0.000000
  70
    32
  0
VERTEX
  8
0
  5
99F0
 10
90.9342
 20
224.956
 30
0.000000
  70
    32
  0
VERTEX
  8
0
  5
99F1
 10
90.9297
 20
224.962
 30
0.000000
  70
    32
  0
VERTEX
  8
0
  5
99F2
 10
90.9251
 20
224.969
 30
0.000000
  70
    32
  0
VERTEX
  8
0
  5
99F3
 10
90.9205
 20
224.975
 30
0.000000
  70
    32
  0
VERTEX
  8
0
  5
99F4
 10
90.9158
 20
224.982
 30
0.000000
  70
    32
  0
VERTEX
  8
0
  5
99F5
 10
90.9110
 20
224.988
 30
0.000000
  70
    32
  0
VERTEX
  8
0
  5
99F6
 10
90.9062
 20
224.994
 30
0.000000
  70
    32
  0
VERTEX
  8
0
  5
99F7
 10
90.9012
 20
225.001
 30
0.000000
  70
    32
  0
VERTEX
  8
0
  5
99F8
 10
90.8962
 20
225.007
 30
0.000000
  70
    32
  0
VERTEX
  8
0
  5
99F9
 10
90.8912
 20
225.014
 30
0.000000
  70
    32
  0
VERTEX
  8
0
  5
99FA
 10
90.8860
 20
225.020
 30
0.000000
  70
    32
  0
VERTEX
  8
0
  5
99FB
 10
90.8808
 20
225.026
 30
0.000000
  70
    32
  0
VERTEX
  8
0
  5
99FC
 10
90.8754
 20
225.033
 30
0.000000
  70
    32
  0
VERTEX
  8
0
  5
99FD
 10
90.8701
 20
225.039
 30
0.000000
  70
    32
  0
VERTEX
  8
0
  5
99FE
 10
90.8646
 20
225.045
 30
0.000000
  70
    32
  0
VERTEX
  8
0
  5
99FF
 10
90.8590
 20
225.052
 30
0.000000
  70
    32
  0
VERTEX
  8
0
  5
9A00
 10
90.8534
 20
225.058
 30
0.000000
  70
    32
  0
VERTEX
  8
0
  5
9A01
 10
90.8477
 20
225.065
 30
0.000000
  70
    32
  0
VERTEX
  8
0
  5
9A02
 10
90.8420
 20
225.071
 30
0.000000
  70
    32
  0
VERTEX
  8
0
  5
9A03
 10
90.8361
 20
225.077
 30
0.000000
  70
    32
  0
VERTEX
  8
0
  5
9A04
 10
90.8302
 20
225.084
 30
0.000000
  70
    32
  0
VERTEX
  8
0
  5
9A05
 10
90.8242
 20
225.090
 30
0.000000
  70
    32
  0
VERTEX
  8
0
  5
9A06
 10
90.8181
 20
225.096
 30
0.000000
  70
    32
  0
VERTEX
  8
0
  5
9A07
 10
90.8120
 20
225.103
 30
0.000000
  70
    32
  0
VERTEX
  8
0
  5
9A08
 10
90.8057
 20
225.109
 30
0.000000
  70
    32
  0
VERTEX
  8
0
  5
9A09
 10
90.7994
 20
225.115
 30
0.000000
  70
    32
  0
VERTEX
  8
0
  5
9A0A
 10
90.7931
 20
225.122
 30
0.000000
  70
    32
  0
VERTEX
  8
0
  5
9A0B
 10
90.7866
 20
225.128
 30
0.000000
  70
    32
  0
VERTEX
  8
0
  5
9A0C
 10
90.7801
 20
225.134
 30
0.000000
  70
    32
  0
VERTEX
  8
0
  5
9A0D
 10
90.7735
 20
225.140
 30
0.000000
  70
    32
  0
VERTEX
  8
0
  5
9A0E
 10
90.7668
 20
225.147
 30
0.000000
  70
    32
  0
VERTEX
  8
0
  5
9A0F
 10
90.7601
 20
225.153
 30
0.000000
  70
    32
  0
VERTEX
  8
0
  5
9A10
 10
90.7532
 20
225.159
 30
0.000000
  70
    32
  0
VERTEX
  8
0
  5
9A11
 10
90.7463
 20
225.166
 30
0.000000
  70
    32
  0
VERTEX
  8
0
  5
9A12
 10
90.7393
 20
225.172
 30
0.000000
  70
    32
  0
VERTEX
  8
0
  5
9A13
 10
90.7323
 20
225.178
 30
0.000000
  70
    32
  0
VERTEX
  8
0
  5
9A14
 10
90.7252
 20
225.184
 30
0.000000
  70
    32
  0
VERTEX
  8
0
  5
9A15
 10
90.7180
 20
225.191
 30
0.000000
  70
    32
  0
VERTEX
  8
0
  5
9A16
 10
90.7107
 20
225.197
 30
0.000000
  70
    32
  0
VERTEX
  8
0
  5
9A17
 10
90.7033
 20
225.203
 30
0.000000
  70
    32
  0
VERTEX
  8
0
  5
9A18
 10
90.6959
 20
225.209
 30
0.000000
  70
    32
  0
VERTEX
  8
0
  5
9A19
 10
90.6884
 20
225.216
 30
0.000000
  70
    32
  0
VERTEX
  8
0
  5
9A1A
 10
90.6808
 20
225.222
 30
0.000000
  70
    32
  0
VERTEX
  8
0
  5
9A1B
 10
90.6732
 20
225.228
 30
0.000000
  70
    32
  0
VERTEX
  8
0
  5
9A1C
 10
90.6655
 20
225.234
 30
0.000000
  70
    32
  0
VERTEX
  8
0
  5
9A1D
 10
90.6577
 20
225.240
 30
0.000000
  70
    32
  0
VERTEX
  8
0
  5
9A1E
 10
90.6498
 20
225.247
 30
0.000000
  70
    32
  0
VERTEX
  8
0
  5
9A1F
 10
90.6418
 20
225.253
 30
0.000000
  70
    32
  0
VERTEX
  8
0
  5
9A20
 10
90.6338
 20
225.259
 30
0.000000
  70
    32
  0
VERTEX
  8
0
  5
9A21
 10
90.6257
 20
225.265
 30
0.000000
  70
    32
  0
VERTEX
  8
0
  5
9A22
 10
90.6176
 20
225.271
 30
0.000000
  70
    32
  0
VERTEX
  8
0
  5
9A23
 10
90.6093
 20
225.277
 30
0.000000
  70
    32
  0
VERTEX
  8
0
  5
9A24
 10
90.6010
 20
225.284
 30
0.000000
  70
    32
  0
VERTEX
  8
0
  5
9A25
 10
90.5926
 20
225.290
 30
0.000000
  70
    32
  0
VERTEX
  8
0
  5
9A26
 10
90.5842
 20
225.296
 30
0.000000
  70
    32
  0
VERTEX
  8
0
  5
9A27
 10
90.5756
 20
225.302
 30
0.000000
  70
    32
  0
VERTEX
  8
0
  5
9A28
 10
90.5670
 20
225.308
 30
0.000000
  70
    32
  0
VERTEX
  8
0
  5
9A29
 10
90.5583
 20
225.314
 30
0.000000
  70
    32
  0
VERTEX
  8
0
  5
9A2A
 10
90.5496
 20
225.320
 30
0.000000
  70
    32
  0
VERTEX
  8
0
  5
9A2B
 10
90.5408
 20
225.326
 30
0.000000
  70
    32
  0
VERTEX
  8
0
  5
9A2C
 10
90.5319
 20
225.332
 30
0.000000
  70
    32
  0
VERTEX
  8
0
  5
9A2D
 10
90.5229
 20
225.339
 30
0.000000
  70
    32
  0
VERTEX
  8
0
  5
9A2E
 10
90.5139
 20
225.345
 30
0.000000
  70
    32
  0
VERTEX
  8
0
  5
9A2F
 10
90.5047
 20
225.351
 30
0.000000
  70
    32
  0
VERTEX
  8
0
  5
9A30
 10
90.4955
 20
225.357
 30
0.000000
  70
    32
  0
VERTEX
  8
0
  5
9A31
 10
90.4863
 20
225.363
 30
0.000000
  70
    32
  0
VERTEX
  8
0
  5
9A32
 10
90.4770
 20
225.369
 30
0.000000
  70
    32
  0
VERTEX
  8
0
  5
9A33
 10
90.4675
 20
225.375
 30
0.000000
  70
    32
  0
VERTEX
  8
0
  5
9A34
 10
90.4581
 20
225.381
 30
0.000000
  70
    32
  0
VERTEX
  8
0
  5
9A35
 10
90.4485
 20
225.387
 30
0.000000
  70
    32
  0
VERTEX
  8
0
  5
9A36
 10
90.4389
 20
225.393
 30
0.000000
  70
    32
  0
VERTEX
  8
0
  5
9A37
 10
90.4292
 20
225.399
 30
0.000000
  70
    32
  0
SEQEND
  8
0
  5
9A38
  0
POLYLINE
  5
87FE
  8
0
 10
88.560861003941454
 20
224.5848878720642
 30
0.0
 66
     1
 70
     8
  0
VERTEX
  8
0
  5
9A39
 10
88.5609
 20
224.585
 30
0.000000
  70
    32
  0
VERTEX
  8
0
  5
9A3A
 10
88.5608
 20
224.589
 30
0.000000
  70
    32
  0
VERTEX
  8
0
  5
9A3B
 10
88.5608
 20
224.593
 30
0.000000
  70
    32
  0
VERTEX
  8
0
  5
9A3C
 10
88.5606
 20
224.598
 30
0.000000
  70
    32
  0
VERTEX
  8
0
  5
9A3D
 10
88.5605
 20
224.602
 30
0.000000
  70
    32
  0
VERTEX
  8
0
  5
9A3E
 10
88.5602
 20
224.606
 30
0.000000
  70
    32
  0
VERTEX
  8
0
  5
9A3F
 10
88.5600
 20
224.610
 30
0.000000
  70
    32
  0
VERTEX
  8
0
  5
9A40
 10
88.5597
 20
224.615
 30
0.000000
  70
    32
  0
VERTEX
  8
0
  5
9A41
 10
88.5593
 20
224.619
 30
0.000000
  70
    32
  0
VERTEX
  8
0
  5
9A42
 10
88.5589
 20
224.623
 30
0.000000
  70
    32
  0
VERTEX
  8
0
  5
9A43
 10
88.5584
 20
224.627
 30
0.000000
  70
    32
  0
VERTEX
  8
0
  5
9A44
 10
88.5579
 20
224.631
 30
0.000000
  70
    32
  0
VERTEX
  8
0
  5
9A45
 10
88.5573
 20
224.636
 30
0.000000
  70
    32
  0
VERTEX
  8
0
  5
9A46
 10
88.5567
 20
224.640
 30
0.000000
  70
    32
  0
VERTEX
  8
0
  5
9A47
 10
88.5560
 20
224.644
 30
0.000000
  70
    32
  0
VERTEX
  8
0
  5
9A48
 10
88.5553
 20
224.648
 30
0.000000
  70
    32
  0
VERTEX
  8
0
  5
9A49
 10
88.5546
 20
224.653
 30
0.000000
  70
    32
  0
VERTEX
  8
0
  5
9A4A
 10
88.5538
 20
224.657
 30
0.000000
  70
    32
  0
VERTEX
  8
0
  5
9A4B
 10
88.5529
 20
224.661
 30
0.000000
  70
    32
  0
VERTEX
  8
0
  5
9A4C
 10
88.5520
 20
224.665
 30
0.000000
  70
    32
  0
VERTEX
  8
0
  5
9A4D
 10
88.5510
 20
224.670
 30
0.000000
  70
    32
  0
VERTEX
  8
0
  5
9A4E
 10
88.5500
 20
224.674
 30
0.000000
  70
    32
  0
VERTEX
  8
0
  5
9A4F
 10
88.5490
 20
224.678
 30
0.000000
  70
    32
  0
VERTEX
  8
0
  5
9A50
 10
88.5479
 20
224.682
 30
0.000000
  70
    32
  0
VERTEX
  8
0
  5
9A51
 10
88.5467
 20
224.686
 30
0.000000
  70
    32
  0
VERTEX
  8
0
  5
9A52
 10
88.5455
 20
224.691
 30
0.000000
  70
    32
  0
VERTEX
  8
0
  5
9A53
 10
88.5442
 20
224.695
 30
0.000000
  70
    32
  0
VERTEX
  8
0
  5
9A54
 10
88.5429
 20
224.699
 30
0.000000
  70
    32
  0
VERTEX
  8
0
  5
9A55
 10
88.5416
 20
224.703
 30
0.000000
  70
    32
  0
VERTEX
  8
0
  5
9A56
 10
88.5402
 20
224.708
 30
0.000000
  70
    32
  0
VERTEX
  8
0
  5
9A57
 10
88.5387
 20
224.712
 30
0.000000
  70
    32
  0
VERTEX
  8
0
  5
9A58
 10
88.5372
 20
224.716
 30
0.000000
  70
    32
  0
VERTEX
  8
0
  5
9A59
 10
88.5357
 20
224.720
 30
0.000000
  70
    32
  0
VERTEX
  8
0
  5
9A5A
 10
88.5341
 20
224.724
 30
0.000000
  70
    32
  0
VERTEX
  8
0
  5
9A5B
 10
88.5325
 20
224.729
 30
0.000000
  70
    32
  0
VERTEX
  8
0
  5
9A5C
 10
88.5308
 20
224.733
 30
0.000000
  70
    32
  0
VERTEX
  8
0
  5
9A5D
 10
88.5290
 20
224.737
 30
0.000000
  70
    32
  0
VERTEX
  8
0
  5
9A5E
 10
88.5272
 20
224.741
 30
0.000000
  70
    32
  0
VERTEX
  8
0
  5
9A5F
 10
88.5254
 20
224.746
 30
0.000000
  70
    32
  0
VERTEX
  8
0
  5
9A60
 10
88.5235
 20
224.750
 30
0.000000
  70
    32
  0
VERTEX
  8
0
  5
9A61
 10
88.5216
 20
224.754
 30
0.000000
  70
    32
  0
VERTEX
  8
0
  5
9A62
 10
88.5196
 20
224.758
 30
0.000000
  70
    32
  0
VERTEX
  8
0
  5
9A63
 10
88.5175
 20
224.762
 30
0.000000
  70
    32
  0
VERTEX
  8
0
  5
9A64
 10
88.5155
 20
224.767
 30
0.000000
  70
    32
  0
VERTEX
  8
0
  5
9A65
 10
88.5133
 20
224.771
 30
0.000000
  70
    32
  0
VERTEX
  8
0
  5
9A66
 10
88.5111
 20
224.775
 30
0.000000
  70
    32
  0
VERTEX
  8
0
  5
9A67
 10
88.5089
 20
224.779
 30
0.000000
  70
    32
  0
VERTEX
  8
0
  5
9A68
 10
88.5066
 20
224.783
 30
0.000000
  70
    32
  0
VERTEX
  8
0
  5
9A69
 10
88.5043
 20
224.788
 30
0.000000
  70
    32
  0
VERTEX
  8
0
  5
9A6A
 10
88.5019
 20
224.792
 30
0.000000
  70
    32
  0
VERTEX
  8
0
  5
9A6B
 10
88.4995
 20
224.796
 30
0.000000
  70
    32
  0
VERTEX
  8
0
  5
9A6C
 10
88.4970
 20
224.800
 30
0.000000
  70
    32
  0
VERTEX
  8
0
  5
9A6D
 10
88.4945
 20
224.804
 30
0.000000
  70
    32
  0
VERTEX
  8
0
  5
9A6E
 10
88.4919
 20
224.808
 30
0.000000
  70
    32
  0
VERTEX
  8
0
  5
9A6F
 10
88.4893
 20
224.813
 30
0.000000
  70
    32
  0
VERTEX
  8
0
  5
9A70
 10
88.4866
 20
224.817
 30
0.000000
  70
    32
  0
VERTEX
  8
0
  5
9A71
 10
88.4839
 20
224.821
 30
0.000000
  70
    32
  0
VERTEX
  8
0
  5
9A72
 10
88.4812
 20
224.825
 30
0.000000
  70
    32
  0
VERTEX
  8
0
  5
9A73
 10
88.4784
 20
224.829
 30
0.000000
  70
    32
  0
VERTEX
  8
0
  5
9A74
 10
88.4755
 20
224.833
 30
0.000000
  70
    32
  0
VERTEX
  8
0
  5
9A75
 10
88.4726
 20
224.838
 30
0.000000
  70
    32
  0
VERTEX
  8
0
  5
9A76
 10
88.4696
 20
224.842
 30
0.000000
  70
    32
  0
VERTEX
  8
0
  5
9A77
 10
88.4666
 20
224.846
 30
0.000000
  70
    32
  0
VERTEX
  8
0
  5
9A78
 10
88.4636
 20
224.850
 30
0.000000
  70
    32
  0
VERTEX
  8
0
  5
9A79
 10
88.4605
 20
224.854
 30
0.000000
  70
    32
  0
VERTEX
  8
0
  5
9A7A
 10
88.4573
 20
224.858
 30
0.000000
  70
    32
  0
VERTEX
  8
0
  5
9A7B
 10
88.4541
 20
224.863
 30
0.000000
  70
    32
  0
VERTEX
  8
0
  5
9A7C
 10
88.4509
 20
224.867
 30
0.000000
  70
    32
  0
VERTEX
  8
0
  5
9A7D
 10
88.4476
 20
224.871
 30
0.000000
  70
    32
  0
VERTEX
  8
0
  5
9A7E
 10
88.4442
 20
224.875
 30
0.000000
  70
    32
  0
VERTEX
  8
0
  5
9A7F
 10
88.4408
 20
224.879
 30
0.000000
  70
    32
  0
VERTEX
  8
0
  5
9A80
 10
88.4374
 20
224.883
 30
0.000000
  70
    32
  0
VERTEX
  8
0
  5
9A81
 10
88.4339
 20
224.887
 30
0.000000
  70
    32
  0
VERTEX
  8
0
  5
9A82
 10
88.4304
 20
224.892
 30
0.000000
  70
    32
  0
VERTEX
  8
0
  5
9A83
 10
88.4268
 20
224.896
 30
0.000000
  70
    32
  0
VERTEX
  8
0
  5
9A84
 10
88.4232
 20
224.900
 30
0.000000
  70
    32
  0
VERTEX
  8
0
  5
9A85
 10
88.4195
 20
224.904
 30
0.000000
  70
    32
  0
VERTEX
  8
0
  5
9A86
 10
88.4157
 20
224.908
 30
0.000000
  70
    32
  0
VERTEX
  8
0
  5
9A87
 10
88.4120
 20
224.912
 30
0.000000
  70
    32
  0
VERTEX
  8
0
  5
9A88
 10
88.4082
 20
224.916
 30
0.000000
  70
    32
  0
VERTEX
  8
0
  5
9A89
 10
88.4043
 20
224.920
 30
0.000000
  70
    32
  0
VERTEX
  8
0
  5
9A8A
 10
88.4004
 20
224.924
 30
0.000000
  70
    32
  0
VERTEX
  8
0
  5
9A8B
 10
88.3964
 20
224.929
 30
0.000000
  70
    32
  0
VERTEX
  8
0
  5
9A8C
 10
88.3924
 20
224.933
 30
0.000000
  70
    32
  0
VERTEX
  8
0
  5
9A8D
 10
88.3883
 20
224.937
 30
0.000000
  70
    32
  0
VERTEX
  8
0
  5
9A8E
 10
88.3842
 20
224.941
 30
0.000000
  70
    32
  0
VERTEX
  8
0
  5
9A8F
 10
88.3801
 20
224.945
 30
0.000000
  70
    32
  0
VERTEX
  8
0
  5
9A90
 10
88.3759
 20
224.949
 30
0.000000
  70
    32
  0
VERTEX
  8
0
  5
9A91
 10
88.3716
 20
224.953
 30
0.000000
  70
    32
  0
VERTEX
  8
0
  5
9A92
 10
88.3673
 20
224.957
 30
0.000000
  70
    32
  0
VERTEX
  8
0
  5
9A93
 10
88.3630
 20
224.961
 30
0.000000
  70
    32
  0
VERTEX
  8
0
  5
9A94
 10
88.3586
 20
224.965
 30
0.000000
  70
    32
  0
VERTEX
  8
0
  5
9A95
 10
88.3541
 20
224.969
 30
0.000000
  70
    32
  0
VERTEX
  8
0
  5
9A96
 10
88.3496
 20
224.973
 30
0.000000
  70
    32
  0
VERTEX
  8
0
  5
9A97
 10
88.3451
 20
224.977
 30
0.000000
  70
    32
  0
VERTEX
  8
0
  5
9A98
 10
88.3405
 20
224.982
 30
0.000000
  70
    32
  0
VERTEX
  8
0
  5
9A99
 10
88.3359
 20
224.986
 30
0.000000
  70
    32
  0
VERTEX
  8
0
  5
9A9A
 10
88.3312
 20
224.990
 30
0.000000
  70
    32
  0
VERTEX
  8
0
  5
9A9B
 10
88.3265
 20
224.994
 30
0.000000
  70
    32
  0
VERTEX
  8
0
  5
9A9C
 10
88.3217
 20
224.998
 30
0.000000
  70
    32
  0
VERTEX
  8
0
  5
9A9D
 10
88.3169
 20
225.002
 30
0.000000
  70
    32
  0
VERTEX
  8
0
  5
9A9E
 10
88.3121
 20
225.006
 30
0.000000
  70
    32
  0
VERTEX
  8
0
  5
9A9F
 10
88.3072
 20
225.010
 30
0.000000
  70
    32
  0
VERTEX
  8
0
  5
9AA0
 10
88.3022
 20
225.014
 30
0.000000
  70
    32
  0
VERTEX
  8
0
  5
9AA1
 10
88.2972
 20
225.018
 30
0.000000
  70
    32
  0
VERTEX
  8
0
  5
9AA2
 10
88.2922
 20
225.022
 30
0.000000
  70
    32
  0
VERTEX
  8
0
  5
9AA3
 10
88.2871
 20
225.026
 30
0.000000
  70
    32
  0
VERTEX
  8
0
  5
9AA4
 10
88.2819
 20
225.030
 30
0.000000
  70
    32
  0
VERTEX
  8
0
  5
9AA5
 10
88.2767
 20
225.034
 30
0.000000
  70
    32
  0
VERTEX
  8
0
  5
9AA6
 10
88.2715
 20
225.038
 30
0.000000
  70
    32
  0
VERTEX
  8
0
  5
9AA7
 10
88.2662
 20
225.042
 30
0.000000
  70
    32
  0
VERTEX
  8
0
  5
9AA8
 10
88.2609
 20
225.046
 30
0.000000
  70
    32
  0
VERTEX
  8
0
  5
9AA9
 10
88.2555
 20
225.050
 30
0.000000
  70
    32
  0
VERTEX
  8
0
  5
9AAA
 10
88.2501
 20
225.054
 30
0.000000
  70
    32
  0
VERTEX
  8
0
  5
9AAB
 10
88.2446
 20
225.058
 30
0.000000
  70
    32
  0
VERTEX
  8
0
  5
9AAC
 10
88.2391
 20
225.062
 30
0.000000
  70
    32
  0
VERTEX
  8
0
  5
9AAD
 10
88.2336
 20
225.066
 30
0.000000
  70
    32
  0
VERTEX
  8
0
  5
9AAE
 10
88.2280
 20
225.070
 30
0.000000
  70
    32
  0
VERTEX
  8
0
  5
9AAF
 10
88.2223
 20
225.074
 30
0.000000
  70
    32
  0
VERTEX
  8
0
  5
9AB0
 10
88.2166
 20
225.078
 30
0.000000
  70
    32
  0
VERTEX
  8
0
  5
9AB1
 10
88.2109
 20
225.081
 30
0.000000
  70
    32
  0
VERTEX
  8
0
  5
9AB2
 10
88.2051
 20
225.085
 30
0.000000
  70
    32
  0
VERTEX
  8
0
  5
9AB3
 10
88.1992
 20
225.089
 30
0.000000
  70
    32
  0
VERTEX
  8
0
  5
9AB4
 10
88.1934
 20
225.093
 30
0.000000
  70
    32
  0
VERTEX
  8
0
  5
9AB5
 10
88.1874
 20
225.097
 30
0.000000
  70
    32
  0
VERTEX
  8
0
  5
9AB6
 10
88.1815
 20
225.101
 30
0.000000
  70
    32
  0
VERTEX
  8
0
  5
9AB7
 10
88.1755
 20
225.105
 30
0.000000
  70
    32
  0
VERTEX
  8
0
  5
9AB8
 10
88.1694
 20
225.109
 30
0.000000
  70
    32
  0
VERTEX
  8
0
  5
9AB9
 10
88.1633
 20
225.113
 30
0.000000
  70
    32
  0
SEQEND
  8
0
  5
9ABA
  0
LINE
  5
87FF
  8
0
 10
81.207214840409463
 20
229.5400483545526
 30
0.0
 11
88.163291779629404
 21
225.1128157994026
 31
0.0
  0
POLYLINE
  5
8804
  8
0
 66
     1
 10
0.0
 20
0.0
 30
0.0
 70
   128
  0
VERTEX
  5
95A3
  8
0
 10
88.210861003941716
 20
203.6418386313895
 30
0.0
  0
VERTEX
  5
95A4
  8
0
 10
88.438325130447737
 20
203.52788987924029
 30
0.0
  0
VERTEX
  5
95A5
  8
0
 10
88.552404046830816
 20
203.131432629383
 30
0.0
  0
VERTEX
  5
95A6
  8
0
 10
88.56086100394154
 20
202.90209113022391
 30
0.0
  0
SEQEND
  5
95A7
  8
0
  0
POLYLINE
  5
8805
  8
0
 66
     1
 10
0.0
 20
0.0
 30
0.0
 70
   128
  0
VERTEX
  5
95A8
  8
0
 10
72.910861003941733
 20
203.6418386313897
 30
0.0
  0
VERTEX
  5
95A9
  8
0
 10
72.683396877435342
 20
203.52788987924029
 30
0.0
  0
VERTEX
  5
95AA
  8
0
 10
72.569317961052263
 20
203.1314326293828
 30
0.0
  0
VERTEX
  5
95AB
  8
0
 10
72.56086100394154
 20
202.90209113022379
 30
0.0
  0
SEQEND
  5
95AC
  8
0
  0
LINE
  5
8809
  8
0
 10
83.110861003941295
 20
236.0760231527241
 30
0.0
 11
78.010861003941301
 21
236.07602315272399
 31
0.0
  0
POLYLINE
  5
880C
  8
0
 66
     1
 10
0.0
 20
0.0
 30
0.0
 70
   128
  0
VERTEX
  5
95AD
  8
0
 10
83.810861003941767
 20
195.67602315272401
 30
0.0
  0
VERTEX
  5
95AE
  8
0
 10
82.185861003941767
 20
195.82926028474409
 30
0.0
  0
VERTEX
  5
95AF
  8
0
 10
80.560861003941767
 20
196.2565797363248
 30
0.0
  0
SEQEND
  5
95B0
  8
0
  0
LINE
  5
880D
  8
0
 10
80.560861003941724
 20
196.2565797363248
 30
0.0
 11
80.560861041456661
 21
199.09546658162819
 31
0.0
  0
POLYLINE
  5
880E
  8
0
 66
     1
 10
0.0
 20
0.0
 30
0.0
 70
   128
  0
VERTEX
  5
95B1
  8
0
 10
80.560861078971584
 20
199.0954665941332
 30
0.0
  0
VERTEX
  5
95B2
  8
0
 10
82.15312788925695
 20
199.51667748449461
 30
0.0
  0
VERTEX
  5
95B3
  8
0
 10
83.810861003941739
 20
199.67602315272401
 30
0.0
  0
SEQEND
  5
95B4
  8
0
  0
POLYLINE
  5
880F
  8
0
 66
     1
 10
0.0
 20
0.0
 30
0.0
 70
   128
  0
VERTEX
  5
95B5
  8
0
 10
83.810861003941739
 20
199.67602315272401
 30
0.0
  0
VERTEX
  5
95B6
  8
0
 10
85.435860966426787
 20
199.52278602764059
 30
0.0
  0
VERTEX
  5
95B7
  8
0
 10
87.060860928911865
 20
199.09546659413331
 30
0.0
  0
SEQEND
  5
95B8
  8
0
  0
POLYLINE
  5
8811
  8
0
 66
     1
 10
0.0
 20
0.0
 30
0.0
 70
   128
  0
VERTEX
  5
95B9
  8
0
 10
87.060861003941724
 20
196.2565797363248
 30
0.0
  0
VERTEX
  5
95BA
  8
0
 10
85.468594157981556
 20
195.83536882836529
 30
0.0
  0
VERTEX
  5
95BB
  8
0
 10
83.810861003941767
 20
195.67602315272401
 30
0.0
  0
SEQEND
  5
95BC
  8
0
  0
POLYLINE
  5
8812
  8
0
 66
     1
 10
0.0
 20
0.0
 30
0.0
 70
   128
  0
VERTEX
  5
95BD
  8
0
 10
77.31086100394171
 20
195.67602315272401
 30
0.0
  0
VERTEX
  5
95BE
  8
0
 10
75.685861003941739
 20
195.82926028474409
 30
0.0
  0
VERTEX
  5
95BF
  8
0
 10
74.060861003941767
 20
196.2565797363248
 30
0.0
  0
SEQEND
  5
95C0
  8
0
  0
POLYLINE
  5
8814
  8
0
 66
     1
 10
0.0
 20
0.0
 30
0.0
 70
   128
  0
VERTEX
  5
95C1
  8
0
 10
74.060861078971584
 20
199.0954665941332
 30
0.0
  0
VERTEX
  5
95C2
  8
0
 10
75.653127889256922
 20
199.51667748449461
 30
0.0
  0
VERTEX
  5
95C3
  8
0
 10
77.310861003941739
 20
199.67602315272401
 30
0.0
  0
SEQEND
  5
95C4
  8
0
  0
POLYLINE
  5
8815
  8
0
 66
     1
 10
0.0
 20
0.0
 30
0.0
 70
   128
  0
VERTEX
  5
95C5
  8
0
 10
77.310861003941739
 20
199.67602315272401
 30
0.0
  0
VERTEX
  5
95C6
  8
0
 10
78.935861015537114
 20
199.52278601855991
 30
0.0
  0
VERTEX
  5
95C7
  8
0
 10
80.560861027132489
 20
199.09546656139301
 30
0.0
  0
SEQEND
  5
95C8
  8
0
  0
POLYLINE
  5
8816
  8
0
 66
     1
 10
0.0
 20
0.0
 30
0.0
 70
   128
  0
VERTEX
  5
95C9
  8
0
 10
80.560861003941724
 20
196.2565797363248
 30
0.0
  0
VERTEX
  5
95CA
  8
0
 10
78.968594157981499
 20
195.83536882836529
 30
0.0
  0
VERTEX
  5
95CB
  8
0
 10
77.31086100394171
 20
195.67602315272401
 30
0.0
  0
SEQEND
  5
95CC
  8
0
  0
LINE
  5
881B
  8
0
 10
74.060861003941739
 20
195.6760231527239
 30
0.0
 11
87.060861003941724
 21
195.67602315272401
 31
0.0
  0
LINE
  5
881C
  8
0
 10
87.060861003941866
 20
195.67602315272401
 30
0.0
 11
87.060861003941724
 21
199.67602315272401
 31
0.0
  0
LINE
  5
881D
  8
0
 10
74.060861003941739
 20
199.67602315272401
 30
0.0
 11
74.06086100394171
 21
195.6760231527239
 31
0.0
  0
LINE
  5
881E
  8
0
 10
74.060861003941824
 20
172.67602315272401
 30
0.0
 11
87.060861003941866
 21
172.67602315272401
 31
0.0
  0
LINE
  5
881F
  8
0
 10
80.560861003941852
 20
168.14546040085199
 30
0.0
 11
80.560861003941824
 21
172.67602315272401
 31
0.0
  0
POLYLINE
  5
8820
  8
0
 66
     1
 10
0.0
 20
0.0
 30
0.0
 70
   128
  0
VERTEX
  5
95CD
  8
0
 10
80.560861003941852
 20
168.14546040085199
 30
0.0
  0
VERTEX
  5
95CE
  8
0
 10
78.943167441509956
 20
167.94776903694131
 30
0.0
  0
VERTEX
  5
95CF
  8
0
 10
77.310861003941852
 20
167.87602315272409
 30
0.0
  0
SEQEND
  5
95D0
  8
0
  0
POLYLINE
  5
8821
  8
0
 66
     1
 10
0.0
 20
0.0
 30
0.0
 70
   128
  0
VERTEX
  5
95D1
  8
0
 10
77.310861003941852
 20
167.87602315272409
 30
0.0
  0
VERTEX
  5
95D2
  8
0
 10
75.685861003941852
 20
167.94714075319359
 30
0.0
  0
VERTEX
  5
95D3
  8
0
 10
74.060861003941824
 20
168.14546040085199
 30
0.0
  0
SEQEND
  5
95D4
  8
0
  0
LINE
  5
8822
  8
0
 10
74.060861003941824
 20
172.67602315272401
 30
0.0
 11
74.060861003941824
 21
167.876023152724
 31
0.0
  0
LINE
  5
8824
  8
0
 10
87.060861003941866
 20
167.87602315272409
 30
0.0
 11
87.060861003941866
 21
172.67602315272401
 31
0.0
  0
POLYLINE
  5
8825
  8
0
 66
     1
 10
0.0
 20
0.0
 30
0.0
 70
   128
  0
VERTEX
  5
95D5
  8
0
 10
87.060861003941881
 20
168.14546040085199
 30
0.0
  0
VERTEX
  5
95D6
  8
0
 10
85.443167441509985
 20
167.94776903694139
 30
0.0
  0
VERTEX
  5
95D7
  8
0
 10
83.810861003941852
 20
167.87602315272409
 30
0.0
  0
SEQEND
  5
95D8
  8
0
  0
POLYLINE
  5
8826
  8
0
 66
     1
 10
0.0
 20
0.0
 30
0.0
 70
   128
  0
VERTEX
  5
95D9
  8
0
 10
83.810861003941852
 20
167.87602315272409
 30
0.0
  0
VERTEX
  5
95DA
  8
0
 10
82.185861003941852
 20
167.94714075319371
 30
0.0
  0
VERTEX
  5
95DB
  8
0
 10
80.560861003941852
 20
168.14546040085199
 30
0.0
  0
SEQEND
  5
95DC
  8
0
  0
LINE
  5
8829
  8
0
 10
74.760861003941812
 20
173.17602315272401
 30
0.0
 11
86.360861003941835
 21
173.17602315272401
 31
0.0
  0
LINE
  5
882D
  8
0
 10
74.060861003941824
 20
167.876023152724
 30
0.0
 11
87.060861003941866
 21
167.87602315272409
 31
0.0
  0
LINE
  5
882E
  8
0
 10
84.560861003941639
 20
217.40902315272399
 30
0.0
 11
76.560861003941653
 21
217.40902315272399
 31
0.0
  0
LINE
  5
8830
  8
0
 10
83.793861003969027
 20
218.1760231527094
 30
0.0
 11
77.327861003914279
 21
218.1760231527094
 31
0.0
  0
LINE
  5
8837
  8
0
 10
500.10086100394273
 20
178.16602315272399
 30
0.0
 11
500.10086100394273
 21
173.1760231527241
 31
0.0
  0
LINE
  5
8838
  8
0
 10
508.10086100394278
 20
173.1760231527241
 30
0.0
 11
508.1008610039429
 21
178.16602315272399
 31
0.0
  0
LINE
  5
883D
  8
0
 10
496.45086100394292
 20
202.94646302935101
 30
0.0
 11
496.45086100394292
 21
202.1760231527241
 31
0.0
  0
LINE
  5
883E
  8
0
 10
511.75086100394287
 20
202.1760231527241
 30
0.0
 11
511.75086100394287
 21
202.94646302935101
 31
0.0
  0
LINE
  5
8855
  8
0
 10
501.5508610039426
 20
199.66602315272411
 30
0.0
 11
501.60086100394273
 21
199.66602315272411
 31
0.0
  0
LINE
  5
8856
  8
0
 10
501.5508610039426
 20
201.0516966944638
 30
0.0
 11
501.5508610039426
 21
199.66602315272411
 31
0.0
  0
LINE
  5
8857
  8
0
 10
506.65086100394262
 20
199.66602315272411
 30
0.0
 11
506.65086100394262
 21
201.00169669453359
 31
0.0
  0
POLYLINE
  5
8866
  8
0
 66
     1
 10
0.0
 20
0.0
 30
0.0
 70
   128
  0
VERTEX
  5
95DD
  8
0
 10
493.6030576319053
 20
203.05204101464139
 30
0.0
  0
VERTEX
  5
95DE
  8
0
 10
493.67098282359109
 20
203.5025412674531
 30
0.0
  0
VERTEX
  5
95DF
  8
0
 10
493.75249602509552
 20
203.6241493104294
 30
0.0
  0
VERTEX
  5
95E0
  8
0
 10
493.87244485654219
 20
203.66602315272419
 30
0.0
  0
SEQEND
  5
95E1
  8
0
  0
LINE
  5
8867
  8
0
 10
493.6030576319053
 20
203.05204101464139
 30
0.0
 11
493.60086100394273
 21
203.17602315272421
 31
0.0
  0
LINE
  5
8868
  8
0
 10
493.60086100394273
 20
203.17602315272421
 30
0.0
 11
493.60086100394278
 21
210.17495068854041
 31
0.0
  0
LINE
  5
8869
  8
0
 10
493.87244485654219
 20
203.66602315272419
 30
0.0
 11
495.64060550276918
 21
203.66602315272419
 31
0.0
  0
LINE
  5
886B
  8
0
 10
514.60086100394267
 20
203.17602315272401
 30
0.0
 11
514.60086100394267
 21
210.17495068854029
 31
0.0
  0
LINE
  5
886C
  8
0
 10
514.60086100394267
 20
203.17602315272401
 30
0.0
 11
514.59866437598021
 21
203.0520410146413
 31
0.0
  0
POLYLINE
  5
886D
  8
0
 66
     1
 10
0.0
 20
0.0
 30
0.0
 70
   128
  0
VERTEX
  5
95E2
  8
0
 10
514.32927715134315
 20
203.66602315272399
 30
0.0
  0
VERTEX
  5
95E3
  8
0
 10
514.52394563999655
 20
203.5186762492053
 30
0.0
  0
VERTEX
  5
95E4
  8
0
 10
514.57561169788858
 20
203.3271315891061
 30
0.0
  0
VERTEX
  5
95E5
  8
0
 10
514.59866437598021
 20
203.0520410146413
 30
0.0
  0
SEQEND
  5
95E6
  8
0
  0
LINE
  5
886E
  8
0
 10
512.56111650511787
 20
203.66602315272459
 30
0.0
 11
514.32927715134315
 21
203.66602315272399
 31
0.0
  0
POLYLINE
  5
8870
  8
0
 66
     1
 10
0.0
 20
0.0
 30
0.0
 70
   128
  0
VERTEX
  5
95E7
  8
0
 10
512.09922479222701
 20
202.94646302935101
 30
0.0
  0
VERTEX
  5
95E8
  8
0
 10
512.10086100394267
 20
202.90209113022391
 30
0.0
  0
SEQEND
  5
95E9
  8
0
  0
POLYLINE
  5
8871
  8
0
 66
     1
 10
0.0
 20
0.0
 30
0.0
 70
   128
  0
VERTEX
  5
95EA
  8
0
 10
496.1024972156585
 20
202.94646302935101
 30
0.0
  0
VERTEX
  5
95EB
  8
0
 10
496.10086100394273
 20
202.90209113022399
 30
0.0
  0
SEQEND
  5
95EC
  8
0
  0
ARC
  5
8872
  8
0
 10
511.10086100394261
 20
203.17602315272421
 30
0.0
 40
3.4999999999999938
 50
314.18090954933092
 51
357.96996007900009
  0
ARC
  5
8873
  8
0
 10
497.10086100394318
 20
203.17602315272441
 30
0.0
 40
3.5000000000005982
 50
182.03003992100631
 51
225.8190904506645
  0
LINE
  5
8874
  8
0
 10
496.10086100394273
 20
202.1760231527241
 30
0.0
 11
496.10086100394273
 21
202.90209113022399
 31
0.0
  0
LINE
  5
8875
  8
0
 10
496.10086100394273
 20
202.1760231527241
 30
0.0
 11
497.05086100394249
 21
202.1760231527243
 31
0.0
  0
LINE
  5
8876
  8
0
 10
511.15086100394262
 20
202.1760231527241
 30
0.0
 11
512.10086100394267
 21
202.1760231527241
 31
0.0
  0
LINE
  5
8877
  8
0
 10
512.10086100394267
 20
202.1760231527241
 30
0.0
 11
512.10086100394267
 21
202.90209113022391
 31
0.0
  0
LINE
  5
887A
  8
0
 10
508.65086100394268
 20
199.6760231527241
 30
0.0
 11
506.65086100394262
 21
199.6760231527241
 31
0.0
  0
LINE
  5
887B
  8
0
 10
501.5508610039426
 20
199.6760231527241
 30
0.0
 11
499.55086100394249
 21
199.6760231527241
 31
0.0
  0
ARC
  5
887C
  8
0
 10
511.10086100394273
 20
203.17602315272421
 30
0.0
 40
3.4999999999999738
 50
270.81853897897088
 51
314.18090954932859
  0
ARC
  5
887D
  8
0
 10
497.10086100394273
 20
203.17602315272421
 30
0.0
 40
3.4999999999999711
 50
225.81909045067371
 51
269.18146102102583
  0
POLYLINE
  5
8892
  8
0
 66
     1
 10
0.0
 20
0.0
 30
0.0
 70
   128
  0
VERTEX
  5
95ED
  8
0
 10
508.65086100394268
 20
167.93316294420919
 30
0.0
  0
VERTEX
  5
95EE
  8
0
 10
507.35086100394273
 20
167.87602315272409
 30
0.0
  0
SEQEND
  5
95EF
  8
0
  0
POLYLINE
  5
8893
  8
0
 66
     1
 10
0.0
 20
0.0
 30
0.0
 70
   128
  0
VERTEX
  5
95F0
  8
0
 10
507.35086100394273
 20
167.87602315272409
 30
0.0
  0
VERTEX
  5
95F1
  8
0
 10
505.72586100394273
 20
167.94714075319371
 30
0.0
  0
VERTEX
  5
95F2
  8
0
 10
504.10086100394273
 20
168.1454604008521
 30
0.0
  0
SEQEND
  5
95F3
  8
0
  0
LINE
  5
8894
  8
0
 10
504.10086100394273
 20
168.1454604008521
 30
0.0
 11
504.10086100394273
 21
172.6760231527241
 31
0.0
  0
LINE
  5
8895
  8
0
 10
499.55086100394249
 20
172.6760231527241
 30
0.0
 11
508.65086100394268
 21
172.6760231527241
 31
0.0
  0
POLYLINE
  5
8896
  8
0
 66
     1
 10
0.0
 20
0.0
 30
0.0
 70
   128
  0
VERTEX
  5
95F4
  8
0
 10
504.10086100394273
 20
168.1454604008521
 30
0.0
  0
VERTEX
  5
95F5
  8
0
 10
502.48316744151077
 20
167.94776903694139
 30
0.0
  0
VERTEX
  5
95F6
  8
0
 10
500.85086100394261
 20
167.8760231527242
 30
0.0
  0
SEQEND
  5
95F7
  8
0
  0
POLYLINE
  5
8897
  8
0
 66
     1
 10
0.0
 20
0.0
 30
0.0
 70
   128
  0
VERTEX
  5
95F8
  8
0
 10
500.85086100394261
 20
167.8760231527242
 30
0.0
  0
VERTEX
  5
95F9
  8
0
 10
499.55086100394249
 20
167.93291723309989
 30
0.0
  0
SEQEND
  5
95FA
  8
0
  0
LINE
  5
889A
  8
0
 10
499.5508610039426
 20
173.1760231527241
 30
0.0
 11
508.65086100394268
 21
173.17602315272401
 31
0.0
  0
LINE
  5
889E
  8
0
 10
499.55086100394249
 20
167.8760231527242
 30
0.0
 11
508.65086100394268
 21
167.8760231527242
 31
0.0
  0
ARC
  5
88A2
  8
0
 10
189.060861003941
 20
66.166023152700006
 30
0.0
 40
8.4226497308104005
 50
330.8706651555438
 51
29.12933484445616
  0
ARC
  5
88A3
  8
0
 10
189.06086100394111
 20
66.166023152700006
 30
0.0
 40
8.9999999999999947
 50
160.81186354627741
 51
199.18813645372259
  0
ARC
  5
88A4
  8
0
 10
189.06086100394111
 20
66.166023152700006
 30
0.0
 40
9.0000000000000018
 50
332.89931465176261
 51
27.10068534823737
  0
LINE
  5
88A5
  8
0
 10
180.56086100394111
 20
59.166023152700006
 30
0.0
 11
233.56086100394111
 21
59.166023152700006
 31
0.0
  0
LINE
  5
88A6
  8
0
 10
233.56086100394111
 20
56.726781467257581
 30
0.0
 11
233.56086100394131
 21
75.60526483814391
 31
0.0
  0
POLYLINE
  5
88A7
  8
0
 66
     1
 10
0.0
 20
0.0
 30
0.0
 70
   128
  0
VERTEX
  5
95FB
  8
0
 10
234.74236746185409
 20
55.668219780662582
 30
0.0
  0
VERTEX
  5
95FC
  8
0
 10
234.1372056830871
 20
55.7455749731526
 30
0.0
  0
VERTEX
  5
95FD
  8
0
 10
233.74374121132641
 20
55.99367167763495
 30
0.0
  0
VERTEX
  5
95FE
  8
0
 10
233.580963521174
 20
56.414624209791732
 30
0.0
  0
VERTEX
  5
95FF
  8
0
 10
233.56086100394111
 20
56.726781467257581
 30
0.0
  0
SEQEND
  5
9600
  8
0
  0
LINE
  5
88A8
  8
0
 10
234.56086100394111
 20
55.666023152699999
 30
0.0
 11
234.74236746185409
 21
55.668219780662582
 31
0.0
  0
LINE
  5
88A9
  8
0
 10
180.560861003941
 20
55.666023152699999
 30
0.0
 11
234.56086100394111
 21
55.666023152699999
 31
0.0
  0
LINE
  5
88AA
  8
0
 10
180.560861003941
 20
55.666023152699999
 30
0.0
 11
180.56086100394111
 21
59.166023152700006
 31
0.0
  0
ARC
  5
88AB
  8
0
 10
226.060861003941
 20
66.166023152700006
 30
0.0
 40
4.1000000000000041
 50
270.0
 51
90.0
  0
LINE
  5
88AC
  8
0
 10
194.19927839972891
 20
70.266023152700029
 30
0.0
 11
226.060861003941
 21
70.266023152700029
 31
0.0
  0
LINE
  5
88AD
  8
0
 10
226.060861003941
 20
62.066023152699977
 30
0.0
 11
194.1992783997286
 21
62.066023152699977
 31
0.0
  0
LINE
  5
88AF
  8
0
 10
180.56086100394111
 20
59.166023152700006
 30
0.0
 11
180.560861003941
 21
73.166023152700006
 31
0.0
  0
LINE
  5
88B0
  8
0
 10
180.560861003941
 20
73.166023152700006
 30
0.0
 11
233.56086100394111
 21
73.166023152700006
 31
0.0
  0
LINE
  5
88B1
  8
0
 10
180.560861003941
 20
76.666023152700006
 30
0.0
 11
234.56086100394111
 21
76.666023152700006
 31
0.0
  0
LINE
  5
88B2
  8
0
 10
234.74236746185409
 20
76.663826524737431
 30
0.0
 11
234.56086100394111
 21
76.666023152700006
 31
0.0
  0
POLYLINE
  5
88B3
  8
0
 66
     1
 10
0.0
 20
0.0
 30
0.0
 70
   128
  0
VERTEX
  5
9601
  8
0
 10
233.56086100394111
 20
75.605264838142432
 30
0.0
  0
VERTEX
  5
9602
  8
0
 10
233.64148024505459
 20
76.156096936992924
 30
0.0
  0
VERTEX
  5
9603
  8
0
 10
233.75963288005309
 20
76.356920574913204
 30
0.0
  0
VERTEX
  5
9604
  8
0
 10
233.93786187528349
 20
76.503543228247565
 30
0.0
  0
VERTEX
  5
9605
  8
0
 10
234.4235208338624
 20
76.642532845702192
 30
0.0
  0
VERTEX
  5
9606
  8
0
 10
234.74236746185409
 20
76.663826524737431
 30
0.0
  0
SEQEND
  5
9607
  8
0
  0
LINE
  5
88B5
  8
0
 10
180.560861003941
 20
73.166023152700006
 30
0.0
 11
180.560861003941
 21
76.666023152700006
 31
0.0
  0
LINE
  5
88B8
  8
0
 10
280.65678399331239
 20
68.716023152700586
 30
0.0
 11
256.16188151837468
 21
68.716023152699961
 31
0.0
  0
LINE
  5
88B9
  8
0
 10
256.16188151837468
 20
63.616023152700052
 30
0.0
 11
280.60678399338269
 21
63.616023152700109
 31
0.0
  0
ARC
  5
88C3
  8
0
 10
234.560861003941
 20
69.166023152699097
 30
0.0
 40
7.5000000000009379
 50
74.533990046580584
 51
88.613257413538207
  0
LINE
  5
88C5
  8
0
 10
236.560861003941
 20
73.748872796226294
 30
0.0
 11
236.51473688408311
 21
73.768453928387942
 31
0.0
  0
ARC
  5
88C6
  8
0
 10
234.56086100394089
 20
69.166023152699211
 30
0.0
 40
5.0000000000007434
 50
66.997258283093984
 51
89.999999999996746
  0
LINE
  5
88C7
  8
0
 10
233.96858401256841
 20
74.166023152700006
 30
0.0
 11
234.56086100394111
 21
74.166023152700006
 31
0.0
  0
LINE
  5
88C8
  8
0
 10
233.96858401256841
 20
74.166023152700006
 30
0.0
 11
233.96858401256841
 21
58.166023152699999
 31
0.0
  0
LINE
  5
88C9
  8
0
 10
233.96858401256841
 20
58.166023152699999
 30
0.0
 11
234.56086100394111
 21
58.166023152699999
 31
0.0
  0
ARC
  5
88CA
  8
0
 10
234.5608610039412
 20
63.166023152699552
 30
0.0
 40
4.9999999999995373
 50
270.0
 51
293.00274171691319
  0
LINE
  5
88CB
  8
0
 10
236.51473688408311
 20
58.563592377012071
 30
0.0
 11
236.560861003941
 21
58.583173509173598
 31
0.0
  0
ARC
  5
88CD
  8
0
 10
234.5608610039408
 20
63.166023152702053
 30
0.0
 40
7.5000000000020242
 50
271.38674258646182
 51
285.46600995341942
  0
LINE
  5
88CE
  8
0
 10
252.90004718372811
 20
65.519669316231955
 30
0.0
 11
251.560861003941
 21
64.951142878088149
 31
0.0
  0
ARC
  5
88CF
  8
0
 10
255.83086100394121
 20
58.616023152699029
 30
0.0
 40
7.500000000000961
 50
91.914523628317838
 51
113.002741716906
  0
LINE
  5
88D0
  8
0
 10
255.580297080751
 20
66.111836498855098
 30
0.0
 11
255.580297080751
 21
66.220209806545029
 31
0.0
  0
ARC
  5
88D1
  8
0
 10
255.83086100394101
 20
73.716023152699847
 30
0.0
 40
7.4999999999998348
 50
246.997258283094
 51
268.08547637168539
  0
LINE
  5
88D2
  8
0
 10
251.560861003941
 20
67.380903427311964
 30
0.0
 11
252.90004718372811
 21
66.812376989168058
 31
0.0
  0
LINE
  5
88D4
  8
0
 10
252.81825409353701
 20
69.347675490897643
 30
0.0
 11
252.23059799731089
 21
69.605434256703461
 31
0.0
  0
ARC
  5
88D5
  8
0
 10
255.8308610039411
 20
76.216023152700075
 30
0.0
 40
7.5000000000000497
 50
246.31669687402831
 51
270.0
  0
ARC
  5
88D6
  8
0
 10
255.8308610039411
 20
56.116023152699938
 30
0.0
 40
7.500000000000095
 50
90.0
 51
113.68330312597161
  0
LINE
  5
88D7
  8
0
 10
252.23059799731109
 20
62.726612048696488
 30
0.0
 11
252.81825409353701
 21
62.98437081450237
 31
0.0
  0
LINE
  5
88D9
  8
0
 10
255.8308610039411
 20
68.716023152699961
 30
0.0
 11
256.16188151837468
 21
68.716023152699961
 31
0.0
  0
LINE
  5
88DA
  8
0
 10
256.16188151837468
 20
63.616023152700052
 30
0.0
 11
255.8308610039411
 21
63.616023152700052
 31
0.0
  0
LINE
  5
88DB
  8
0
 10
237.57346791434509
 20
56.297675490897689
 30
0.0
 11
249.89590953179061
 21
61.70256682687647
 31
0.0
  0
LINE
  5
88DC
  8
0
 10
249.10647109235541
 20
63.90917755966467
 30
0.0
 11
236.560861003941
 21
58.583173509173598
 31
0.0
  0
ARC
  5
88DD
  8
0
 10
234.56086100394111
 20
63.166023152699999
 30
0.0
 40
7.499999999999968
 50
285.46600995341942
 51
293.68330312597158
  0
LINE
  5
88DE
  8
0
 10
249.89590953179049
 20
70.629479478523535
 30
0.0
 11
237.57346791434509
 21
76.034370814502324
 31
0.0
  0
LINE
  5
88DF
  8
0
 10
236.560861003941
 20
73.748872796226294
 30
0.0
 11
249.10647109235541
 21
68.422868745735343
 31
0.0
  0
ARC
  5
88E0
  8
0
 10
234.56086100394111
 20
69.166023152699893
 30
0.0
 40
7.5000000000000737
 50
66.316696874028324
 51
74.533990046580584
  0
LINE
  5
88EF
  8
0
 10
192.81363775367359
 20
59.666023152700227
 30
0.0
 11
196.56641450340621
 21
66.166023152700291
 31
0.0
  0
LINE
  5
88F2
  8
0
 10
185.3080842542085
 20
59.666023152700227
 30
0.0
 11
192.81363775367359
 21
59.666023152700227
 31
0.0
  0
LINE
  5
88F7
  8
0
 10
192.8136377536737
 20
72.666023152700234
 30
0.0
 11
185.3080842542085
 21
72.666023152700234
 31
0.0
  0
LINE
  5
88FA
  8
0
 10
185.3080842542085
 20
72.666023152700234
 30
0.0
 11
181.55530750447591
 21
66.166023152700177
 31
0.0
  0
LINE
  5
88FD
  8
0
 10
181.55530750447591
 20
66.166023152700234
 30
0.0
 11
185.30808425420841
 21
59.666023152700227
 31
0.0
  0
LINE
  5
88FF
  8
0
 10
196.56641450340621
 20
66.166023152700234
 30
0.0
 11
192.8136377536737
 21
72.666023152700234
 31
0.0
  0
CIRCLE
  5
8901
  8
0
 10
268.40086100394097
 20
227.57602315272399
 30
0.0
 40
4.0000000000017328
  0
ARC
  5
890C
  8
0
 10
363.63960049852261
 20
124.32115185079429
 30
0.0
 40
114.8457975966502
 50
89.769879683689794
 51
99.795389739711865
  0
ARC
  5
890D
  8
0
 10
364.56210227226688
 20
124.3209219266724
 30
0.0
 40
114.8460274416563
 50
80.204620318146496
 51
90.230110258447667
  0
ARC
  5
890F
  8
0
 10
363.67822020663777
 20
297.9314739273857
 30
0.0
 40
87.756468513196197
 50
257.10956628756571
 51
270.27594122641727
  0
ARC
  5
8911
  8
0
 10
364.5235356270025
 20
297.9311678923541
 30
0.0
 40
87.756162644628105
 50
269.72403572678769
 51
282.89045675923109
  0
LINE
  5
8912
  8
0
 10
364.80455397411788
 20
228.9260231527239
 30
0.0
 11
363.3971680337861
 21
228.9260231527239
 31
0.0
  0
LINE
  5
8913
  8
0
 10
364.80455397411788
 20
221.4260231527239
 30
0.0
 11
364.80455397411788
 21
228.9260231527239
 31
0.0
  0
LINE
  5
8914
  8
0
 10
363.3971680337861
 20
228.9260231527239
 30
0.0
 11
363.39716803378599
 21
221.4260231527239
 31
0.0
  0
LINE
  5
8915
  8
0
 10
363.39716803378599
 20
221.4260231527239
 30
0.0
 11
364.80455397411788
 21
221.4260231527239
 31
0.0
  0
LINE
  5
8916
  8
0
 10
369.7956038605945
 20
221.42602315272401
 30
0.0
 11
369.7956038605941
 21
228.9260231527241
 31
0.0
  0
LINE
  5
8917
  8
0
 10
368.39124727981857
 20
228.9260231527241
 30
0.0
 11
368.39124727981857
 21
221.42602315272401
 31
0.0
  0
LINE
  5
8918
  8
0
 10
368.39124727981857
 20
228.9260231527241
 30
0.0
 11
369.7956038605941
 21
228.9260231527241
 31
0.0
  0
LINE
  5
8919
  8
0
 10
368.39124727981857
 20
221.42602315272401
 30
0.0
 11
369.7956038605945
 21
221.42602315272401
 31
0.0
  0
LINE
  5
891A
  8
0
 10
359.81047467207509
 20
221.42602315272401
 30
0.0
 11
359.81047467207537
 21
228.9260231527241
 31
0.0
  0
LINE
  5
891B
  8
0
 10
358.40611814729908
 20
221.4260231527239
 30
0.0
 11
359.81047467207509
 21
221.42602315272401
 31
0.0
  0
LINE
  5
891C
  8
0
 10
358.40611814729908
 20
228.9260231527239
 30
0.0
 11
358.40611814729908
 21
221.4260231527239
 31
0.0
  0
LINE
  5
891D
  8
0
 10
358.40611814729908
 20
228.9260231527239
 30
0.0
 11
359.81047467207537
 21
228.9260231527241
 31
0.0
  0
LINE
  5
8922
  8
0
 10
354.79562265050822
 20
221.4260231527239
 30
0.0
 11
354.79562265050811
 21
228.9260231527241
 31
0.0
  0
LINE
  5
8923
  8
0
 10
353.4004369956703
 20
221.4260231527239
 30
0.0
 11
354.79562265050822
 21
221.4260231527239
 31
0.0
  0
LINE
  5
8924
  8
0
 10
353.4004369956703
 20
228.9260231527241
 30
0.0
 11
353.4004369956703
 21
221.4260231527239
 31
0.0
  0
LINE
  5
8925
  8
0
 10
353.4004369956703
 20
228.9260231527241
 30
0.0
 11
354.79562265050811
 21
228.9260231527241
 31
0.0
  0
LINE
  5
8926
  8
0
 10
374.80128502880018
 20
221.42602315272401
 30
0.0
 11
374.80128502880012
 21
228.9260231527239
 31
0.0
  0
LINE
  5
8927
  8
0
 10
373.40609935637872
 20
228.9260231527239
 30
0.0
 11
373.40609935637872
 21
221.4260231527239
 31
0.0
  0
LINE
  5
8928
  8
0
 10
373.40609935637872
 20
228.9260231527239
 30
0.0
 11
374.80128502880012
 21
228.9260231527239
 31
0.0
  0
LINE
  5
8929
  8
0
 10
373.40609935637872
 20
221.4260231527239
 30
0.0
 11
374.80128502880018
 21
221.42602315272401
 31
0.0
  0
ARC
  5
8937
  8
0
 10
379.7927026143617
 20
243.59702015397019
 30
0.0
 40
31.506353419911761
 50
277.85921030506518
 51
306.97308465362551
  0
ARC
  5
8938
  8
0
 10
376.4258166498978
 20
187.1826646745163
 30
0.0
 40
50.892081827752278
 50
63.991932691554368
 51
81.326119038310594
  0
ARC
  5
893D
  8
0
 10
348.40643765987232
 20
243.59076140573319
 30
0.0
 40
31.499800481089299
 50
233.02382014255619
 51
262.14388489875807
  0
ARC
  5
893F
  8
0
 10
351.77743969442372
 20
187.17775086686379
 30
0.0
 40
50.897170834377206
 50
98.674754219948753
 51
116.0071940501831
  0
ARC
  5
8940
  8
0
 10
393.4525408510259
 20
227.7273651853948
 30
0.0
 40
10.70009542708077
 50
299.62532157339399
 51
354.36128317675372
  0
ARC
  5
8941
  8
0
 10
396.02984783706381
 20
225.1719298367245
 30
0.0
 40
8.2099665190024851
 50
10.55640139961006
 51
70.710963847792016
  0
POLYLINE
  5
8942
  8
0
 66
     1
 10
0.0
 20
0.0
 30
0.0
 70
   128
  0
VERTEX
  5
9608
  8
0
 10
326.72821314677088
 20
220.6421713030451
 30
0.0
  0
VERTEX
  5
9609
  8
0
 10
327.94755370490338
 20
219.4655058637295
 30
0.0
  0
VERTEX
  5
960A
  8
0
 10
329.45984485256253
 20
218.42602315272461
 30
0.0
  0
SEQEND
  5
960B
  8
0
  0
LINE
  5
8943
  8
0
 10
326.72821314677168
 20
228.77602315272401
 30
0.0
 11
326.72821314677122
 21
220.64217130304471
 31
0.0
  0
LINE
  5
8944
  8
0
 10
325.13268914474332
 20
228.77602315272401
 30
0.0
 11
326.72821314677168
 21
228.77602315272401
 31
0.0
  0
LINE
  5
8945
  8
0
 10
325.13268914474332
 20
228.57602315272399
 30
0.0
 11
325.13268914474332
 21
228.77602315272401
 31
0.0
  0
ARC
  5
8946
  8
0
 10
332.07897281991359
 20
225.2885511493314
 30
0.0
 40
8.0693531458183472
 50
108.9399611338615
 51
155.958252515743
  0
LINE
  5
8948
  8
0
 10
311.4053871539956
 20
215.57602315272391
 30
0.0
 11
334.05116647268733
 21
215.57602315272391
 31
0.0
  0
ARC
  5
8949
  8
0
 10
311.40538715399572
 20
205.57602315272379
 30
0.0
 40
10.000000000000149
 50
90.0
 51
130.00000000000011
  0
LINE
  5
894A
  8
0
 10
290.93176807659012
 20
201.45068982933159
 30
0.0
 11
304.97751105713019
 21
213.23646758391371
 31
0.0
  0
ARC
  5
894B
  8
0
 10
286.11086100394101
 20
207.19602315272391
 30
0.0
 40
7.5000000000000266
 50
219.92918663940341
 51
310.00000000000011
  0
LINE
  5
894C
  8
0
 10
263.0329929322549
 20
223.08314074106741
 30
0.0
 11
280.3595737842773
 21
202.3822205688063
 31
0.0
  0
ARC
  5
894D
  8
0
 10
268.40086100394097
 20
227.57602315272399
 30
0.0
 40
6.9999999999999796
 50
69.089999999998369
 51
219.92918663940341
  0
LINE
  5
894E
  8
0
 10
284.53489913206067
 20
228.90531216489379
 30
0.0
 11
270.89916830721597
 21
234.1150185356862
 31
0.0
  0
ARC
  5
894F
  8
0
 10
286.31940434868568
 20
233.57602315272379
 30
0.0
 40
4.9999999999998774
 50
249.0899999999983
 51
270.0
  0
LINE
  5
8950
  8
0
 10
326.72821314677168
 20
228.57602315272399
 30
0.0
 11
286.31940434868568
 21
228.57602315272399
 31
0.0
  0
LINE
  5
8951
  8
0
 10
286.60086100394102
 20
230.57602315272391
 30
0.0
 11
291.60086100394102
 21
230.57602315272391
 31
0.0
  0
LINE
  5
8952
  8
0
 10
286.60086100394102
 20
228.57602315272399
 30
0.0
 11
286.60086100394102
 21
230.57602315272399
 31
0.0
  0
LINE
  5
8953
  8
0
 10
291.60086100394102
 20
230.57602315272391
 30
0.0
 11
291.60086100394102
 21
228.57602315272399
 31
0.0
  0
ARC
  5
8954
  8
0
 10
268.40086100394097
 20
390.6169493683135
 30
0.0
 40
60.00000000001188
 50
266.1774462707225
 51
270.0
  0
ARC
  5
8955
  8
0
 10
268.40086100394097
 20
390.6169493683135
 30
0.0
 40
60.00000000001188
 50
270.0
 51
273.8225537292775
  0
ARC
  5
8956
  8
0
 10
268.40086100394097
 20
287.7169493682826
 30
0.0
 40
60.000000000021629
 50
91.910213171708165
 51
93.822553729290476
  0
ARC
  5
8957
  8
0
 10
268.40086100394097
 20
287.7169493682826
 30
0.0
 40
60.000000000021629
 50
86.177446270709524
 51
88.089786828291835
  0
LINE
  5
8958
  8
0
 10
264.40086100394097
 20
347.58346755668521
 30
0.0
 11
264.40086100394097
 21
346.21694936830193
 31
0.0
  0
LINE
  5
8959
  8
0
 10
272.40086100394097
 20
346.21694936830193
 30
0.0
 11
272.40086100394097
 21
347.58346755668521
 31
0.0
  0
LINE
  5
895A
  8
0
 10
264.40086100394097
 20
332.11694936830202
 30
0.0
 11
264.40086100394097
 21
330.75043117991902
 31
0.0
  0
LINE
  5
895B
  8
0
 10
272.40086100394097
 20
330.75043117991902
 30
0.0
 11
272.40086100394097
 21
332.11694936830202
 31
0.0
  0
LINE
  5
895C
  8
0
 10
265.40086100394097
 20
343.76694936830199
 30
0.0
 11
265.40086100394097
 21
341.71694936830193
 31
0.0
  0
LINE
  5
895D
  8
0
 10
271.40086100394097
 20
334.56694936830212
 30
0.0
 11
271.40086100394097
 21
336.61694936830207
 31
0.0
  0
LINE
  5
895E
  8
0
 10
261.40086100394097
 20
334.56694936830212
 30
0.0
 11
261.40086100394097
 21
332.11694936830202
 31
0.0
  0
LINE
  5
895F
  8
0
 10
261.40086100394097
 20
346.21694936830193
 30
0.0
 11
261.40086100394097
 21
343.76694936830199
 31
0.0
  0
LINE
  5
8961
  8
0
 10
270.40086100394109
 20
347.68360677056398
 30
0.0
 11
266.40086100394097
 21
347.68360677056398
 31
0.0
  0
ARC
  5
8966
  8
0
 10
364.1008610039417
 20
395.14771148183451
 30
0.0
 40
75.980762113532478
 50
254.73851957513989
 51
270.0
  0
ARC
  5
8967
  8
0
 10
364.10086100394022
 20
283.18618725476978
 30
0.0
 40
75.980762113532137
 50
90.0
 51
105.26148042486
  0
ARC
  5
8969
  8
0
 10
364.10086100394091
 20
395.14771148184019
 30
0.0
 40
75.980762113538233
 50
270.0
 51
285.26148042486011
  0
ARC
  5
896A
  8
0
 10
364.10086100394022
 20
283.18618725476682
 30
0.0
 40
75.980762113535221
 50
74.738519575139961
 51
90.0
  0
ARC
  5
896C
  8
0
 10
353.85994936210398
 20
318.66801053844222
 30
0.0
 40
39.058294507364643
 50
104.46920194733551
 51
128.6609004068207
  0
ARC
  5
896D
  8
0
 10
353.8599493621042
 20
359.66588819816178
 30
0.0
 40
39.058294507364771
 50
231.3390995931793
 51
255.53079805266759
  0
ARC
  5
896E
  8
0
 10
374.34347834602528
 20
318.67142193893699
 30
0.0
 40
39.054565132036558
 50
51.33792706984255
 51
75.531970576002891
  0
ARC
  5
8970
  8
0
 10
374.34347834602642
 20
359.66247679766502
 30
0.0
 40
39.05456513203449
 50
284.46802942400018
 51
308.66207293015742
  0
ARC
  5
8971
  8
0
 10
316.50607157846548
 20
339.16694936830203
 30
0.0
 40
7.929832861061457
 50
348.68351038403
 51
11.31648961596995
  0
ARC
  5
8972
  8
0
 10
337.5579259194912
 20
339.94263332704202
 30
0.0
 40
13.4794021286249
 50
189.9614518106099
 51
233.07461275453531
  0
ARC
  5
8973
  8
0
 10
337.5579259194912
 20
338.39126540956221
 30
0.0
 40
13.4794021286249
 50
126.9253872454602
 51
170.0385481893932
  0
ARC
  5
8974
  8
0
 10
391.4004288338574
 20
338.79674367579139
 30
0.0
 40
12.70582659891404
 50
1.6696454900920881
 51
54.703925373934453
  0
ARC
  5
8975
  8
0
 10
391.4004288338574
 20
339.53715506081261
 30
0.0
 40
12.70582659891388
 50
305.2960746260656
 51
358.33035450989809
  0
ARC
  5
8976
  8
0
 10
365.00002421631979
 20
359.36164276188231
 30
0.0
 40
0.1999999999999534
 50
192.21746719450999
 51
269.32372095022851
  0
ARC
  5
8977
  8
0
 10
363.20169779156242
 20
359.36164276188231
 30
0.0
 40
0.1999999999999514
 50
270.67627904972261
 51
347.78247503760531
  0
ARC
  5
8978
  8
0
 10
364.10086100394108
 20
359.16694936830203
 30
0.0
 40
0.7199999999998202
 50
12.2175040639769
 51
167.7825119826569
  0
ARC
  5
8979
  8
0
 10
363.20169779156242
 20
318.97225597472158
 30
0.0
 40
0.2000000000000645
 50
12.21752493285298
 51
89.323720950293662
  0
ARC
  5
897A
  8
0
 10
365.00002421631979
 20
318.97225597472158
 30
0.0
 40
0.2000000000000658
 50
90.676279049738909
 51
167.7824750376021
  0
ARC
  5
897B
  8
0
 10
364.10086100394108
 20
319.16694936830203
 30
0.0
 40
0.7199999999997991
 50
192.21748802554731
 51
347.78251198266008
  0
ARC
  5
897C
  8
0
 10
358.20829312932028
 20
319.1951857829315
 30
0.0
 40
0.2000000000102253
 50
8.4575550301584084
 51
85.563944028599735
  0
ARC
  5
897D
  8
0
 10
360.0027487054719
 20
319.07725735023507
 30
0.0
 40
0.2000000000000721
 50
86.916299578065761
 51
164.02256299291781
  0
ARC
  5
897E
  8
0
 10
359.11828828068121
 20
319.3304958879429
 30
0.0
 40
0.7200000000006522
 50
188.45751786192719
 51
344.02252574709291
  0
ARC
  5
897F
  8
0
 10
369.99342887856187
 20
359.1387129536725
 30
0.0
 40
0.2000000000102791
 50
188.45750125757851
 51
265.56394402855079
  0
ARC
  5
8980
  8
0
 10
368.19897330241042
 20
359.25664138636893
 30
0.0
 40
0.2000000000002309
 50
266.91629957786989
 51
344.02256495846058
  0
ARC
  5
8981
  8
0
 10
369.083433727201
 20
359.0034028486611
 30
0.0
 40
0.7200000000003475
 50
8.4575327987527231
 51
164.02252520110881
  0
ARC
  5
8982
  8
0
 10
368.19897330240138
 20
319.07725735022882
 30
0.0
 40
0.2000000000106378
 50
15.977495278632849
 51
93.083884242894939
  0
ARC
  5
8983
  8
0
 10
369.99342887855192
 20
319.19518578293668
 30
0.0
 40
0.200000000000048
 50
94.436249156972124
 51
171.5424449484789
  0
ARC
  5
8984
  8
0
 10
369.083433727201
 20
319.33049588794279
 30
0.0
 40
0.7200000000003304
 50
195.97745806664051
 51
351.54248214431249
  0
ARC
  5
8985
  8
0
 10
360.00274870548083
 20
359.25664138637518
 30
0.0
 40
0.2000000000107868
 50
195.97749583790369
 51
273.08388424281333
  0
ARC
  5
8986
  8
0
 10
358.20829312933029
 20
359.13871295366732
 30
0.0
 40
0.2000000000000296
 50
274.43624915697211
 51
351.54244594360381
  0
ARC
  5
8987
  8
0
 10
359.11828828068121
 20
359.0034028486611
 30
0.0
 40
0.7200000000002842
 50
15.977457911299171
 51
171.54248186787461
  0
ARC
  5
8988
  8
0
 10
353.20110033222841
 20
319.7507371824766
 30
0.0
 40
0.1999999999999911
 50
4.6677727755973528
 51
81.774026884368169
  0
ARC
  5
8989
  8
0
 10
354.9838375684559
 20
319.51446218051569
 30
0.0
 40
0.2000000000000073
 50
83.126575619207813
 51
160.2328098853302
  0
ARC
  5
898A
  8
0
 10
354.11804894589619
 20
319.82560533253081
 30
0.0
 40
0.7199999999999883
 50
184.66781009623159
 51
340.2328098853128
  0
ARC
  5
898B
  8
0
 10
375.00062167565397
 20
358.58316155412729
 30
0.0
 40
0.2000000000000636
 50
184.6677743614085
 51
261.77402688433818
  0
ARC
  5
898C
  8
0
 10
373.2178844394258
 20
358.81943655608842
 30
0.0
 40
0.2000000000002986
 50
263.12657561920781
 51
340.23280988536419
  0
ARC
  5
898D
  8
0
 10
374.0836730619863
 20
358.5082934040733
 30
0.0
 40
0.7200000000002534
 50
4.6678096557292692
 51
160.23280988531991
  0
ARC
  5
898E
  8
0
 10
354.98383756846459
 20
358.8194365560953
 30
0.0
 40
0.2000000000104363
 50
199.76718927161119
 51
276.87322182772408
  0
ARC
  5
898F
  8
0
 10
353.20110033222829
 20
358.58316155412729
 30
0.0
 40
0.1999999999999911
 50
278.2259731156318
 51
355.33217035152779
  0
ARC
  5
8990
  8
0
 10
354.11804894589619
 20
358.5082934040733
 30
0.0
 40
0.7200000000000723
 50
19.767190349161101
 51
175.3322057017896
  0
ARC
  5
8991
  8
0
 10
373.21788443941779
 20
319.51446218050881
 30
0.0
 40
0.2000000000104285
 50
19.767190959036611
 51
96.873221827772952
  0
ARC
  5
8992
  8
0
 10
375.00062167565397
 20
319.7507371824766
 30
0.0
 40
0.1999999999999999
 50
98.225973115763551
 51
175.33216882899259
  0
ARC
  5
8993
  8
0
 10
374.0836730619863
 20
319.82560533253081
 30
0.0
 40
0.7199999999999772
 50
199.7671898804318
 51
355.33220612471501
  0
LINE
  5
89A0
  8
0
 10
286.60086100394102
 20
334.56694936830212
 30
0.0
 11
286.60086100394102
 21
343.76694936830199
 31
0.0
  0
LINE
  5
89A1
  8
0
 10
291.60086100394102
 20
343.76694936830199
 30
0.0
 11
291.60086100394102
 21
334.56694936830212
 31
0.0
  0
LINE
  5
89A5
  8
0
 10
261.40086100394097
 20
343.76694936830199
 30
0.0
 11
325.21151856946869
 21
343.76694936830199
 31
0.0
  0
LINE
  5
89A7
  8
0
 10
326.59441771794047
 20
346.21694936830193
 30
0.0
 11
261.40086100394097
 21
346.21694936830193
 31
0.0
  0
LINE
  5
89AA
  8
0
 10
325.21151856946881
 20
334.56694936830212
 30
0.0
 11
261.40086100394097
 21
334.56694936830189
 31
0.0
  0
LINE
  5
89AB
  8
0
 10
326.59441771794047
 20
332.11694936830202
 30
0.0
 11
261.40086100394097
 21
332.11694936830207
 31
0.0
  0
LINE
  5
89B8
  8
0
 10
271.40086100394097
 20
61.616023152700109
 30
0.0
 11
271.40086100394097
 21
63.616023152700109
 31
0.0
  0
ARC
  5
89C2
  8
0
 10
364.10086100394147
 20
10.18526103916656
 30
0.0
 40
75.980762113533473
 50
74.738519575139961
 51
90.000000000003254
  0
ARC
  5
89C3
  8
0
 10
364.10086100394102
 20
122.1467852662302
 30
0.0
 40
75.980762113530176
 50
270.0
 51
285.26148042486011
  0
ARC
  5
89C5
  8
0
 10
364.1015125550586
 20
10.18039779542152
 30
0.0
 40
75.985625360071921
 50
90.000491291991651
 51
105.260989132869
  0
ARC
  5
89C6
  8
0
 10
364.10151255505792
 20
122.15164850998001
 30
0.0
 40
75.985625360073456
 50
254.7390108671309
 51
269.99950870800831
  0
ARC
  5
89C7
  8
0
 10
374.34149987944409
 20
45.666538790172631
 30
0.0
 40
39.05889089036048
 50
51.339287075989681
 51
75.530610569855753
  0
ARC
  5
89C9
  8
0
 10
374.34149987944471
 20
86.665507515226395
 30
0.0
 40
39.058890890359159
 50
284.4693894301443
 51
308.6607129240129
  0
ARC
  5
89CA
  8
0
 10
353.85567047555747
 20
86.656404209466871
 30
0.0
 40
39.04893909972958
 50
231.33615780010311
 51
255.53373984574529
  0
LINE
  5
89CD
  8
0
 10
334.20084287073342
 20
61.566023152700041
 30
0.0
 11
334.20084287073331
 21
59.116023152700052
 31
0.0
  0
LINE
  5
89D1
  8
0
 10
334.20084287073331
 20
73.216023152699961
 30
0.0
 11
334.20084287073331
 21
70.766023152699915
 31
0.0
  0
ARC
  5
89D4
  8
0
 10
353.8556704755577
 20
45.675642095933711
 30
0.0
 40
39.048939099729111
 50
104.4662601542547
 51
128.6638421999015
  0
ARC
  5
89D5
  8
0
 10
391.40119185388181
 20
66.535819944011905
 30
0.0
 40
12.705051994692409
 50
305.29433165221258
 51
358.33209748376038
  0
ARC
  5
89D6
  8
0
 10
391.4011918538817
 20
65.796226361387923
 30
0.0
 40
12.705051994692431
 50
1.6679025162493879
 51
54.705668347791942
  0
POLYLINE
  5
89D7
  8
0
 66
     1
 10
0.0
 20
0.0
 30
0.0
 70
   128
  0
VERTEX
  5
960C
  8
0
 10
326.728213146771
 20
58.916023152700909
 30
0.0
  0
VERTEX
  5
960D
  8
0
 10
327.94755370490378
 20
57.489986228856417
 30
0.0
  0
VERTEX
  5
960E
  8
0
 10
329.45984485256309
 20
56.166023152700227
 30
0.0
  0
SEQEND
  5
960F
  8
0
  0
ARC
  5
89D9
  8
0
 10
321.24287123712378
 20
66.166023152699893
 30
0.0
 40
4.2394713184166166
 50
320.81045567749231
 51
39.189544322507778
  0
LINE
  5
89DA
  8
0
 10
324.52871508141931
 20
68.844893677862103
 30
0.0
 11
325.13268914474332
 21
70.616023152699881
 31
0.0
  0
LINE
  5
89DB
  8
0
 10
324.52871508141931
 20
63.487152627537739
 30
0.0
 11
325.13268914474332
 21
61.716023152700018
 31
0.0
  0
POLYLINE
  5
89DE
  8
0
 66
     1
 10
0.0
 20
0.0
 30
0.0
 70
   128
  0
VERTEX
  5
9610
  8
0
 10
326.72821314677088
 20
73.41602315269887
 30
0.0
  0
VERTEX
  5
9611
  8
0
 10
327.94755370490338
 20
74.842060076543191
 30
0.0
  0
VERTEX
  5
9612
  8
0
 10
329.45984485256253
 20
76.166023152699211
 30
0.0
  0
SEQEND
  5
9613
  8
0
  0
ARC
  5
89EE
  8
0
 10
316.50607157846622
 20
66.166023152699893
 30
0.0
 40
7.9298328610607767
 50
348.68351038403318
 51
11.31648961596995
  0
ARC
  5
89EF
  8
0
 10
337.1208605114407
 20
65.485050215720264
 30
0.0
 40
13.03255411037272
 50
165.06073068456371
 51
170.11626345539599
  0
ARC
  5
89F0
  8
0
 10
337.55792591952911
 20
66.941707111448011
 30
0.0
 40
13.47940212866358
 50
189.9614518106132
 51
195.1626979888355
  0
LINE
  5
89F1
  8
0
 10
326.72821314677168
 20
58.916023152699893
 30
0.0
 11
326.58281989161611
 21
59.116023152699988
 31
0.0
  0
LINE
  5
89F2
  8
0
 10
325.19684571908289
 20
61.566023152699977
 30
0.0
 11
325.13268914474332
 21
61.716023152699897
 31
0.0
  0
LINE
  5
89F3
  8
0
 10
325.13268914474332
 20
70.616023152699881
 30
0.0
 11
325.196845719083
 21
70.766023152699972
 31
0.0
  0
LINE
  5
89F4
  8
0
 10
326.58281989161623
 20
73.216023152699961
 30
0.0
 11
326.72821314677168
 21
73.416023152699893
 31
0.0
  0
LINE
  5
8A15
  8
0
 10
334.20084287073331
 20
61.566023152702371
 30
0.0
 11
308.560861003941
 21
61.566023152701462
 31
0.0
  0
LINE
  5
8A16
  8
0
 10
299.56086100394111
 20
59.11602315270116
 30
0.0
 11
334.2008428707332
 21
59.116023152702383
 31
0.0
  0
LINE
  5
8A17
  8
0
 10
299.56086100394111
 20
73.216023152701254
 30
0.0
 11
334.20084287073331
 21
73.216023152702405
 31
0.0
  0
LINE
  5
8A18
  8
0
 10
308.560861003941
 20
70.766023152699915
 30
0.0
 11
334.20084287073331
 21
70.766023152699915
 31
0.0
  0
ARC
  5
8A19
  8
0
 10
29.110861003929809
 20
227.57600054766769
 30
0.0
 40
60.000000000011902
 50
358.70541426953429
 51
0.0
  0
ARC
  5
8A1A
  8
0
 10
29.110861003929809
 20
227.57600054766769
 30
0.0
 40
60.000000000011902
 50
0.0
 51
3.822553729277482
  0
ARC
  5
8A1C
  8
0
 10
132.0108610039608
 20
227.576000547668
 30
0.0
 40
60.0000000000217
 50
176.17744627071281
 51
178.08978682828851
  0
LINE
  5
8A1E
  8
0
 10
73.510861003941301
 20
231.5760005476678
 30
0.0
 11
72.144342815558304
 21
231.5760005476678
 31
0.0
  0
LINE
  5
8A20
  8
0
 10
88.977379192324307
 20
231.576000547668
 30
0.0
 11
87.610861003941324
 21
231.576000547668
 31
0.0
  0
LINE
  5
8A23
  8
0
 10
60.560861003941028
 20
221.42600054766791
 30
0.0
 11
60.560861003941049
 21
210.1749506094244
 31
0.0
  0
LINE
  5
8A24
  8
0
 10
60.560861003940907
 20
239.16694936832869
 30
0.0
 11
60.560861003941028
 21
228.92600054766791
 31
0.0
  0
LINE
  5
8A25
  8
0
 10
100.560861003941
 20
228.92600054766791
 30
0.0
 11
100.5608610039409
 21
239.1669493683288
 31
0.0
  0
LINE
  5
8A26
  8
0
 10
100.5608610039411
 20
210.1749506094246
 30
0.0
 11
100.560861003941
 21
221.42600054766791
 31
0.0
  0
LINE
  5
8A27
  8
0
 10
100.5608610039409
 20
239.16694936832889
 30
0.0
 11
60.560861003940907
 21
239.16694936832869
 31
0.0
  0
LINE
  5
8A28
  8
0
 10
60.560861003941113
 20
210.17495060942451
 30
0.0
 11
70.060861003941739
 21
210.17495060942471
 31
0.0
  0
LINE
  5
8A2A
  8
0
 10
91.060861003941739
 20
210.17495060942471
 30
0.0
 11
100.5608610039411
 21
210.17495060942471
 31
0.0
  0
LINE
  5
8A2B
  8
0
 10
60.499516968169843
 20
228.92600054766771
 30
0.0
 11
60.499516968169843
 21
221.4260005476678
 31
0.0
  0
LINE
  5
8A2C
  8
0
 10
100.6222050397122
 20
221.42600054766791
 30
0.0
 11
100.6222050397122
 21
228.926000547668
 31
0.0
  0
LINE
  5
8A2D
  8
0
 10
101.1173144843001
 20
221.42600054766791
 30
0.0
 11
101.1173144843001
 21
228.926000547668
 31
0.0
  0
LINE
  5
8A2E
  8
0
 10
60.004407523581932
 20
228.92600054766771
 30
0.0
 11
60.004407523581932
 21
221.42600054766791
 31
0.0
  0
LINE
  5
8A2F
  8
0
 10
59.840861003941001
 20
228.92600054766791
 30
0.0
 11
59.84086100394105
 21
221.4260005476678
 31
0.0
  0
LINE
  5
8A30
  8
0
 10
101.280861003941
 20
221.42600054766791
 30
0.0
 11
101.280861003941
 21
228.926000547668
 31
0.0
  0
LINE
  5
8A31
  8
0
 10
75.960861003941346
 20
234.5760005476678
 30
0.0
 11
73.510861003941301
 21
234.5760005476678
 31
0.0
  0
LINE
  5
8A32
  8
0
 10
87.610861003941324
 20
234.57600054766789
 30
0.0
 11
85.160861003941335
 21
234.5760005476678
 31
0.0
  0
LINE
  5
8A35
  8
0
 10
88.977379192324349
 20
226.29322073140381
 30
0.0
 11
88.977379192324307
 21
231.5760005476715
 31
0.0
  0
LINE
  5
8A36
  8
0
 10
72.044203601679357
 20
229.576000547668
 30
0.0
 11
72.044203601679357
 21
226.23153401618191
 31
0.0
  0
LINE
  5
8A37
  8
0
 10
72.144342815558304
 20
231.57600054766769
 30
0.0
 11
72.144342815558275
 21
226.29322073140361
 31
0.0
  0
POLYLINE
  5
8A3C
  8
0
 66
     1
 10
0.0
 20
0.0
 30
0.0
 70
   128
  0
VERTEX
  5
9614
  8
0
 10
70.560861003941369
 20
232.9210005476676
 30
0.0
  0
VERTEX
  5
9615
  8
0
 10
71.837082148015071
 20
232.24117390300719
 30
0.0
  0
VERTEX
  5
9616
  8
0
 10
72.902085777394873
 20
231.5760005476678
 30
0.0
  0
SEQEND
  5
9617
  8
0
  0
POLYLINE
  5
8A3F
  8
0
 66
     1
 10
0.0
 20
0.0
 30
0.0
 70
   128
  0
VERTEX
  5
9618
  8
0
 10
90.560861003940403
 20
232.92100054766749
 30
0.0
  0
VERTEX
  5
9619
  8
0
 10
89.284639859866701
 20
232.24117390300691
 30
0.0
  0
VERTEX
  5
961A
  8
0
 10
88.219636230487339
 20
231.576000547668
 30
0.0
  0
SEQEND
  5
961B
  8
0
  0
ARC
  5
8A49
  8
0
 10
122.2863017069772
 20
249.42469904546729
 30
0.0
 40
44.355641088359071
 50
225.25288054041951
 51
236.61855522504769
  0
POLYLINE
  5
8A4A
  8
0
 66
     1
 10
0.0
 20
0.0
 30
0.0
 70
   128
  0
VERTEX
  5
961C
  8
0
 10
97.881369079630105
 20
237.49265784093581
 30
0.0
  0
VERTEX
  5
961D
  8
0
 10
97.009922679663674
 20
236.9626155041538
 30
0.0
  0
VERTEX
  5
961E
  8
0
 10
95.927778834290535
 20
236.2838851931127
 30
0.0
  0
VERTEX
  5
961F
  8
0
 10
94.604213420747698
 20
235.44508618716191
 30
0.0
  0
VERTEX
  5
9620
  8
0
 10
93.086770734002499
 20
234.48668847635599
 30
0.0
  0
VERTEX
  5
9621
  8
0
 10
91.870698632603379
 20
233.72704950175279
 30
0.0
  0
VERTEX
  5
9622
  8
0
 10
90.560861003940403
 20
232.92100054766749
 30
0.0
  0
SEQEND
  5
9623
  8
0
  0
POLYLINE
  5
8A4C
  8
0
 66
     1
 10
0.0
 20
0.0
 30
0.0
 70
   128
  0
VERTEX
  5
9624
  8
0
 10
63.240352928252292
 20
237.49265784093541
 30
0.0
  0
VERTEX
  5
9625
  8
0
 10
64.11179932821878
 20
236.96261550415349
 30
0.0
  0
VERTEX
  5
9626
  8
0
 10
65.193943173591975
 20
236.28388519311221
 30
0.0
  0
VERTEX
  5
9627
  8
0
 10
66.517508587134927
 20
235.44508618716139
 30
0.0
  0
VERTEX
  5
9628
  8
0
 10
68.034951273880239
 20
234.48668847635551
 30
0.0
  0
VERTEX
  5
9629
  8
0
 10
69.251023375278891
 20
233.7270495017527
 30
0.0
  0
VERTEX
  5
962A
  8
0
 10
70.560861003941369
 20
232.9210005476676
 30
0.0
  0
SEQEND
  5
962B
  8
0
  0
ARC
  5
8A4D
  8
0
 10
38.835420300902797
 20
249.4246990454692
 30
0.0
 40
44.355641088362162
 50
303.3814447749524
 51
314.7471194595829
  0
LINE
  5
8A5A
  8
0
 10
61.342591112751762
 20
228.92600054766791
 30
0.0
 11
61.342591112751762
 21
221.4260005476678
 31
0.0
  0
ARC
  5
8A5B
  8
0
 10
28.963361145498428
 20
251.17929122062259
 30
0.0
 40
51.766654344745447
 50
307.61722118600437
 51
311.46361015053799
  0
ARC
  5
8A5C
  8
0
 10
21.724412040981861
 20
174.0308821918949
 30
0.0
 40
75.835152246728597
 50
56.807764337971349
 51
59.195073875584441
  0
LINE
  5
8A5D
  8
0
 10
99.779130895130294
 20
221.42600054766791
 30
0.0
 11
99.779130895130294
 21
228.926000547668
 31
0.0
  0
ARC
  5
8A5E
  8
0
 10
137.8791667791011
 20
176.4269244908389
 30
0.0
 40
72.99895622810628
 50
120.7449260603053
 51
123.2246296373754
  0
ARC
  5
8A60
  8
0
 10
130.6075829449475
 20
249.32549448543199
 30
0.0
 40
49.350667421861438
 50
228.46050218519269
 51
232.49423527246941
  0
LINE
  5
8A61
  8
0
 10
59.84086100394105
 20
221.4260005476678
 30
0.0
 11
61.342591112751762
 21
221.4260005476678
 31
0.0
  0
LINE
  5
8A62
  8
0
 10
61.160924599160381
 20
221.4260005476678
 30
0.0
 11
61.160924599160381
 21
228.92600054766791
 31
0.0
  0
LINE
  5
8A63
  8
0
 10
59.840861003941029
 20
228.92600054766791
 30
0.0
 11
61.342591112751762
 21
228.92600054766791
 31
0.0
  0
LINE
  5
8A64
  8
0
 10
101.280861003941
 20
221.42600054766791
 30
0.0
 11
99.779130895130294
 21
221.42600054766791
 31
0.0
  0
LINE
  5
8A65
  8
0
 10
99.779130895130294
 20
228.926000547668
 30
0.0
 11
101.280861003941
 21
228.926000547668
 31
0.0
  0
LINE
  5
8A66
  8
0
 10
99.960797606587093
 20
228.926000547668
 30
0.0
 11
99.960797606587093
 21
221.42600054766791
 31
0.0
  0
LINE
  5
8A74
  8
0
 10
75.960861003941346
 20
228.64423250297861
 30
0.0
 11
75.960861003941346
 21
234.5760005476678
 31
0.0
  0
LINE
  5
8A75
  8
0
 10
73.510861003941301
 20
234.5760005476678
 30
0.0
 11
73.510861003941386
 21
227.13500902858479
 31
0.0
  0
LINE
  5
8A77
  8
0
 10
87.610861003941324
 20
234.57600054766789
 30
0.0
 11
87.61086100394138
 21
227.1350090285849
 31
0.0
  0
LINE
  5
8A78
  8
0
 10
85.160861003941335
 20
234.5760005476678
 30
0.0
 11
85.160861003941378
 21
228.64423250297861
 31
0.0
  0
LINE
  5
8A86
  8
0
 10
85.160861003941278
 20
230.57600054766789
 30
0.0
 11
83.110861003941352
 21
230.5760005476678
 31
0.0
  0
LINE
  5
8A87
  8
0
 10
484.1008610039425
 20
221.42600062678369
 30
0.0
 11
484.1008610039425
 21
210.17495068854041
 31
0.0
  0
LINE
  5
8A88
  8
0
 10
484.1008610039425
 20
239.16694944744441
 30
0.0
 11
484.1008610039425
 21
228.9260006267836
 31
0.0
  0
LINE
  5
8A89
  8
0
 10
524.10086100394255
 20
228.9260006267836
 30
0.0
 11
524.10086100394267
 21
239.16694944744421
 31
0.0
  0
LINE
  5
8A8A
  8
0
 10
524.10086100394255
 20
210.17495068854009
 30
0.0
 11
524.10086100394255
 21
221.42600062678369
 31
0.0
  0
LINE
  5
8A8B
  8
0
 10
484.1008610039425
 20
210.17495068854041
 30
0.0
 11
524.10086100394255
 21
210.17495068854021
 31
0.0
  0
LINE
  5
8A8C
  8
0
 10
524.10086100394267
 20
239.16694944744421
 30
0.0
 11
484.1008610039425
 21
239.16694944744441
 31
0.0
  0
LINE
  5
8A8D
  8
0
 10
484.03951696817143
 20
228.9260006267836
 30
0.0
 11
484.0395169681712
 21
221.42600062678369
 31
0.0
  0
LINE
  5
8A8E
  8
0
 10
524.16220503971374
 20
221.42600062678349
 30
0.0
 11
524.16220503971385
 21
228.9260006267836
 31
0.0
  0
LINE
  5
8A8F
  8
0
 10
483.5444075235834
 20
228.9260006267838
 30
0.0
 11
483.54440752358329
 21
221.4260006267838
 31
0.0
  0
LINE
  5
8A90
  8
0
 10
524.65731448430165
 20
221.42600062678369
 30
0.0
 11
524.65731448430165
 21
228.9260006267836
 31
0.0
  0
LINE
  5
8A91
  8
0
 10
483.38086100394258
 20
228.9260006267838
 30
0.0
 11
483.38086100394253
 21
221.42600062678369
 31
0.0
  0
LINE
  5
8A92
  8
0
 10
524.82086100394258
 20
221.42600062678349
 30
0.0
 11
524.82086100394258
 21
228.9260006267836
 31
0.0
  0
LINE
  5
8A95
  8
0
 10
508.70086100394269
 20
199.69600062678359
 30
0.0
 11
511.15086100394268
 21
199.69600062678359
 31
0.0
  0
LINE
  5
8A96
  8
0
 10
497.05086100394283
 20
199.6960006267837
 30
0.0
 11
499.5008610039427
 21
199.69600062678359
 31
0.0
  0
POLYLINE
  5
8A97
  8
0
 66
     1
 10
0.0
 20
0.0
 30
0.0
 70
   128
  0
VERTEX
  5
962C
  8
0
 10
504.10086100394147
 20
226.67600062678241
 30
0.0
  0
VERTEX
  5
962D
  8
0
 10
504.91619748185781
 20
226.92306947268301
 30
0.0
  0
VERTEX
  5
962E
  8
0
 10
505.67674994578329
 20
227.3142963046208
 30
0.0
  0
VERTEX
  5
962F
  8
0
 10
507.20602507466538
 20
228.28182709794521
 30
0.0
  0
VERTEX
  5
9630
  8
0
 10
508.65276557939438
 20
229.31100261532379
 30
0.0
  0
VERTEX
  5
9631
  8
0
 10
510.03508645616392
 20
230.3161316000137
 30
0.0
  0
VERTEX
  5
9632
  8
0
 10
511.57583417794859
 20
231.3895801199221
 30
0.0
  0
VERTEX
  5
9633
  8
0
 10
513.00235956288805
 20
232.3104283635351
 30
0.0
  0
VERTEX
  5
9634
  8
0
 10
514.10086100394278
 20
232.92100062678369
 30
0.0
  0
SEQEND
  5
9635
  8
0
  0
POLYLINE
  5
8A98
  8
0
 66
     1
 10
0.0
 20
0.0
 30
0.0
 70
   128
  0
VERTEX
  5
9636
  8
0
 10
504.10086100394108
 20
226.67600062678329
 30
0.0
  0
VERTEX
  5
9637
  8
0
 10
503.30014906513787
 20
226.91911653219381
 30
0.0
  0
VERTEX
  5
9638
  8
0
 10
502.52497206209472
 20
227.3142963046252
 30
0.0
  0
VERTEX
  5
9639
  8
0
 10
501.3868868885566
 20
228.031282698903
 30
0.0
  0
VERTEX
  5
963A
  8
0
 10
500.29929858288068
 20
228.79043826507981
 30
0.0
  0
VERTEX
  5
963B
  8
0
 10
499.21688236404788
 20
229.5641601604284
 30
0.0
  0
VERTEX
  5
963C
  8
0
 10
498.16663555170669
 20
230.31613160002391
 30
0.0
  0
VERTEX
  5
963D
  8
0
 10
496.64362136111328
 20
231.3775123122098
 30
0.0
  0
VERTEX
  5
963E
  8
0
 10
495.19936244498672
 20
232.31042836354129
 30
0.0
  0
VERTEX
  5
963F
  8
0
 10
494.1008610039417
 20
232.92100062678409
 30
0.0
  0
SEQEND
  5
9640
  8
0
  0
POLYLINE
  5
8A9B
  8
0
 66
     1
 10
0.0
 20
0.0
 30
0.0
 70
   128
  0
VERTEX
  5
9641
  8
0
 10
514.10086100394278
 20
218.42600062678369
 30
0.0
  0
VERTEX
  5
9642
  8
0
 10
513.36149436109974
 20
219.0304830973885
 30
0.0
  0
VERTEX
  5
9643
  8
0
 10
512.56270585013488
 20
219.7035992122272
 30
0.0
  0
VERTEX
  5
9644
  8
0
 10
511.68386072604028
 20
220.45949229451239
 30
0.0
  0
VERTEX
  5
9645
  8
0
 10
510.7634744722863
 20
221.262133761493
 30
0.0
  0
VERTEX
  5
9646
  8
0
 10
509.62868797511101
 20
222.26074890563191
 30
0.0
  0
VERTEX
  5
9647
  8
0
 10
508.45615668380248
 20
223.29548382907541
 30
0.0
  0
VERTEX
  5
9648
  8
0
 10
507.21870775650171
 20
224.38298916253049
 30
0.0
  0
VERTEX
  5
9649
  8
0
 10
505.94097847759349
 20
225.4665871106638
 30
0.0
  0
VERTEX
  5
964A
  8
0
 10
505.23123001982731
 20
226.02581684661189
 30
0.0
  0
VERTEX
  5
964B
  8
0
 10
504.46497726866602
 20
226.52421380827789
 30
0.0
  0
VERTEX
  5
964C
  8
0
 10
504.10086100394261
 20
226.67600062678889
 30
0.0
  0
SEQEND
  5
964D
  8
0
  0
POLYLINE
  5
8A9C
  8
0
 66
     1
 10
0.0
 20
0.0
 30
0.0
 70
   128
  0
VERTEX
  5
964E
  8
0
 10
494.10086100394187
 20
218.4260006267836
 30
0.0
  0
VERTEX
  5
964F
  8
0
 10
494.84022764678491
 20
219.03048309738841
 30
0.0
  0
VERTEX
  5
9650
  8
0
 10
495.63901615774978
 20
219.703599212227
 30
0.0
  0
VERTEX
  5
9651
  8
0
 10
496.51786128184432
 20
220.45949229451219
 30
0.0
  0
VERTEX
  5
9652
  8
0
 10
497.43824753559841
 20
221.26213376149281
 30
0.0
  0
VERTEX
  5
9653
  8
0
 10
498.57303403277348
 20
222.26074890563149
 30
0.0
  0
VERTEX
  5
9654
  8
0
 10
499.74556532408201
 20
223.2954838290749
 30
0.0
  0
VERTEX
  5
9655
  8
0
 10
500.98301425138288
 20
224.38298916253001
 30
0.0
  0
VERTEX
  5
9656
  8
0
 10
502.26074353029111
 20
225.46658711066311
 30
0.0
  0
VERTEX
  5
9657
  8
0
 10
502.97049198805871
 20
226.025816846612
 30
0.0
  0
VERTEX
  5
9658
  8
0
 10
503.73674473922159
 20
226.52421380827829
 30
0.0
  0
VERTEX
  5
9659
  8
0
 10
504.10086100394022
 20
226.67600062678741
 30
0.0
  0
SEQEND
  5
965A
  8
0
  0
ARC
  5
8A9F
  8
0
 10
785.59688680784211
 20
-193.67350982354901
 30
0.0
 40
505.66092233202153
 50
121.49580225886869
 51
122.4737534388117
  0
ARC
  5
8AA1
  8
0
 10
546.88110183242668
 20
250.7032447311849
 30
0.0
 40
46.003963696061113
 50
224.55702229808779
 51
236.39771515956929
  0
ARC
  5
8AA2
  8
0
 10
461.32062017545428
 20
250.70324473118851
 30
0.0
 40
46.003963696066208
 50
303.60228484043353
 51
315.44297770191218
  0
ARC
  5
8AA4
  8
0
 10
222.60483520384389
 20
-193.6735098174394
 30
0.0
 40
505.66092232482629
 50
57.526246561181019
 51
58.504197741135712
  0
LINE
  5
8AA7
  8
0
 10
484.88259111275329
 20
228.9260006267836
 30
0.0
 11
484.88259111275318
 21
221.4260006267838
 31
0.0
  0
ARC
  5
8AA9
  8
0
 10
445.6497098936365
 20
174.61292083073391
 30
0.0
 40
75.137148820425594
 50
56.810658343658517
 51
59.219785958650931
  0
ARC
  5
8AAA
  8
0
 10
440.63023385417102
 20
265.59689481758858
 30
0.0
 40
70.435580055131467
 50
308.10966295123478
 51
310.93559959111383
  0
LINE
  5
8AAB
  8
0
 10
523.31913089513182
 20
221.42600062678349
 30
0.0
 11
523.31913089513182
 21
228.9260006267836
 31
0.0
  0
ARC
  5
8AAC
  8
0
 10
569.94943769765155
 20
268.4386573783778
 30
0.0
 40
74.140465726000855
 50
229.11504856992619
 51
231.80050127611631
  0
ARC
  5
8AAD
  8
0
 10
564.07570345495765
 20
172.20820641318861
 30
0.0
 40
77.983663991595535
 50
120.8375263621534
 51
123.1590470537373
  0
LINE
  5
8AB0
  8
0
 10
523.50079760107144
 20
228.9260006267836
 30
0.0
 11
523.50079760107133
 21
221.42600062678349
 31
0.0
  0
LINE
  5
8AB1
  8
0
 10
483.38086100394253
 20
221.4260006267838
 30
0.0
 11
484.88259111275318
 21
221.4260006267838
 31
0.0
  0
LINE
  5
8AB2
  8
0
 10
484.70092460445881
 20
221.4260006267838
 30
0.0
 11
484.70092460445892
 21
228.9260006267836
 31
0.0
  0
LINE
  5
8AB3
  8
0
 10
483.38086100394258
 20
228.9260006267836
 30
0.0
 11
484.88259111275329
 21
228.9260006267836
 31
0.0
  0
LINE
  5
8ABE
  8
0
 10
523.31913089513182
 20
228.9260006267836
 30
0.0
 11
524.82086100394235
 21
228.9260006267836
 31
0.0
  0
LINE
  5
8ABF
  8
0
 10
523.31913089513182
 20
221.42600062678349
 30
0.0
 11
524.82086100394235
 21
221.42600062678349
 31
0.0
  0
LINE
  5
8AC2
  8
0
 10
508.70086100394258
 20
210.17495068854049
 30
0.0
 11
508.70086100394258
 21
199.69600062678359
 31
0.0
  0
LINE
  5
8AC4
  8
0
 10
499.5008610039427
 20
199.69600062678359
 30
0.0
 11
499.5008610039427
 21
210.17495068854049
 31
0.0
  0
CIRCLE
  5
8ACA
  8
0
 10
301.560861003941
 20
192.16602315272399
 30
0.0
 40
4.0000000000017897
  0
LINE
  5
8ACB
  8
0
 10
297.67414607482999
 20
207.1082167209124
 30
0.0
 11
307.1392828196324
 21
197.90023713950711
 31
0.0
  0
ARC
  5
8ACC
  8
0
 10
301.560861003941
 20
192.16602315272399
 30
0.0
 40
8.0000000000000284
 50
287.92397562814051
 51
45.788999999998751
  0
LINE
  5
8ACD
  8
0
 10
284.47148220974441
 20
197.63002633683561
 30
0.0
 11
280.88138665405643
 21
201.12258301756421
 31
0.0
  0
ARC
  5
8ACE
  8
0
 10
286.45980846974783
 20
206.8567970043473
 30
0.0
 40
8.0000000000000089
 50
200.6172643252022
 51
225.78900000000101
  0
LINE
  5
8AD7
  8
0
 10
255.560861003941
 20
168.66602315272399
 30
0.0
 11
299.560861003941
 21
168.66602315272399
 31
0.0
  0
LINE
  5
8AD8
  8
0
 10
299.560861003941
 20
166.16602315272399
 30
0.0
 11
255.560861003941
 21
166.16602315272399
 31
0.0
  0
ARC
  5
8AD9
  8
0
 10
263.560861003941
 20
208.66602315272411
 30
0.0
 40
8.0000000000000355
 50
42.000000000001009
 51
180.0
  0
LINE
  5
8ADA
  8
0
 10
274.57658513132799
 20
208.3876344758591
 30
0.0
 11
269.50601960776021
 21
214.01906800359481
 31
0.0
  0
ARC
  5
8ADB
  8
0
 10
270.86086100394101
 20
205.0419814440647
 30
0.0
 40
5.0000000000000311
 50
0.0
 51
42.000000000001009
  0
LINE
  5
8ADC
  8
0
 10
275.86086100394101
 20
205.0419814440647
 30
0.0
 11
275.8608610039409
 21
203.41602315272399
 31
0.0
  0
ARC
  5
8ADD
  8
0
 10
281.8608610039409
 20
203.41602315272399
 30
0.0
 40
6.0000000000000044
 50
180.0
 51
275.233395729606
  0
LINE
  5
8ADE
  8
0
 10
300.92236978438319
 20
199.13684297269839
 30
0.0
 11
282.40813919213338
 21
197.4410347356031
 31
0.0
  0
ARC
  5
8ADF
  8
0
 10
301.560861003941
 20
192.16602315272399
 30
0.0
 40
7.000000000000016
 50
315.0
 51
95.233395729602734
  0
LINE
  5
8AE0
  8
0
 10
301.02532709800829
 20
181.7309943101796
 30
0.0
 11
306.51060847224682
 21
187.21627568441821
 31
0.0
  0
ARC
  5
8AE1
  8
0
 10
304.560861003941
 20
178.19546040424689
 30
0.0
 40
4.9999999999999707
 50
135.0
 51
180.0
  0
ARC
  5
8AE2
  8
0
 10
253.560861003941
 20
176.16602315272399
 30
0.0
 40
2.0
 50
0.0
 51
59.99999999999946
  0
ARC
  5
8AE4
  8
0
 10
253.560861003941
 20
200.16602315272411
 30
0.0
 40
2.0000000000000111
 50
300.00000000000051
 51
0.0
  0
LINE
  5
8AE5
  8
0
 10
255.560861003941
 20
208.66602315272411
 30
0.0
 11
255.560861003941
 21
200.16602315272411
 31
0.0
  0
LINE
  5
8AE6
  8
0
 10
299.56086100394089
 20
166.16602315272399
 30
0.0
 11
299.560861003941
 21
178.19546040424689
 31
0.0
  0
LINE
  5
8AE7
  8
0
 10
255.560861003941
 20
176.16602315272399
 30
0.0
 11
255.560861003941
 21
166.16602315272399
 31
0.0
  0
LINE
  5
8AE8
  8
0
 10
253.560861003941
 20
178.16602315272399
 30
0.0
 11
249.060861003941
 21
178.16602315272399
 31
0.0
  0
LINE
  5
8AE9
  8
0
 10
249.060861003941
 20
198.16602315272399
 30
0.0
 11
249.060861003941
 21
178.16602315272399
 31
0.0
  0
LINE
  5
8AEA
  8
0
 10
249.060861003941
 20
198.16602315272399
 30
0.0
 11
253.560861003941
 21
198.16602315272399
 31
0.0
  0
POLYLINE
  5
8AEB
  8
0
 66
     1
 10
0.0
 20
0.0
 30
0.0
 70
   128
  0
VERTEX
  5
965B
  8
0
 10
253.560861003941
 20
178.16602315272399
 30
0.0
  0
VERTEX
  5
965C
  8
0
 10
254.1882257755492
 20
178.0650790874835
 30
0.0
  0
VERTEX
  5
965D
  8
0
 10
254.560861003941
 20
177.89807396029289
 30
0.0
  0
SEQEND
  5
965E
  8
0
  0
POLYLINE
  5
8AEC
  8
0
 66
     1
 10
0.0
 20
0.0
 30
0.0
 70
   128
  0
VERTEX
  5
965F
  8
0
 10
254.560861003941
 20
198.4339723451551
 30
0.0
  0
VERTEX
  5
9660
  8
0
 10
253.96303757309471
 20
198.20687690825329
 30
0.0
  0
VERTEX
  5
9661
  8
0
 10
253.560861003941
 20
198.16602315272399
 30
0.0
  0
SEQEND
  5
9662
  8
0
  0
CIRCLE
  5
8AEF
  8
0
 10
263.560861003941
 20
208.16602315272399
 30
0.0
 40
4.0000000000017764
  0
CIRCLE
  5
8AF0
  8
0
 10
286.30278796260421
 20
206.9464630293528
 30
0.0
 40
4.0000000000017852
  0
ARC
  5
8AF6
  8
0
 10
301.560861003941
 20
192.16602315272399
 30
0.0
 40
8.0000000000000018
 50
286.04497562814129
 51
287.92397562814051
  0
LINE
  5
8B12
  8
0
 10
292.45678399334219
 20
341.86694936830628
 30
0.0
 11
292.45678399334219
 21
343.56694936830201
 31
0.0
  0
LINE
  5
8B13
  8
0
 10
280.45678399334219
 20
343.56694936830201
 30
0.0
 11
280.45678399334219
 21
341.86694936830628
 31
0.0
  0
LINE
  5
8B14
  8
0
 10
292.4567839933473
 20
343.56694936830201
 30
0.0
 11
292.25678399334282
 21
343.76694936834099
 31
0.0
  0
LINE
  5
8B15
  8
0
 10
280.65678399334161
 20
343.76694936834099
 30
0.0
 11
280.45678399333701
 21
343.56694936830201
 31
0.0
  0
LINE
  5
8B16
  8
0
 10
280.45678399336941
 20
341.86694936830628
 30
0.0
 11
280.60678399337752
 21
341.7169493683021
 31
0.0
  0
LINE
  5
8B17
  8
0
 10
292.25678399329428
 20
341.66694936829072
 30
0.0
 11
292.45678399331501
 21
341.86694936830628
 31
0.0
  0
ARC
  5
8B18
  8
0
 10
301.560861003941
 20
390.61694936831361
 30
0.0
 40
60.000000000011909
 50
266.1774462707225
 51
270.0
  0
ARC
  5
8B19
  8
0
 10
301.560861003941
 20
390.61694936831361
 30
0.0
 40
60.000000000011909
 50
270.0
 51
273.8225537292775
  0
ARC
  5
8B1A
  8
0
 10
301.560861003941
 20
287.7169493682826
 30
0.0
 40
60.0000000000217
 50
91.910213171708165
 51
93.822553729290476
  0
ARC
  5
8B1B
  8
0
 10
301.560861003941
 20
287.7169493682826
 30
0.0
 40
60.0000000000217
 50
86.177446270709524
 51
88.089786828291835
  0
LINE
  5
8B1C
  8
0
 10
297.560861003941
 20
347.58346755668521
 30
0.0
 11
297.560861003941
 21
346.21694936830198
 31
0.0
  0
LINE
  5
8B1D
  8
0
 10
305.560861003941
 20
346.21694936830198
 30
0.0
 11
305.560861003941
 21
347.58346755668521
 31
0.0
  0
LINE
  5
8B1E
  8
0
 10
297.560861003941
 20
332.11694936830202
 30
0.0
 11
297.560861003941
 21
330.75043117991902
 31
0.0
  0
LINE
  5
8B1F
  8
0
 10
305.560861003941
 20
330.75043117991902
 30
0.0
 11
305.560861003941
 21
332.11694936830202
 31
0.0
  0
LINE
  5
8B20
  8
0
 10
298.560861003941
 20
334.6669493683533
 30
0.0
 11
298.560861003941
 21
334.61694936830202
 31
0.0
  0
LINE
  5
8B21
  8
0
 10
304.560861003941
 20
334.61694936830202
 30
0.0
 11
304.560861003941
 21
334.6669493683533
 31
0.0
  0
LINE
  5
8B23
  8
0
 10
309.560861003941
 20
336.66694936830208
 30
0.0
 11
309.560861003941
 21
341.66694936830208
 31
0.0
  0
LINE
  5
8B24
  8
0
 10
308.560861003941
 20
343.7169493683021
 30
0.0
 11
308.560861003941
 21
343.76694936830199
 31
0.0
  0
LINE
  5
8B25
  8
0
 10
308.560861003941
 20
334.56694936830201
 30
0.0
 11
308.560861003941
 21
334.61694936830202
 31
0.0
  0
LINE
  5
8B26
  8
0
 10
307.560861003941
 20
341.86694936830202
 30
0.0
 11
307.560861003941
 21
343.56694936839131
 31
0.0
  0
LINE
  5
8B27
  8
0
 10
295.560861003941
 20
343.56694936839131
 30
0.0
 11
295.560861003941
 21
341.86694936830202
 31
0.0
  0
LINE
  5
8B28
  8
0
 10
307.5608610039107
 20
343.56694936839131
 30
0.0
 11
307.4108610040081
 21
343.7169493683021
 31
0.0
  0
LINE
  5
8B29
  8
0
 10
295.71086100387379
 20
343.7169493683021
 30
0.0
 11
295.56086100397118
 21
343.56694936839131
 31
0.0
  0
LINE
  5
8B2A
  8
0
 10
295.56086100394242
 20
341.86694936830202
 30
0.0
 11
295.76086100386749
 21
341.66694936839929
 31
0.0
  0
LINE
  5
8B2B
  8
0
 10
307.36086100401451
 20
341.66694936839929
 30
0.0
 11
307.56086100393958
 21
341.86694936830202
 31
0.0
  0
LINE
  5
8B2C
  8
0
 10
280.45678399334219
 20
336.41694936830203
 30
0.0
 11
280.45678399334219
 21
334.91694936823188
 31
0.0
  0
LINE
  5
8B2D
  8
0
 10
292.45678399334219
 20
334.91694936823188
 30
0.0
 11
292.45678399334219
 21
336.41694936830203
 31
0.0
  0
LINE
  5
8B2E
  8
0
 10
280.45678399336327
 20
334.91694936823188
 30
0.0
 11
280.70678399335458
 21
334.66694936826218
 31
0.0
  0
LINE
  5
8B2F
  8
0
 10
292.20678399332968
 20
334.66694936826218
 30
0.0
 11
292.4567839933211
 21
334.91694936823188
 31
0.0
  0
LINE
  5
8B30
  8
0
 10
292.4567839933938
 20
336.41694936830203
 30
0.0
 11
292.20678399333281
 21
336.66694936834142
 31
0.0
  0
LINE
  5
8B31
  8
0
 10
280.6567839933079
 20
336.6169493683019
 30
0.0
 11
280.45678399329063
 21
336.41694936830203
 31
0.0
  0
LINE
  5
8B32
  8
0
 10
295.560861003941
 20
336.41694936830208
 30
0.0
 11
295.560861003941
 21
334.91694936834568
 31
0.0
  0
LINE
  5
8B33
  8
0
 10
307.560861003941
 20
334.91694936834568
 30
0.0
 11
307.560861003941
 21
336.41694936830208
 31
0.0
  0
LINE
  5
8B34
  8
0
 10
295.56086100390621
 20
334.91694936834568
 30
0.0
 11
295.81086100391252
 21
334.6669493683533
 31
0.0
  0
LINE
  5
8B35
  8
0
 10
307.31086100396959
 20
334.6669493683533
 30
0.0
 11
307.56086100397579
 21
334.91694936834568
 31
0.0
  0
LINE
  5
8B36
  8
0
 10
307.56086100391121
 20
336.41694936830208
 30
0.0
 11
307.31086100393009
 21
336.66694936826173
 31
0.0
  0
LINE
  5
8B37
  8
0
 10
295.81086100395191
 20
336.66694936826173
 30
0.0
 11
295.56086100397067
 21
336.41694936830208
 31
0.0
  0
ARC
  5
8B3A
  8
0
 10
263.560861003941
 20
390.6169493683135
 30
0.0
 40
60.000000000011909
 50
266.1774462707225
 51
270.0
  0
ARC
  5
8B3B
  8
0
 10
263.560861003941
 20
390.6169493683135
 30
0.0
 40
60.000000000011909
 50
270.0
 51
272.31155679434539
  0
ARC
  5
8B3C
  8
0
 10
263.560861003941
 20
287.71694936828249
 30
0.0
 40
60.0000000000217
 50
91.910213171708165
 51
93.822553729290476
  0
ARC
  5
8B3D
  8
0
 10
263.560861003941
 20
287.71694936828249
 30
0.0
 40
60.0000000000217
 50
87.688443205654536
 51
88.089786828291835
  0
LINE
  5
8B3E
  8
0
 10
259.560861003941
 20
347.58346755668498
 30
0.0
 11
259.560861003941
 21
346.21694936830198
 31
0.0
  0
LINE
  5
8B40
  8
0
 10
259.560861003941
 20
332.11694936830202
 30
0.0
 11
259.560861003941
 21
330.75043117991902
 31
0.0
  0
LINE
  5
8B41
  8
0
 10
267.560861003941
 20
330.75043117991902
 30
0.0
 11
267.560861003941
 21
332.11694936830202
 31
0.0
  0
LINE
  5
8B42
  8
0
 10
260.560861003941
 20
343.71694936830193
 30
0.0
 11
260.560861003941
 21
341.7169493683021
 31
0.0
  0
ARC
  5
8B44
  8
0
 10
286.30278796260598
 20
390.6169493683135
 30
0.0
 40
60.00000000001188
 50
266.1774462707225
 51
270.0
  0
ARC
  5
8B45
  8
0
 10
286.30278796260598
 20
390.6169493683135
 30
0.0
 40
60.00000000001188
 50
270.0
 51
273.8225537292775
  0
ARC
  5
8B46
  8
0
 10
286.30278796260598
 20
287.71694936828249
 30
0.0
 40
60.0000000000217
 50
91.910213171708165
 51
93.822553729290476
  0
ARC
  5
8B47
  8
0
 10
286.30278796260598
 20
287.71694936828249
 30
0.0
 40
60.0000000000217
 50
86.177446270709524
 51
88.089786828291835
  0
LINE
  5
8B48
  8
0
 10
282.30278796260598
 20
347.58346755668498
 30
0.0
 11
282.30278796260598
 21
346.21694936830198
 31
0.0
  0
LINE
  5
8B49
  8
0
 10
290.30278796260598
 20
346.21694936830198
 30
0.0
 11
290.30278796260598
 21
347.58346755668498
 31
0.0
  0
LINE
  5
8B4A
  8
0
 10
282.30278796260598
 20
332.11694936830202
 30
0.0
 11
282.30278796260598
 21
330.75043117991902
 31
0.0
  0
LINE
  5
8B4B
  8
0
 10
290.30278796260598
 20
330.75043117991902
 30
0.0
 11
290.30278796260598
 21
332.11694936830202
 31
0.0
  0
LINE
  5
8B52
  8
0
 10
280.65678399334161
 20
343.76694936834099
 30
0.0
 11
292.25678399334282
 21
343.76694936834099
 31
0.0
  0
LINE
  5
8B53
  8
0
 10
297.56086100393918
 20
330.75043117991902
 30
0.0
 11
305.56086100394282
 21
330.75043117991902
 31
0.0
  0
LINE
  5
8B54
  8
0
 10
303.560861003941
 20
347.6836067705641
 30
0.0
 11
299.56086100394089
 21
347.6836067705641
 31
0.0
  0
LINE
  5
8B55
  8
0
 10
305.560861003941
 20
347.58346755668521
 30
0.0
 11
297.560861003941
 21
347.58346755668521
 31
0.0
  0
LINE
  5
8B57
  8
0
 10
280.79366494190231
 20
336.66694936830208
 30
0.0
 11
286.60086100394102
 21
336.66694936830208
 31
0.0
  0
LINE
  5
8B60
  8
0
 10
255.560861003941
 20
346.21694936830198
 30
0.0
 11
255.560861003941
 21
343.7169493683021
 31
0.0
  0
LINE
  5
8B62
  8
0
 10
255.560861003941
 20
332.11694936830202
 30
0.0
 11
255.560861003941
 21
334.61694936830202
 31
0.0
  0
POLYLINE
  5
8B77
  8
0
 66
     1
 10
0.0
 20
0.0
 30
0.0
 70
   128
  0
VERTEX
  5
9663
  8
0
 10
253.560861003941
 20
346.12527628149797
 30
0.0
  0
VERTEX
  5
9664
  8
0
 10
254.1882257755492
 20
346.20431148379618
 30
0.0
  0
VERTEX
  5
9665
  8
0
 10
254.560861003941
 20
346.21694936830198
 30
0.0
  0
SEQEND
  5
9666
  8
0
  0
POLYLINE
  5
8B78
  8
0
 66
     1
 10
0.0
 20
0.0
 30
0.0
 70
   128
  0
VERTEX
  5
9667
  8
0
 10
254.560861003941
 20
343.7169493683021
 30
0.0
  0
VERTEX
  5
9668
  8
0
 10
254.02288674579179
 20
343.66831916850822
 30
0.0
  0
VERTEX
  5
9669
  8
0
 10
253.560861003941
 20
343.5453764930482
 30
0.0
  0
SEQEND
  5
966A
  8
0
  0
LINE
  5
8B7A
  8
0
 10
254.560861003941
 20
343.7169493683021
 30
0.0
 11
265.40086100394097
 21
343.7169493683021
 31
0.0
  0
LINE
  5
8B7B
  8
0
 10
254.560861003941
 20
346.21694936830198
 30
0.0
 11
308.560861003941
 21
346.21694936830198
 31
0.0
  0
POLYLINE
  5
8B7C
  8
0
 66
     1
 10
0.0
 20
0.0
 30
0.0
 70
   128
  0
VERTEX
  5
966B
  8
0
 10
254.560861003941
 20
332.11694936830202
 30
0.0
  0
VERTEX
  5
966C
  8
0
 10
253.96303757309471
 20
332.14953616409559
 30
0.0
  0
VERTEX
  5
966D
  8
0
 10
253.560861003941
 20
332.20862245510602
 30
0.0
  0
SEQEND
  5
966E
  8
0
  0
POLYLINE
  5
8B7E
  8
0
 66
     1
 10
0.0
 20
0.0
 30
0.0
 70
   128
  0
VERTEX
  5
966F
  8
0
 10
254.560861003941
 20
334.61694936830202
 30
0.0
  0
VERTEX
  5
9670
  8
0
 10
254.02288674579179
 20
334.66557956809589
 30
0.0
  0
VERTEX
  5
9671
  8
0
 10
253.560861003941
 20
334.7885222435558
 30
0.0
  0
SEQEND
  5
9672
  8
0
  0
LINE
  5
8B87
  8
0
 10
292.30678399337302
 20
343.7169493683021
 30
0.0
 11
308.56086100394089
 21
343.7169493683021
 31
0.0
  0
LINE
  5
8B8B
  8
0
 10
282.7956259681734
 20
332.11694936830202
 30
0.0
 11
282.40813919213338
 21
332.11694936830202
 31
0.0
  0
LINE
  5
8B8E
  8
0
 10
251.560861003941
 20
337.95206909369023
 30
0.0
 11
251.560861003941
 21
340.38182964291389
 31
0.0
  0
LINE
  5
8B8F
  8
0
 10
249.060861003941
 20
340.71694936830198
 30
0.0
 11
249.060861003941
 21
337.61694936830202
 31
0.0
  0
ARC
  5
8B90
  8
0
 10
254.560861003941
 20
337.61694936830202
 30
0.0
 40
3.0
 50
219.03564146125251
 51
250.5287793655101
  0
ARC
  5
8B91
  8
0
 10
254.560861003941
 20
340.71694936830198
 30
0.0
 40
3.0
 50
109.4712206344899
 51
140.96435853874749
  0
ARC
  5
8B92
  8
0
 10
254.560861003941
 20
337.61694936830202
 30
0.0
 40
5.5000000000000071
 50
180.0
 51
187.3839258067859
  0
ARC
  5
8B93
  8
0
 10
254.560861003941
 20
340.71694936830198
 30
0.0
 40
5.5
 50
100.4756816963904
 51
148.0135068181832
  0
LINE
  5
8B94
  8
0
 10
267.66086100394102
 20
354.6669493683022
 30
0.0
 11
267.66086100394102
 21
352.21694936830198
 31
0.0
  0
ARC
  5
8B95
  8
0
 10
264.560861003941
 20
354.6669493683022
 30
0.0
 40
3.1000000000000081
 50
0.0
 51
180.0
  0
LINE
  5
8B96
  8
0
 10
261.46086100394098
 20
352.21694936830198
 30
0.0
 11
261.46086100394098
 21
354.6669493683022
 31
0.0
  0
ARC
  5
8B97
  8
0
 10
264.560861003941
 20
352.21694936830198
 30
0.0
 40
3.1000000000000081
 50
180.0
 51
0.0
  0
LINE
  5
8B98
  8
0
 10
293.66086100394102
 20
354.6669493683022
 30
0.0
 11
293.66086100394102
 21
352.21694936830198
 31
0.0
  0
ARC
  5
8B99
  8
0
 10
290.560861003941
 20
354.6669493683022
 30
0.0
 40
3.1000000000000081
 50
0.0
 51
180.0
  0
LINE
  5
8B9A
  8
0
 10
287.46086100394098
 20
352.21694936830198
 30
0.0
 11
287.46086100394098
 21
354.6669493683022
 31
0.0
  0
ARC
  5
8B9B
  8
0
 10
290.560861003941
 20
352.21694936830198
 30
0.0
 40
3.1000000000000081
 50
180.0
 51
0.0
  0
LINE
  5
8B9C
  8
0
 10
293.560861003941
 20
361.6669493683022
 30
0.0
 11
261.560861003941
 21
361.6669493683022
 31
0.0
  0
ARC
  5
8B9D
  8
0
 10
293.560861003941
 20
355.6669493683022
 30
0.0
 40
6.0
 50
0.0
 51
90.0
  0
ARC
  5
8B9E
  8
0
 10
261.560861003941
 20
355.6669493683022
 30
0.0
 40
6.0000000000000142
 50
90.0
 51
180.0
  0
LINE
  5
8B9F
  8
0
 10
255.560861003941
 20
346.2169493683021
 30
0.0
 11
255.560861003941
 21
355.6669493683022
 31
0.0
  0
LINE
  5
8BA0
  8
0
 10
299.560861003941
 20
355.6669493683022
 30
0.0
 11
299.560861003941
 21
347.6836067705641
 31
0.0
  0
LINE
  5
8BA9
  8
0
 10
261.560861003941
 20
316.6669493683022
 30
0.0
 11
293.560861003941
 21
316.6669493683022
 31
0.0
  0
ARC
  5
8BAA
  8
0
 10
261.560861003941
 20
322.66694936830208
 30
0.0
 40
6.0000000000000142
 50
180.0
 51
270.0
  0
ARC
  5
8BAB
  8
0
 10
293.560861003941
 20
322.66694936830208
 30
0.0
 40
5.9999999999999707
 50
270.0
 51
0.0
  0
LINE
  5
8BAC
  8
0
 10
255.560861003941
 20
322.66694936830208
 30
0.0
 11
255.560861003941
 21
332.11694936830207
 31
0.0
  0
LINE
  5
8BAD
  8
0
 10
299.560861003941
 20
330.65029196604189
 30
0.0
 11
299.560861003941
 21
322.66694936830208
 31
0.0
  0
LINE
  5
8BB2
  8
0
 10
292.20678399332968
 20
334.66694936826218
 30
0.0
 11
291.60086100394102
 21
334.66694936826218
 31
0.0
  0
LINE
  5
8BB5
  8
0
 10
307.31086100396959
 20
334.6669493683533
 30
0.0
 11
295.81086100391252
 21
334.6669493683533
 31
0.0
  0
LINE
  5
8BB8
  8
0
 10
309.560861003941
 20
341.66694936830203
 30
0.0
 11
291.60086100394102
 21
341.66694936830203
 31
0.0
  0
LINE
  5
8BBE
  8
0
 10
259.56086100393918
 20
330.75043117991902
 30
0.0
 11
272.40086100394501
 21
330.75043117991879
 31
0.0
  0
LINE
  5
8BBF
  8
0
 10
265.560861003941
 20
347.68360677056398
 30
0.0
 11
261.560861003941
 21
347.68360677056398
 31
0.0
  0
LINE
  5
8BC0
  8
0
 10
272.40086100395922
 20
347.583467556686
 30
0.0
 11
259.560861003941
 21
347.58346755668498
 31
0.0
  0
LINE
  5
8BC1
  8
0
 10
290.30212903229727
 20
330.75043117991902
 30
0.0
 11
290.30278796260961
 21
330.75043117991902
 31
0.0
  0
LINE
  5
8BC2
  8
0
 10
282.30278796260239
 20
330.75043117991902
 30
0.0
 11
290.30212903229727
 21
330.75043117991902
 31
0.0
  0
LINE
  5
8BC3
  8
0
 10
288.30278796260598
 20
347.68360677056398
 30
0.0
 11
284.30278796260592
 21
347.68360677056398
 31
0.0
  0
LINE
  5
8BC4
  8
0
 10
290.30278796260598
 20
347.58346755668498
 30
0.0
 11
282.30278796260598
 21
347.58346755668498
 31
0.0
  0
ARC
  5
8C2A
  8
0
 10
29.11086100392998
 20
192.16602315272399
 30
0.0
 40
60.000000000011909
 50
356.1774462707225
 51
0.0
  0
ARC
  5
8C2B
  8
0
 10
29.11086100392998
 20
192.16602315272399
 30
0.0
 40
60.000000000011909
 50
0.0
 51
3.822553729277482
  0
ARC
  5
8C2C
  8
0
 10
132.010861003961
 20
192.16602315272399
 30
0.0
 40
60.0000000000217
 50
181.9102131717114
 51
183.82255372929049
  0
ARC
  5
8C2D
  8
0
 10
132.010861003961
 20
192.16602315272399
 30
0.0
 40
60.0000000000217
 50
176.17744627070951
 51
178.08978682829181
  0
LINE
  5
8C2E
  8
0
 10
72.144342815558446
 20
188.16602315272399
 30
0.0
 11
73.5108610039415
 21
188.16602315272399
 31
0.0
  0
LINE
  5
8C2F
  8
0
 10
73.5108610039415
 20
196.16602315272399
 30
0.0
 11
72.144342815558446
 21
196.16602315272399
 31
0.0
  0
LINE
  5
8C30
  8
0
 10
87.610861003941494
 20
188.16602315272399
 30
0.0
 11
88.977379192324534
 21
188.16602315272399
 31
0.0
  0
LINE
  5
8C31
  8
0
 10
88.977379192324534
 20
196.16602315272399
 30
0.0
 11
87.610861003941494
 21
196.16602315272399
 31
0.0
  0
LINE
  5
8C51
  8
0
 10
88.977379192324534
 20
188.16602315272041
 30
0.0
 11
88.977379192324534
 21
196.16602315272749
 31
0.0
  0
LINE
  5
8C52
  8
0
 10
72.04420360167947
 20
194.16602315272399
 30
0.0
 11
72.04420360167947
 21
190.16602315272391
 31
0.0
  0
LINE
  5
8C53
  8
0
 10
72.144342815558417
 20
196.16602315272399
 30
0.0
 11
72.144342815558446
 21
188.1660231527072
 31
0.0
  0
POLYLINE
  5
8C5E
  8
0
 66
     1
 10
0.0
 20
0.0
 30
0.0
 70
   128
  0
VERTEX
  5
9673
  8
0
 10
73.51086100394167
 20
177.89807396029289
 30
0.0
  0
VERTEX
  5
9674
  8
0
 10
73.543447799735191
 20
178.12516939719481
 30
0.0
  0
VERTEX
  5
9675
  8
0
 10
73.602534090745678
 20
178.16602315272399
 30
0.0
  0
SEQEND
  5
9676
  8
0
  0
POLYLINE
  5
8C60
  8
0
 66
     1
 10
0.0
 20
0.0
 30
0.0
 70
   128
  0
VERTEX
  5
9677
  8
0
 10
73.602534090745678
 20
198.16602315272399
 30
0.0
  0
VERTEX
  5
9678
  8
0
 10
73.523498888447421
 20
198.26696721796449
 30
0.0
  0
VERTEX
  5
9679
  8
0
 10
73.51086100394167
 20
198.4339723451551
 30
0.0
  0
SEQEND
  5
967A
  8
0
  0
LINE
  5
8C61
  8
0
 10
87.519187917137614
 20
178.16602315272399
 30
0.0
 11
84.560861003941767
 21
178.16602315272411
 31
0.0
  0
POLYLINE
  5
8C65
  8
0
 66
     1
 10
0.0
 20
0.0
 30
0.0
 70
   128
  0
VERTEX
  5
967B
  8
0
 10
87.610861003941636
 20
198.4339723451551
 30
0.0
  0
VERTEX
  5
967C
  8
0
 10
87.578274208148116
 20
198.20687690825329
 30
0.0
  0
VERTEX
  5
967D
  8
0
 10
87.519187917137614
 20
198.16602315272399
 30
0.0
  0
SEQEND
  5
967E
  8
0
  0
POLYLINE
  5
8C67
  8
0
 66
     1
 10
0.0
 20
0.0
 30
0.0
 70
   128
  0
VERTEX
  5
967F
  8
0
 10
87.519187917137614
 20
178.16602315272399
 30
0.0
  0
VERTEX
  5
9680
  8
0
 10
87.598223119435886
 20
178.0650790874835
 30
0.0
  0
VERTEX
  5
9681
  8
0
 10
87.610861003941636
 20
177.89807396029289
 30
0.0
  0
SEQEND
  5
9682
  8
0
  0
LINE
  5
8C68
  8
0
 10
73.602534090745678
 20
198.16602315272399
 30
0.0
 11
74.060861003941767
 21
198.16602315272399
 31
0.0
  0
POLYLINE
  5
8C6B
  8
0
 66
     1
 10
0.0
 20
0.0
 30
0.0
 70
   128
  0
VERTEX
  5
9683
  8
0
 10
76.01086100394167
 20
177.89807396029289
 30
0.0
  0
VERTEX
  5
9684
  8
0
 10
76.059491203735504
 20
178.11192454125
 30
0.0
  0
VERTEX
  5
9685
  8
0
 10
76.182433879195443
 20
178.16602315272399
 30
0.0
  0
SEQEND
  5
9686
  8
0
  0
POLYLINE
  5
8C6C
  8
0
 66
     1
 10
0.0
 20
0.0
 30
0.0
 70
   128
  0
VERTEX
  5
9687
  8
0
 10
84.939288128687849
 20
178.16602315272399
 30
0.0
  0
VERTEX
  5
9688
  8
0
 10
85.078190604636177
 20
178.08647081602479
 30
0.0
  0
VERTEX
  5
9689
  8
0
 10
85.110861003941665
 20
177.89807396029289
 30
0.0
  0
SEQEND
  5
968A
  8
0
  0
LINE
  5
8C6E
  8
0
 10
73.510861003942182
 20
168.66602315272411
 30
0.0
 11
73.51086100394167
 21
199.67638031380449
 31
0.0
  0
LINE
  5
8C71
  8
0
 10
76.01086100394167
 20
166.16602315272399
 30
0.0
 11
76.01086100394167
 21
167.876023152724
 31
0.0
  0
LINE
  5
8C76
  8
0
 10
87.610861003941608
 20
199.6763803138046
 30
0.0
 11
87.610861003941608
 21
168.66602315272399
 31
0.0
  0
LINE
  5
8C79
  8
0
 10
85.110861003941423
 20
166.16602315272399
 30
0.0
 11
85.110861003941466
 21
167.87602315272409
 31
0.0
  0
LINE
  5
8C7B
  8
0
 10
73.510861003941642
 20
168.66602315272399
 30
0.0
 11
58.060861003941618
 21
168.66602315272399
 31
0.0
  0
LINE
  5
8C7C
  8
0
 10
58.060861003941604
 20
166.16602315272399
 30
0.0
 11
76.01086100394167
 21
166.16602315272399
 31
0.0
  0
LINE
  5
8C7F
  8
0
 10
103.0608610039416
 20
168.66602315272399
 30
0.0
 11
87.610861003941636
 21
168.66602315272399
 31
0.0
  0
LINE
  5
8C81
  8
0
 10
85.110861003941636
 20
166.16602315272399
 30
0.0
 11
103.0608610039416
 21
166.16602315272399
 31
0.0
  0
LINE
  5
8C84
  8
0
 10
58.060861003941618
 20
168.66602315272399
 30
0.0
 11
58.060861003941618
 21
166.16602315272399
 31
0.0
  0
LINE
  5
8C91
  8
0
 10
103.0608610039416
 20
166.16602315272399
 30
0.0
 11
103.0608610039416
 21
168.66602315272399
 31
0.0
  0
LINE
  5
8D5C
  8
0
 10
508.50086100394282
 20
200.851696694493
 30
0.0
 11
508.70086100398169
 21
201.05169669449759
 31
0.0
  0
LINE
  5
8D5E
  8
0
 10
506.80086100394709
 20
200.85169669449829
 30
0.0
 11
508.50086100394282
 21
200.85169669449829
 31
0.0
  0
LINE
  5
8D61
  8
0
 10
506.60086100393141
 20
201.05169669454611
 30
0.0
 11
506.80086100394709
 21
200.85169669452549
 31
0.0
  0
ARC
  5
8D62
  8
0
 10
555.5508610039542
 20
192.16602315272399
 30
0.0
 40
60.000000000011909
 50
176.1774462707225
 51
180.0
  0
ARC
  5
8D63
  8
0
 10
555.5508610039542
 20
192.16602315272399
 30
0.0
 40
60.000000000011909
 50
180.0
 51
183.82255372927739
  0
ARC
  5
8D64
  8
0
 10
452.65086100392318
 20
192.16602315272399
 30
0.0
 40
60.000000000021679
 50
1.9102131717081761
 51
3.822553729290481
  0
ARC
  5
8D65
  8
0
 10
452.65086100392318
 20
192.16602315272399
 30
0.0
 40
60.000000000021679
 50
356.17744627071272
 51
358.08978682829178
  0
LINE
  5
8D66
  8
0
 10
512.51737919232573
 20
196.16602315272399
 30
0.0
 11
511.15086100394262
 21
196.16602315272399
 31
0.0
  0
LINE
  5
8D67
  8
0
 10
511.15086100394262
 20
188.16602315272399
 30
0.0
 11
512.51737919232573
 21
188.16602315272399
 31
0.0
  0
LINE
  5
8D68
  8
0
 10
497.0508610039426
 20
196.16602315272399
 30
0.0
 11
495.6843428155596
 21
196.16602315272399
 31
0.0
  0
LINE
  5
8D69
  8
0
 10
495.6843428155596
 20
188.16602315272399
 30
0.0
 11
497.0508610039426
 21
188.16602315272399
 31
0.0
  0
LINE
  5
8D6A
  8
0
 10
499.60086100399388
 20
195.16602315272399
 30
0.0
 11
499.5508610039426
 21
195.16602315272399
 31
0.0
  0
LINE
  5
8D6B
  8
0
 10
499.5508610039426
 20
189.16602315272399
 30
0.0
 11
499.60086100399388
 21
189.16602315272399
 31
0.0
  0
LINE
  5
8D6C
  8
0
 10
501.60086100394273
 20
184.16602315272399
 30
0.0
 11
506.60086100394273
 21
184.16602315272411
 31
0.0
  0
LINE
  5
8D6E
  8
0
 10
511.15086100394262
 20
199.16602315272399
 30
0.0
 11
508.65086100394262
 21
199.16602315272399
 31
0.0
  0
LINE
  5
8D6F
  8
0
 10
499.55086100394271
 20
199.16602315272399
 30
0.0
 11
497.0508610039426
 21
199.16602315272399
 31
0.0
  0
LINE
  5
8D72
  8
0
 10
506.8008610039426
 20
186.16602315272399
 30
0.0
 11
508.50086100403178
 21
186.16602315272399
 31
0.0
  0
LINE
  5
8D73
  8
0
 10
508.50086100403178
 20
198.16602315272399
 30
0.0
 11
506.60086100394273
 21
198.16602315272399
 31
0.0
  0
LINE
  5
8D74
  8
0
 10
508.50086100403178
 20
186.16602315275429
 30
0.0
 11
508.65086100394262
 21
186.31602315265681
 31
0.0
  0
LINE
  5
8D75
  8
0
 10
508.65086100394268
 20
198.01602315279109
 30
0.0
 11
508.50086100403178
 21
198.1660231526937
 31
0.0
  0
LINE
  5
8D76
  8
0
 10
506.8008610039426
 20
198.16602315272269
 30
0.0
 11
506.60086100403981
 21
197.9660231527975
 31
0.0
  0
LINE
  5
8D77
  8
0
 10
506.60086100403981
 20
186.36602315265051
 30
0.0
 11
506.8008610039426
 21
186.1660231527253
 31
0.0
  0
LINE
  5
8D79
  8
0
 10
499.85086100387269
 20
200.85169669449829
 30
0.0
 11
501.35086100394273
 21
200.85169669449829
 31
0.0
  0
LINE
  5
8D7B
  8
0
 10
499.60086100390282
 20
201.10169669451071
 30
0.0
 11
499.85086100387269
 21
200.85169669451929
 31
0.0
  0
LINE
  5
8D7C
  8
0
 10
501.35086100394273
 20
200.8516966944467
 30
0.0
 11
501.60086100398212
 21
201.10169669450761
 31
0.0
  0
LINE
  5
8D7F
  8
0
 10
499.85086100398632
 20
186.16602315272399
 30
0.0
 11
501.35086100394261
 21
186.16602315272399
 31
0.0
  0
LINE
  5
8D80
  8
0
 10
499.85086100398632
 20
198.16602315275881
 30
0.0
 11
499.60086100399388
 21
197.91602315275259
 31
0.0
  0
LINE
  5
8D81
  8
0
 10
499.60086100399388
 20
186.41602315269549
 30
0.0
 11
499.85086100398632
 21
186.16602315268909
 31
0.0
  0
LINE
  5
8D82
  8
0
 10
501.35086100394261
 20
186.1660231527537
 30
0.0
 11
501.60086100390231
 21
186.41602315273499
 31
0.0
  0
LINE
  5
8D83
  8
0
 10
501.60086100390231
 20
197.91602315271311
 30
0.0
 11
501.35086100394261
 21
198.16602315269421
 31
0.0
  0
ARC
  5
8D86
  8
0
 10
555.5508610039542
 20
208.16602315272399
 30
0.0
 40
60.00000000001193
 50
178.08125689819721
 51
180.58230709047319
  0
ARC
  5
8D88
  8
0
 10
452.6508610039233
 20
208.16602315272399
 30
0.0
 40
60.000000000021707
 50
1.9102131717081761
 51
1.918743101802735
  0
ARC
  5
8D8C
  8
0
 10
555.5508610039542
 20
206.94646302935101
 30
0.0
 40
60.00000000001188
 50
176.91553174148081
 51
180.0
  0
ARC
  5
8D8D
  8
0
 10
555.5508610039542
 20
206.94646302935101
 30
0.0
 40
60.00000000001188
 50
180.0
 51
183.82255372927739
  0
ARC
  5
8D8E
  8
0
 10
452.65086100392318
 20
206.94646302935101
 30
0.0
 40
60.000000000021693
 50
1.9102131717081761
 51
3.0844682585191818
  0
ARC
  5
8D8F
  8
0
 10
452.65086100392318
 20
206.94646302935101
 30
0.0
 40
60.000000000021721
 50
356.17744627071272
 51
358.08978682829178
  0
LINE
  5
8D91
  8
0
 10
511.15086100394268
 20
202.94646302935101
 30
0.0
 11
512.51737919232573
 21
202.94646302935101
 31
0.0
  0
LINE
  5
8D93
  8
0
 10
495.68434281555972
 20
202.94646302935101
 30
0.0
 11
497.05086100394271
 21
202.94646302935101
 31
0.0
  0
LINE
  5
8D9D
  8
0
 10
495.6843428155596
 20
196.16602315272399
 30
0.0
 11
495.6843428155596
 21
188.16602315272041
 31
0.0
  0
LINE
  5
8D9F
  8
0
 10
512.61751840620468
 20
190.16602315272391
 30
0.0
 11
512.61751840620468
 21
194.16602315272399
 31
0.0
  0
LINE
  5
8DA0
  8
0
 10
512.51737919232573
 20
188.1660231527072
 30
0.0
 11
512.51737919232573
 21
196.16602315274071
 31
0.0
  0
LINE
  5
8DA1
  8
0
 10
501.60086100394273
 20
210.17495068854041
 30
0.0
 11
501.60086100394273
 21
184.16602315272399
 31
0.0
  0
LINE
  5
8DBC
  8
0
 10
526.60086100394267
 20
166.16602315272399
 30
0.0
 11
508.65086100394262
 21
166.16602315272399
 31
0.0
  0
LINE
  5
8DBD
  8
0
 10
526.60086100394267
 20
168.66602315272399
 30
0.0
 11
511.15086100394262
 21
168.66602315272399
 31
0.0
  0
LINE
  5
8DC0
  8
0
 10
497.0508610039426
 20
168.66602315272399
 30
0.0
 11
481.60086100394273
 21
168.66602315272399
 31
0.0
  0
LINE
  5
8DC1
  8
0
 10
481.60086100394273
 20
166.16602315272399
 30
0.0
 11
499.55086100394271
 21
166.16602315272399
 31
0.0
  0
LINE
  5
8DC5
  8
0
 10
526.60086100394267
 20
166.16602315272399
 30
0.0
 11
526.60086100394267
 21
168.66602315272399
 31
0.0
  0
LINE
  5
8DC8
  8
0
 10
481.60086100394273
 20
168.66602315272399
 30
0.0
 11
481.60086100394273
 21
166.16602315272399
 31
0.0
  0
LINE
  5
8DCB
  8
0
 10
508.65086100394268
 20
201.0016966944672
 30
0.0
 11
508.65086100394268
 21
166.16602315272399
 31
0.0
  0
LINE
  5
8DD0
  8
0
 10
511.15086100394268
 20
202.92367578471399
 30
0.0
 11
511.15086100394268
 21
202.94646302935101
 31
0.0
  0
LINE
  5
8DD1
  8
0
 10
497.05086100394271
 20
202.94646302935101
 30
0.0
 11
497.05086100394271
 21
202.92367578471399
 31
0.0
  0
LINE
  5
8DDA
  8
0
 10
511.15086100394228
 20
168.66602315272399
 30
0.0
 11
511.15086100394268
 21
210.17495068854041
 31
0.0
  0
POLYLINE
  5
8DDD
  8
0
 66
     1
 10
0.0
 20
0.0
 30
0.0
 70
   128
  0
VERTEX
  5
968B
  8
0
 10
508.65086100394291
 20
177.89807396029289
 30
0.0
  0
VERTEX
  5
968C
  8
0
 10
508.60223080414892
 20
178.11192454125
 30
0.0
  0
VERTEX
  5
968D
  8
0
 10
508.47928812868889
 20
178.16602315272399
 30
0.0
  0
SEQEND
  5
968E
  8
0
  0
POLYLINE
  5
8DDE
  8
0
 66
     1
 10
0.0
 20
0.0
 30
0.0
 70
   128
  0
VERTEX
  5
968F
  8
0
 10
508.65086100394291
 20
198.4339723451551
 30
0.0
  0
VERTEX
  5
9690
  8
0
 10
508.60223080414892
 20
198.2201217641981
 30
0.0
  0
VERTEX
  5
9691
  8
0
 10
508.47928812868889
 20
198.16602315272399
 30
0.0
  0
SEQEND
  5
9692
  8
0
  0
POLYLINE
  5
8DDF
  8
0
 66
     1
 10
0.0
 20
0.0
 30
0.0
 70
   128
  0
VERTEX
  5
9693
  8
0
 10
499.72243387919661
 20
178.16602315272399
 30
0.0
  0
VERTEX
  5
9694
  8
0
 10
499.58353140324829
 20
178.08647081602479
 30
0.0
  0
VERTEX
  5
9695
  8
0
 10
499.55086100394283
 20
177.89807396029289
 30
0.0
  0
SEQEND
  5
9696
  8
0
  0
POLYLINE
  5
8DE0
  8
0
 66
     1
 10
0.0
 20
0.0
 30
0.0
 70
   128
  0
VERTEX
  5
9697
  8
0
 10
499.55086100394283
 20
198.4339723451551
 30
0.0
  0
VERTEX
  5
9698
  8
0
 10
499.5994912037367
 20
198.2201217641981
 30
0.0
  0
VERTEX
  5
9699
  8
0
 10
499.72243387919661
 20
198.16602315272399
 30
0.0
  0
SEQEND
  5
969A
  8
0
  0
LINE
  5
8DE3
  8
0
 10
499.72243387919661
 20
198.16602315272399
 30
0.0
 11
501.60086100394273
 21
198.16602315272399
 31
0.0
  0
LINE
  5
8DE5
  8
0
 10
508.47928812868889
 20
178.16602315272399
 30
0.0
 11
499.72243387919661
 21
178.16602315272399
 31
0.0
  0
LINE
  5
8DEC
  8
0
 10
499.60086100390282
 20
201.10169669451071
 30
0.0
 11
499.60086100390282
 21
210.17495068854029
 31
0.0
  0
LINE
  5
8DEF
  8
0
 10
499.60086100399388
 20
186.41602315269549
 30
0.0
 11
499.60086100399388
 21
197.91602315275259
 31
0.0
  0
LINE
  5
8DF2
  8
0
 10
506.60086100394273
 20
184.16602315272399
 30
0.0
 11
506.60086100394261
 21
210.17495068854041
 31
0.0
  0
LINE
  5
8DFB
  8
0
 10
495.68434281555977
 20
210.17495068854041
 30
0.0
 11
495.68434281555972
 21
202.94646302934731
 31
0.0
  0
LINE
  5
8DFD
  8
0
 10
512.61751840620468
 20
204.94646302935089
 30
0.0
 11
512.61751840620479
 21
210.16602315272289
 31
0.0
  0
LINE
  5
8DFE
  8
0
 10
512.51737919232573
 20
202.9464630293341
 30
0.0
 11
512.51737919232585
 21
210.17495068854029
 31
0.0
  0
LINE
  5
8E92
  8
0
 10
280.45678399334741
 20
63.466023152695641
 30
0.0
 11
280.45678399334741
 21
61.766023152700022
 31
0.0
  0
LINE
  5
8E93
  8
0
 10
292.4567839933473
 20
61.766023152700022
 30
0.0
 11
292.4567839933473
 21
63.466023152695641
 31
0.0
  0
LINE
  5
8E94
  8
0
 10
280.45678399334219
 20
61.766023152700022
 30
0.0
 11
280.60678399331618
 21
61.616023152700159
 31
0.0
  0
LINE
  5
8E95
  8
0
 10
292.30678399337847
 20
61.616023152700159
 30
0.0
 11
292.45678399335247
 21
61.766023152700022
 31
0.0
  0
LINE
  5
8E96
  8
0
 10
292.45678399332007
 20
63.466023152695641
 30
0.0
 11
292.25678399329951
 21
63.666023152711318
 31
0.0
  0
LINE
  5
8E97
  8
0
 10
280.65678399339509
 20
63.666023152711318
 30
0.0
 11
280.45678399337447
 21
63.466023152695641
 31
0.0
  0
ARC
  5
8E98
  8
0
 10
301.560861003941
 20
14.71602315268853
 30
0.0
 40
60.000000000011902
 50
86.177446270722513
 51
91.910213171708165
  0
ARC
  5
8E99
  8
0
 10
301.560861003941
 20
117.61602315271961
 30
0.0
 40
60.0000000000217
 50
271.91021317170822
 51
273.82255372929052
  0
LINE
  5
8E9A
  8
0
 10
305.560861003941
 20
57.749504964316991
 30
0.0
 11
305.560861003941
 21
59.116023152700052
 31
0.0
  0
LINE
  5
8E9B
  8
0
 10
305.560861003941
 20
73.216023152700075
 30
0.0
 11
305.560861003941
 21
74.582541341083072
 31
0.0
  0
LINE
  5
8E9C
  8
0
 10
304.560861003941
 20
70.666023152648833
 30
0.0
 11
304.560861003941
 21
70.716023152700075
 31
0.0
  0
LINE
  5
8E9D
  8
0
 10
298.560861003941
 20
70.716023152700188
 30
0.0
 11
298.560861003941
 21
70.666023152648833
 31
0.0
  0
LINE
  5
8EA0
  8
0
 10
308.560861003941
 20
59.116023152700052
 30
0.0
 11
308.560861003941
 21
61.616023152700052
 31
0.0
  0
LINE
  5
8EA1
  8
0
 10
308.560861003941
 20
70.716023152700075
 30
0.0
 11
308.560861003941
 21
73.216023152700075
 31
0.0
  0
LINE
  5
8EA2
  8
0
 10
295.56086100397118
 20
61.766023152610842
 30
0.0
 11
295.71086100387367
 21
61.616023152700159
 31
0.0
  0
LINE
  5
8EA3
  8
0
 10
307.4108610040081
 20
61.616023152700052
 30
0.0
 11
307.5608610039107
 21
61.766023152610842
 31
0.0
  0
LINE
  5
8EA4
  8
0
 10
295.560861003941
 20
63.466023152700082
 30
0.0
 11
295.560861003941
 21
61.766023152610842
 31
0.0
  0
LINE
  5
8EA5
  8
0
 10
307.560861003941
 20
61.766023152610842
 30
0.0
 11
307.560861003941
 21
63.466023152700082
 31
0.0
  0
LINE
  5
8EA6
  8
0
 10
307.56086100393958
 20
63.466023152700082
 30
0.0
 11
307.36086100401451
 21
63.666023152602861
 31
0.0
  0
LINE
  5
8EA7
  8
0
 10
295.76086100386749
 20
63.666023152602861
 30
0.0
 11
295.56086100394242
 21
63.466023152700082
 31
0.0
  0
LINE
  5
8EA8
  8
0
 10
292.4567839933473
 20
68.916023152700006
 30
0.0
 11
292.4567839933473
 21
70.416023152770023
 31
0.0
  0
LINE
  5
8EA9
  8
0
 10
280.45678399334741
 20
70.416023152770023
 30
0.0
 11
280.45678399334741
 21
68.916023152700006
 31
0.0
  0
LINE
  5
8EAA
  8
0
 10
292.45678399332621
 20
70.416023152770023
 30
0.0
 11
292.20678399333491
 21
70.666023152739797
 31
0.0
  0
LINE
  5
8EAB
  8
0
 10
280.70678399335981
 20
70.666023152739797
 30
0.0
 11
280.45678399336839
 21
70.416023152770023
 31
0.0
  0
LINE
  5
8EAC
  8
0
 10
280.45678399329569
 20
68.916023152700006
 30
0.0
 11
280.70678399335668
 21
68.666023152660557
 31
0.0
  0
LINE
  5
8EAD
  8
0
 10
292.20678399333792
 20
68.666023152660557
 30
0.0
 11
292.45678399339891
 21
68.916023152700006
 31
0.0
  0
LINE
  5
8EAE
  8
0
 10
307.560861003941
 20
68.916023152700006
 30
0.0
 11
307.560861003941
 21
70.416023152656351
 31
0.0
  0
LINE
  5
8EAF
  8
0
 10
295.560861003941
 20
70.416023152656351
 30
0.0
 11
295.560861003941
 21
68.916023152700006
 31
0.0
  0
LINE
  5
8EB0
  8
0
 10
307.56086100397579
 20
70.416023152656351
 30
0.0
 11
307.31086100396959
 21
70.666023152648833
 31
0.0
  0
LINE
  5
8EB1
  8
0
 10
295.81086100391252
 20
70.666023152648833
 30
0.0
 11
295.56086100390621
 21
70.416023152656351
 31
0.0
  0
LINE
  5
8EB2
  8
0
 10
295.56086100397067
 20
68.916023152700006
 30
0.0
 11
295.81086100395191
 21
68.666023152740365
 31
0.0
  0
LINE
  5
8EB3
  8
0
 10
307.31086100393009
 20
68.666023152740365
 30
0.0
 11
307.56086100391121
 21
68.916023152700006
 31
0.0
  0
LINE
  5
8EB4
  8
0
 10
309.560861003941
 20
63.666023152700063
 30
0.0
 11
309.560861003941
 21
68.66602315269995
 31
0.0
  0
LINE
  5
8EB5
  8
0
 10
278.45980846974783
 20
68.666023152700063
 30
0.0
 11
278.45980846974783
 21
63.666023152699999
 31
0.0
  0
LINE
  5
8EB6
  8
0
 10
266.560861003941
 20
61.616023152700159
 30
0.0
 11
266.560861003941
 21
63.616023152699988
 31
0.0
  0
LINE
  5
8EB7
  8
0
 10
260.560861003941
 20
70.716023152700188
 30
0.0
 11
260.560861003941
 21
68.716023152700075
 31
0.0
  0
LINE
  5
8EB8
  8
0
 10
289.30278796260433
 20
70.666023152739911
 30
0.0
 11
289.30278796260433
 21
70.716023152700188
 31
0.0
  0
LINE
  5
8EB9
  8
0
 10
283.30278796260421
 20
70.716023152700188
 30
0.0
 11
283.30278796260421
 21
70.666023152739911
 31
0.0
  0
LINE
  5
8EBD
  8
0
 10
305.56086100394282
 20
74.582541341083072
 30
0.0
 11
299.560861003941
 21
74.582541341083072
 31
0.0
  0
LINE
  5
8EBE
  8
0
 10
301.560861003941
 20
57.649365750438051
 30
0.0
 11
303.560861003941
 21
57.649365750438051
 31
0.0
  0
LINE
  5
8EBF
  8
0
 10
299.56086100394089
 20
57.649365750438051
 30
0.0
 11
301.560861003941
 21
57.649365750438051
 31
0.0
  0
LINE
  5
8EC0
  8
0
 10
299.560861003941
 20
57.749504964316991
 30
0.0
 11
305.560861003941
 21
57.749504964316991
 31
0.0
  0
LINE
  5
8EC7
  8
0
 10
309.560861003941
 20
68.666023152700006
 30
0.0
 11
278.45980846974783
 21
68.666023152700006
 31
0.0
  0
LINE
  5
8ED1
  8
0
 10
261.560861003941
 20
43.66602315270012
 30
0.0
 11
293.560861003941
 21
43.66602315270012
 31
0.0
  0
ARC
  5
8ED2
  8
0
 10
261.560861003941
 20
49.66602315270012
 30
0.0
 40
6.0000000000000142
 50
180.0
 51
270.0
  0
LINE
  5
8ED3
  8
0
 10
255.560861003941
 20
49.66602315270012
 30
0.0
 11
255.560861003941
 21
61.616023152700159
 31
0.0
  0
LINE
  5
8ED5
  8
0
 10
299.560861003941
 20
49.66602315270012
 30
0.0
 11
299.560861003941
 21
61.616023152700159
 31
0.0
  0
ARC
  5
8ED6
  8
0
 10
293.560861003941
 20
49.66602315270012
 30
0.0
 40
6.0
 50
270.0
 51
0.0
  0
LINE
  5
8EDF
  8
0
 10
293.560861003941
 20
88.666023152700134
 30
0.0
 11
261.560861003941
 21
88.666023152700134
 31
0.0
  0
ARC
  5
8EE0
  8
0
 10
293.560861003941
 20
82.666023152700106
 30
0.0
 40
6.0000000000000071
 50
0.0
 51
90.0
  0
LINE
  5
8EE1
  8
0
 10
299.560861003941
 20
82.666023152700106
 30
0.0
 11
299.560861003941
 21
70.716023152700188
 31
0.0
  0
LINE
  5
8EE3
  8
0
 10
255.560861003941
 20
70.716023152700188
 30
0.0
 11
255.560861003941
 21
82.666023152700106
 31
0.0
  0
ARC
  5
8EE4
  8
0
 10
261.560861003941
 20
82.666023152700106
 30
0.0
 40
6.0000000000000142
 50
90.0
 51
180.0
  0
POLYLINE
  5
8EE5
  8
0
 66
     1
 10
0.0
 20
0.0
 30
0.0
 70
   128
  0
VERTEX
  5
969B
  8
0
 10
254.560861003941
 20
59.116023152700109
 30
0.0
  0
VERTEX
  5
969C
  8
0
 10
253.96303757309471
 20
59.148609948493622
 30
0.0
  0
VERTEX
  5
969D
  8
0
 10
253.560861003941
 20
59.207696239504124
 30
0.0
  0
SEQEND
  5
969E
  8
0
  0
POLYLINE
  5
8EE7
  8
0
 66
     1
 10
0.0
 20
0.0
 30
0.0
 70
   128
  0
VERTEX
  5
969F
  8
0
 10
254.560861003941
 20
61.616023152700109
 30
0.0
  0
VERTEX
  5
96A0
  8
0
 10
254.02288674579179
 20
61.664653352493978
 30
0.0
  0
VERTEX
  5
96A1
  8
0
 10
253.560861003941
 20
61.787596027953889
 30
0.0
  0
SEQEND
  5
96A2
  8
0
  0
LINE
  5
8EE8
  8
0
 10
255.560861003941
 20
59.116023152700109
 30
0.0
 11
254.560861003941
 21
59.116023152700109
 31
0.0
  0
LINE
  5
8EE9
  8
0
 10
308.560861003941
 20
61.616023152700109
 30
0.0
 11
254.560861003941
 21
61.616023152700109
 31
0.0
  0
POLYLINE
  5
8EEA
  8
0
 66
     1
 10
0.0
 20
0.0
 30
0.0
 70
   128
  0
VERTEX
  5
96A3
  8
0
 10
253.560861003941
 20
73.124350065896067
 30
0.0
  0
VERTEX
  5
96A4
  8
0
 10
254.1882257755492
 20
73.203385268194381
 30
0.0
  0
VERTEX
  5
96A5
  8
0
 10
254.560861003941
 20
73.216023152700075
 30
0.0
  0
SEQEND
  5
96A6
  8
0
  0
POLYLINE
  5
8EEB
  8
0
 66
     1
 10
0.0
 20
0.0
 30
0.0
 70
   128
  0
VERTEX
  5
96A7
  8
0
 10
253.560861003941
 20
70.544450277446288
 30
0.0
  0
VERTEX
  5
96A8
  8
0
 10
254.11932386978111
 20
70.683352753394672
 30
0.0
  0
VERTEX
  5
96A9
  8
0
 10
254.560861003941
 20
70.716023152700075
 30
0.0
  0
SEQEND
  5
96AA
  8
0
  0
LINE
  5
8EED
  8
0
 10
254.560861003941
 20
73.216023152700075
 30
0.0
 11
255.560861003941
 21
73.216023152700075
 31
0.0
  0
LINE
  5
8EEE
  8
0
 10
308.560861003941
 20
70.716023152700018
 30
0.0
 11
254.560861003941
 21
70.716023152700075
 31
0.0
  0
LINE
  5
8EEF
  8
0
 10
251.560861003941
 20
64.616023152700109
 30
0.0
 11
251.560861003941
 21
67.716023152700075
 31
0.0
  0
LINE
  5
8EF0
  8
0
 10
249.060861003941
 20
67.716023152700075
 30
0.0
 11
249.060861003941
 21
64.616023152700109
 31
0.0
  0
ARC
  5
8EF1
  8
0
 10
254.560861003941
 20
64.616023152700109
 30
0.0
 40
3.0000000000000009
 50
180.0
 51
250.5287793655101
  0
ARC
  5
8EF2
  8
0
 10
254.560861003941
 20
67.716023152700075
 30
0.0
 40
3.0000000000000009
 50
109.4712206344899
 51
180.0
  0
ARC
  5
8EF3
  8
0
 10
254.560861003941
 20
64.616023152700109
 30
0.0
 40
5.5
 50
180.0
 51
259.52431830360962
  0
ARC
  5
8EF4
  8
0
 10
254.560861003941
 20
67.716023152700075
 30
0.0
 40
5.5
 50
100.4756816963904
 51
180.0
  0
LINE
  5
8F0B
  8
0
 10
280.70678399335981
 20
70.666023152739797
 30
0.0
 11
292.20678399333491
 21
70.666023152739797
 31
0.0
  0
LINE
  5
8F0F
  8
0
 10
295.81086100391252
 20
70.666023152648833
 30
0.0
 11
307.31086100396959
 21
70.666023152648833
 31
0.0
  0
LINE
  5
8F17
  8
0
 10
278.45980846974783
 20
63.666023152699999
 30
0.0
 11
309.560861003941
 21
63.66602315269995
 31
0.0
  0
CIRCLE
  5
8F98
  8
0
 10
189.06086100394111
 20
339.16694936830208
 30
0.0
 40
4.0
  0
CIRCLE
  5
8F99
  8
3
 10
189.06086100394111
 20
339.16694936830208
 30
0.0
 40
3.3235000000000001
  0
LINE
  5
8F9D
  8
3
 10
192.38436100394091
 20
218.0855231527288
 30
0.0
 11
192.38436100394091
 21
214.97602315272411
 31
0.0
  0
LINE
  5
8F9E
  8
3
 10
185.737361003941
 20
218.08552315272891
 30
0.0
 11
185.737361003941
 21
214.976023152724
 31
0.0
  0
LINE
  5
8F9F
  8
3
 10
192.38436100394091
 20
195.67602315272401
 30
0.0
 11
192.38436100394091
 21
173.17602292810361
 31
0.0
  0
LINE
  5
8FA0
  8
3
 10
185.737361003941
 20
195.6760231527241
 30
0.0
 11
185.737361003941
 21
173.17602324657079
 31
0.0
  0
CIRCLE
  5
8FA8
  8
0
 10
268.40086100394097
 20
227.57602315272399
 30
0.0
 40
4.0
  0
LINE
  5
8FFA
  8
0
 10
254.560861003941
 20
334.6169493683019
 30
0.0
 11
265.40086100394097
 21
334.6169493683019
 31
0.0
  0
LINE
  5
8FFB
  8
0
 10
254.560861003941
 20
332.1169493683019
 30
0.0
 11
308.560861003941
 21
332.1169493683019
 31
0.0
  0
LINE
  5
8FFC
  8
0
 10
283.30278796260421
 20
334.66694936826218
 30
0.0
 11
283.30278796260421
 21
334.56694936830189
 31
0.0
  0
LINE
  5
9023
  8
0
 10
499.55086100394249
 20
210.17495068854041
 30
0.0
 11
499.55086100394249
 21
166.16602315272399
 31
0.0
  0
LINE
  5
9024
  8
0
 10
497.050861003943
 20
168.66602315272399
 30
0.0
 11
497.05086100394237
 21
210.17495068854049
 31
0.0
  0
LINE
  5
9027
  8
0
 10
499.5508610039426
 20
205.16602315272399
 30
0.0
 11
499.60086100399388
 21
205.16602315272399
 31
0.0
  0
LINE
  5
9041
  8
0
 10
76.01086100394167
 20
173.17602315272401
 30
0.0
 11
76.01086100394167
 21
177.89807396029289
 31
0.0
  0
LINE
  5
9042
  8
0
 10
85.110861003941565
 20
173.17602315272401
 30
0.0
 11
85.110861003941665
 21
177.89807396029289
 31
0.0
  0
LINE
  5
9043
  8
0
 10
76.560861003941795
 20
178.16602315272411
 30
0.0
 11
73.602534090745678
 21
178.16602315272399
 31
0.0
  0
LINE
  5
9044
  8
0
 10
87.060861003941767
 20
198.16602315272399
 30
0.0
 11
87.519187917137614
 21
198.16602315272399
 31
0.0
  0
LINE
  5
9045
  8
3
 10
83.884361003941592
 20
218.0855231527288
 30
0.0
 11
83.884361003941592
 21
214.97602315272411
 31
0.0
  0
LINE
  5
9046
  8
3
 10
83.884361003941592
 20
195.67602315272401
 30
0.0
 11
83.884361003941592
 21
173.17602292810361
 31
0.0
  0
LINE
  5
9047
  8
3
 10
77.237361003941658
 20
218.08552315272891
 30
0.0
 11
77.237361003941658
 21
214.976023152724
 31
0.0
  0
LINE
  5
9048
  8
3
 10
77.237361003941658
 20
195.6760231527241
 30
0.0
 11
77.237361003941658
 21
173.17602324657079
 31
0.0
  0
LINE
  5
9062
  8
0
 10
506.60086100394261
 20
199.66602315272399
 30
0.0
 11
506.65086100394262
 21
199.66602315272411
 31
0.0
  0
LINE
  5
906E
  8
3
 10
507.42436100394241
 20
178.16602315272399
 30
0.0
 11
507.42436100394241
 21
173.17602292810369
 31
0.0
  0
LINE
  5
906F
  8
3
 10
500.77736100394247
 20
178.16602315272399
 30
0.0
 11
500.77736100394247
 21
173.17602324657091
 31
0.0
  0
LINE
  5
9075
  8
0
 10
260.560861003941
 20
336.6169493683019
 30
0.0
 11
260.560861003941
 21
334.61694936830202
 31
0.0
  0
ARC
  5
9076
  8
0
 10
254.560861003941
 20
337.61694936830202
 30
0.0
 40
5.5000000000000071
 50
211.98649318181671
 51
259.52431830360962
  0
ARC
  5
9077
  8
0
 10
254.560861003941
 20
340.71694936830198
 30
0.0
 40
5.5
 50
172.6160741932141
 51
180.0
  0
LINE
  5
908B
  8
0
 10
276.60086100394102
 20
68.716023152699961
 30
0.0
 11
276.60086100394102
 21
63.616023152699817
 31
0.0
  0
CIRCLE
  5
908D
  8
0
 10
189.06086100394111
 20
66.166023152700234
 30
0.0
 40
6.5000000000000142
  0
LINE
  5
9094
  8
0
 10
266.560861003941
 20
68.716023152700188
 30
0.0
 11
266.560861003941
 21
70.716023152700188
 31
0.0
  0
LINE
  5
9095
  8
0
 10
260.560861003941
 20
63.616023152699988
 30
0.0
 11
260.560861003941
 21
61.616023152700159
 31
0.0
  0
LINE
  5
9096
  8
0
 10
280.79366494190231
 20
336.61694936830202
 30
0.0
 11
280.79366494190231
 21
341.71694936830193
 31
0.0
  0
LINE
  5
909F
  8
0
 10
271.40086100394097
 20
68.716023152700359
 30
0.0
 11
271.40086100394097
 21
70.716023152700075
 31
0.0
  0
ARC
  5
90AB
  8
0
 10
365.00002421631979
 20
86.360716546275967
 30
0.0
 40
0.1999999999999534
 50
192.21746719450999
 51
269.32372095022851
  0
ARC
  5
90AC
  8
0
 10
363.20169779156242
 20
86.360716546275967
 30
0.0
 40
0.1999999999999514
 50
270.67627904972261
 51
347.78247503760531
  0
ARC
  5
90AD
  8
0
 10
364.10086100394108
 20
86.16602315269563
 30
0.0
 40
0.7199999999998202
 50
12.2175040639769
 51
167.7825119826569
  0
ARC
  5
90AE
  8
0
 10
363.20169779156242
 20
45.971329759115292
 30
0.0
 40
0.2000000000000645
 50
12.21752493285298
 51
89.323720950293662
  0
ARC
  5
90AF
  8
0
 10
365.00002421631979
 20
45.971329759115292
 30
0.0
 40
0.2000000000000658
 50
90.676279049738909
 51
167.7824750376021
  0
ARC
  5
90B0
  8
0
 10
364.10086100394108
 20
46.166023152695622
 30
0.0
 40
0.7199999999997991
 50
192.21748802554731
 51
347.78251198266008
  0
ARC
  5
90B1
  8
0
 10
358.20829312932028
 20
46.194259567325147
 30
0.0
 40
0.2000000000102253
 50
8.4575550301616271
 51
85.563944028599735
  0
ARC
  5
90B2
  8
0
 10
360.0027487054719
 20
46.076331134628731
 30
0.0
 40
0.2000000000000721
 50
86.916299578065761
 51
164.02256299291781
  0
ARC
  5
90B3
  8
0
 10
359.11828828068121
 20
46.329569672336547
 30
0.0
 40
0.7200000000006522
 50
188.45751786192719
 51
344.02252574709291
  0
ARC
  5
90B4
  8
0
 10
369.99342887856187
 20
86.137786738066211
 30
0.0
 40
0.2000000000102791
 50
188.4575012575753
 51
265.56394402855079
  0
ARC
  5
90B5
  8
0
 10
368.19897330241042
 20
86.255715170762514
 30
0.0
 40
0.2000000000002309
 50
266.91629957786989
 51
344.02256495846058
  0
ARC
  5
90B6
  8
0
 10
369.083433727201
 20
86.002476633054698
 30
0.0
 40
0.7200000000003475
 50
8.4575327987527231
 51
164.02252520110881
  0
ARC
  5
90B7
  8
0
 10
368.19897330240138
 20
46.076331134622478
 30
0.0
 40
0.2000000000106378
 50
15.977495278632849
 51
93.083884242894939
  0
ARC
  5
90B8
  8
0
 10
369.99342887855192
 20
46.194259567330391
 30
0.0
 40
0.200000000000048
 50
94.436249156972124
 51
171.5424449484789
  0
ARC
  5
90B9
  8
0
 10
369.083433727201
 20
46.329569672336447
 30
0.0
 40
0.7200000000003304
 50
195.97745806664051
 51
351.54248214431249
  0
ARC
  5
90BA
  8
0
 10
360.00274870548083
 20
86.255715170768894
 30
0.0
 40
0.2000000000107868
 50
195.97749583790369
 51
273.08388424281333
  0
ARC
  5
90BB
  8
0
 10
358.20829312933029
 20
86.137786738060981
 30
0.0
 40
0.2000000000000296
 50
274.43624915697211
 51
351.54244594360381
  0
ARC
  5
90BC
  8
0
 10
359.11828828068121
 20
86.002476633054698
 30
0.0
 40
0.7200000000002842
 50
15.977457911299171
 51
171.54248186787461
  0
ARC
  5
90BD
  8
0
 10
353.20110033222841
 20
46.749810966870307
 30
0.0
 40
0.1999999999999911
 50
4.6677727755941074
 51
81.774026884368169
  0
ARC
  5
90BE
  8
0
 10
354.9838375684559
 20
46.513535964909352
 30
0.0
 40
0.2000000000000073
 50
83.126575619207813
 51
160.2328098853333
  0
ARC
  5
90BF
  8
0
 10
354.11804894589619
 20
46.824679116924472
 30
0.0
 40
0.7199999999999883
 50
184.66781009623159
 51
340.2328098853128
  0
ARC
  5
90C0
  8
0
 10
375.00062167565397
 20
85.582235338520945
 30
0.0
 40
0.2000000000000636
 50
184.6677743614085
 51
261.77402688433818
  0
ARC
  5
90C1
  8
0
 10
373.2178844394258
 20
85.818510340482021
 30
0.0
 40
0.2000000000002986
 50
263.12657561920781
 51
340.23280988536419
  0
ARC
  5
90C2
  8
0
 10
374.0836730619863
 20
85.507367188466915
 30
0.0
 40
0.7200000000002534
 50
4.6678096557292692
 51
160.23280988532301
  0
ARC
  5
90C3
  8
0
 10
354.98383756846459
 20
85.818510340488956
 30
0.0
 40
0.2000000000104363
 50
199.76718927161119
 51
276.87322182772408
  0
ARC
  5
90C4
  8
0
 10
353.20110033222829
 20
85.582235338520945
 30
0.0
 40
0.1999999999999911
 50
278.2259731156318
 51
355.33217035152779
  0
ARC
  5
90C5
  8
0
 10
354.11804894589619
 20
85.507367188466915
 30
0.0
 40
0.7200000000000723
 50
19.767190349161101
 51
175.3322057017896
  0
ARC
  5
90C6
  8
0
 10
373.21788443941779
 20
46.51353596490241
 30
0.0
 40
0.2000000000104285
 50
19.767190959036611
 51
96.873221827772952
  0
ARC
  5
90C7
  8
0
 10
375.00062167565397
 20
46.749810966870307
 30
0.0
 40
0.1999999999999999
 50
98.225973115763551
 51
175.33216882899259
  0
ARC
  5
90C8
  8
0
 10
374.0836730619863
 20
46.824679116924472
 30
0.0
 40
0.7199999999999772
 50
199.7671898804349
 51
355.33220612471501
  0
LINE
  5
90C9
  8
0
 10
286.60086100394102
 20
341.66694936830203
 30
0.0
 11
280.79366494190231
 21
341.66694936830203
 31
0.0
  0
LINE
  5
90CB
  8
0
 10
291.60086100394102
 20
336.66694936830208
 30
0.0
 11
309.560861003941
 21
336.66694936830208
 31
0.0
  0
LINE
  5
90CC
  8
0
 10
286.60086100394102
 20
334.66694936826218
 30
0.0
 11
280.70678399335458
 21
334.66694936826218
 31
0.0
  0
LINE
  5
90CD
  8
0
 10
291.60086100394102
 20
334.61694936830202
 30
0.0
 11
308.560861003941
 21
334.61694936830202
 31
0.0
  0
LINE
  5
90CE
  8
0
 10
265.40086100394097
 20
336.61694936830207
 30
0.0
 11
265.40086100394097
 21
334.56694936830212
 31
0.0
  0
LINE
  5
90CF
  8
0
 10
271.40086100394097
 20
341.71694936830193
 30
0.0
 11
271.40086100394097
 21
343.76694936830199
 31
0.0
  0
LINE
  5
90D0
  8
0
 10
271.40086100394097
 20
343.7169493683021
 30
0.0
 11
280.60678399331113
 21
343.7169493683021
 31
0.0
  0
LINE
  5
90D1
  8
0
 10
271.40086100394097
 20
334.6169493683019
 30
0.0
 11
283.30278796260421
 21
334.61694936830202
 31
0.0
  0
LINE
  5
90ED
  8
0
 10
78.010861003941386
 20
230.5760005476678
 30
0.0
 11
75.960861003941289
 21
230.57600054766789
 31
0.0
  0
LINE
  5
9113
  8
1
 10
189.06086100394111
 20
349.81694936830201
 30
0.0
 11
189.06086100394111
 21
328.51694936830211
 31
0.0
  0
LINE
  5
9114
  8
1
 10
226.06086100394111
 20
346.26694936830222
 30
0.0
 11
226.06086100394111
 21
332.06694936830218
 31
0.0
  0
LINE
  5
9115
  8
1
 10
409.10663209691398
 20
339.16694936830208
 30
0.0
 11
175.06201627906091
 21
339.16694936830208
 31
0.0
  0
LINE
  5
9116
  8
1
 10
264.560861003941
 20
358.76694936830211
 30
0.0
 11
264.560861003941
 21
348.11694936830202
 31
0.0
  0
LINE
  5
9117
  8
1
 10
268.66086100394091
 20
352.2169493683021
 30
0.0
 11
260.46086100394109
 21
352.2169493683021
 31
0.0
  0
LINE
  5
9118
  8
1
 10
268.66086100394091
 20
354.6669493683022
 30
0.0
 11
260.46086100394109
 21
354.6669493683022
 31
0.0
  0
LINE
  5
911B
  8
1
 10
290.560861003941
 20
358.76694936830211
 30
0.0
 11
290.560861003941
 21
348.11694936830202
 31
0.0
  0
LINE
  5
911D
  8
1
 10
294.66086100394091
 20
354.6669493683022
 30
0.0
 11
286.46086100394109
 21
354.6669493683022
 31
0.0
  0
LINE
  5
9129
  8
1
 10
189.060861003941
 20
76.816023152699984
 30
0.0
 11
189.060861003941
 21
55.516023152700022
 31
0.0
  0
LINE
  5
912A
  8
1
 10
226.060861003941
 20
73.266023152700143
 30
0.0
 11
226.060861003941
 21
59.066023152700097
 31
0.0
  0
LINE
  5
912B
  8
1
 10
409.10663209691393
 20
66.166023152700006
 30
0.0
 11
175.0620162790608
 21
66.166023152700006
 31
0.0
  0
LINE
  5
913F
  8
1
 10
189.060861003941
 20
221.1760231527098
 30
0.0
 11
189.060861003941
 21
164.8760235188829
 31
0.0
  0
LINE
  5
9147
  8
1
 10
268.40086100394097
 20
232.57602315272581
 30
0.0
 11
268.40086100394097
 21
222.5760231527222
 31
0.0
  0
LINE
  5
9148
  8
1
 10
263.40086100393921
 20
227.57602315272399
 30
0.0
 11
273.40086100394279
 21
227.57602315272399
 31
0.0
  0
LINE
  5
9149
  8
1
 10
263.560861003941
 20
213.1660231527259
 30
0.0
 11
263.560861003941
 21
203.1660231527222
 31
0.0
  0
LINE
  5
914A
  8
1
 10
258.56086100393918
 20
208.16602315272399
 30
0.0
 11
268.56086100394282
 21
208.16602315272399
 31
0.0
  0
LINE
  5
914B
  8
1
 10
286.30278796260421
 20
211.94646302935459
 30
0.0
 11
286.30278796260421
 21
201.94646302935101
 31
0.0
  0
LINE
  5
914C
  8
1
 10
281.30278796260239
 20
206.9464630293528
 30
0.0
 11
291.30278796260598
 21
206.9464630293528
 31
0.0
  0
LINE
  5
914D
  8
1
 10
301.560861003941
 20
197.16602315272581
 30
0.0
 11
301.560861003941
 21
187.1660231527222
 31
0.0
  0
LINE
  5
914E
  8
1
 10
296.56086100393918
 20
192.16602315272399
 30
0.0
 11
306.56086100394282
 21
192.16602315272399
 31
0.0
  0
LINE
  5
914F
  8
1
 10
264.560861003941
 20
169.66602315272399
 30
0.0
 11
264.560861003941
 21
165.16602315272399
 31
0.0
  0
LINE
  5
9150
  8
1
 10
290.560861003941
 20
169.66602315272399
 30
0.0
 11
290.560861003941
 21
165.16602315272399
 31
0.0
  0
LINE
  5
9155
  8
1
 10
80.560861003940957
 20
244.16995602373891
 30
0.0
 11
80.560861003940971
 21
161.16602315272391
 31
0.0
  0
LINE
  5
924C
  8
1
 10
504.10086100394187
 20
244.16995602373891
 30
0.0
 11
504.10086100394187
 21
161.16602315272391
 31
0.0
  0
LINE
  5
927A
  8
1
 10
294.66086100394091
 20
352.2169493683021
 30
0.0
 11
286.46086100394109
 21
352.2169493683021
 31
0.0
  0
LINE
  5
927B
  8
0
 10
267.66086100394131
 20
323.66694936830169
 30
0.0
 11
267.66086100394119
 21
326.1169493683019
 31
0.0
  0
ARC
  5
927C
  8
0
 10
264.56086100394123
 20
323.66694936830169
 30
0.0
 40
3.1000000000000081
 50
180.0
 51
0.0
  0
LINE
  5
927D
  8
0
 10
261.46086100394109
 20
326.1169493683019
 30
0.0
 11
261.4608610039412
 21
323.66694936830157
 31
0.0
  0
ARC
  5
927E
  8
0
 10
264.56086100394123
 20
326.1169493683019
 30
0.0
 40
3.1000000000000081
 50
0.0
 51
180.0
  0
LINE
  5
927F
  8
0
 10
293.66086100394119
 20
323.6669493683022
 30
0.0
 11
293.66086100394119
 21
326.11694936830241
 31
0.0
  0
ARC
  5
9280
  8
0
 10
290.56086100394123
 20
323.66694936830208
 30
0.0
 40
3.1000000000000081
 50
180.0
 51
0.0
  0
LINE
  5
9281
  8
0
 10
287.4608610039412
 20
326.1169493683023
 30
0.0
 11
287.4608610039412
 21
323.66694936830203
 31
0.0
  0
ARC
  5
9282
  8
0
 10
290.56086100394123
 20
326.1169493683023
 30
0.0
 40
3.1000000000000081
 50
0.0
 51
180.0
  0
LINE
  5
9283
  8
1
 10
264.56086100394128
 20
319.56694936830178
 30
0.0
 11
264.56086100394111
 21
330.21694936830193
 31
0.0
  0
LINE
  5
9284
  8
1
 10
268.66086100394108
 20
326.1169493683019
 30
0.0
 11
260.46086100394132
 21
326.11694936830168
 31
0.0
  0
LINE
  5
9285
  8
1
 10
268.66086100394108
 20
323.6669493683018
 30
0.0
 11
260.46086100394132
 21
323.66694936830157
 31
0.0
  0
LINE
  5
9286
  8
1
 10
290.56086100394128
 20
319.56694936830218
 30
0.0
 11
290.56086100394111
 21
330.21694936830232
 31
0.0
  0
LINE
  5
9287
  8
1
 10
294.66086100394108
 20
323.6669493683022
 30
0.0
 11
286.46086100394132
 21
323.66694936830203
 31
0.0
  0
LINE
  5
9288
  8
1
 10
294.66086100394108
 20
326.1169493683023
 30
0.0
 11
286.46086100394132
 21
326.11694936830207
 31
0.0
  0
LINE
  5
9289
  8
0
 10
267.66086100394102
 20
81.66602315270012
 30
0.0
 11
267.66086100394102
 21
79.216023152699904
 31
0.0
  0
ARC
  5
928A
  8
0
 10
264.560861003941
 20
81.66602315270012
 30
0.0
 40
3.1000000000000081
 50
0.0
 51
180.0
  0
LINE
  5
928B
  8
0
 10
261.46086100394098
 20
79.216023152699904
 30
0.0
 11
261.46086100394098
 21
81.66602315270012
 31
0.0
  0
ARC
  5
928C
  8
0
 10
264.560861003941
 20
79.216023152699904
 30
0.0
 40
3.1000000000000081
 50
180.0
 51
0.0
  0
LINE
  5
928D
  8
0
 10
293.66086100394102
 20
81.66602315270012
 30
0.0
 11
293.66086100394102
 21
79.216023152699904
 31
0.0
  0
ARC
  5
928E
  8
0
 10
290.560861003941
 20
81.66602315270012
 30
0.0
 40
3.1000000000000081
 50
0.0
 51
180.0
  0
LINE
  5
928F
  8
0
 10
287.46086100394098
 20
79.216023152699904
 30
0.0
 11
287.46086100394098
 21
81.66602315270012
 31
0.0
  0
ARC
  5
9290
  8
0
 10
290.560861003941
 20
79.216023152699904
 30
0.0
 40
3.1000000000000081
 50
180.0
 51
0.0
  0
LINE
  5
9291
  8
1
 10
264.560861003941
 20
85.766023152700029
 30
0.0
 11
264.560861003941
 21
75.116023152699881
 31
0.0
  0
LINE
  5
9292
  8
1
 10
268.66086100394091
 20
79.216023152700018
 30
0.0
 11
260.46086100394109
 21
79.216023152700018
 31
0.0
  0
LINE
  5
9293
  8
1
 10
268.66086100394091
 20
81.66602315270012
 30
0.0
 11
260.46086100394109
 21
81.66602315270012
 31
0.0
  0
LINE
  5
9294
  8
1
 10
290.560861003941
 20
85.766023152700029
 30
0.0
 11
290.560861003941
 21
75.116023152699881
 31
0.0
  0
LINE
  5
9295
  8
1
 10
294.66086100394091
 20
81.66602315270012
 30
0.0
 11
286.46086100394109
 21
81.66602315270012
 31
0.0
  0
LINE
  5
9296
  8
1
 10
294.66086100394091
 20
79.216023152700018
 30
0.0
 11
286.46086100394109
 21
79.216023152700018
 31
0.0
  0
LINE
  5
9297
  8
0
 10
267.66086100394131
 20
50.666023152699601
 30
0.0
 11
267.66086100394119
 21
53.116023152699832
 31
0.0
  0
ARC
  5
9298
  8
0
 10
264.56086100394123
 20
50.666023152699601
 30
0.0
 40
3.1000000000000081
 50
180.0
 51
0.0
  0
LINE
  5
9299
  8
0
 10
261.46086100394109
 20
53.116023152699761
 30
0.0
 11
261.4608610039412
 21
50.666023152699552
 31
0.0
  0
ARC
  5
929A
  8
0
 10
264.56086100394123
 20
53.116023152699832
 30
0.0
 40
3.1000000000000081
 50
0.0
 51
180.0
  0
LINE
  5
929B
  8
0
 10
293.66086100394119
 20
50.66602315270007
 30
0.0
 11
293.66086100394119
 21
53.116023152700279
 31
0.0
  0
ARC
  5
929C
  8
0
 10
290.56086100394123
 20
50.666023152699999
 30
0.0
 40
3.1000000000000081
 50
180.0
 51
0.0
  0
LINE
  5
929D
  8
0
 10
287.4608610039412
 20
53.116023152700159
 30
0.0
 11
287.4608610039412
 21
50.66602315269995
 31
0.0
  0
ARC
  5
929E
  8
0
 10
290.56086100394123
 20
53.116023152700222
 30
0.0
 40
3.1000000000000081
 50
0.0
 51
180.0
  0
LINE
  5
929F
  8
1
 10
264.56086100394128
 20
46.566023152699699
 30
0.0
 11
264.56086100394111
 21
57.216023152699847
 31
0.0
  0
LINE
  5
92A0
  8
1
 10
268.66086100394108
 20
53.116023152699761
 30
0.0
 11
260.46086100394132
 21
53.116023152699597
 31
0.0
  0
LINE
  5
92A1
  8
1
 10
268.66086100394108
 20
50.666023152699672
 30
0.0
 11
260.46086100394132
 21
50.666023152699502
 31
0.0
  0
LINE
  5
92A2
  8
1
 10
290.56086100394128
 20
46.56602315270009
 30
0.0
 11
290.56086100394111
 21
57.216023152700252
 31
0.0
  0
LINE
  5
92A3
  8
1
 10
294.66086100394108
 20
50.66602315270007
 30
0.0
 11
286.46086100394132
 21
50.66602315269995
 31
0.0
  0
LINE
  5
92A4
  8
1
 10
294.66086100394108
 20
53.116023152700159
 30
0.0
 11
286.46086100394132
 21
53.116023152700052
 31
0.0
  0
LINE
  5
9398
  8
1
 10
65.060861003940829
 20
169.66602315272399
 30
0.0
 11
65.060861003940829
 21
165.16602315272399
 31
0.0
  0
LINE
  5
9399
  8
1
 10
67.510861003940931
 20
169.66602315272399
 30
0.0
 11
67.510861003940931
 21
165.16602315272399
 31
0.0
  0
LINE
  5
939A
  8
1
 10
93.610861003941352
 20
169.66602315272399
 30
0.0
 11
93.610861003941352
 21
165.16602315272399
 31
0.0
  0
LINE
  5
939B
  8
1
 10
96.060861003941454
 20
169.66602315272399
 30
0.0
 11
96.060861003941454
 21
165.16602315272399
 31
0.0
  0
LINE
  5
939C
  8
1
 10
488.60086100394182
 20
169.66602315272399
 30
0.0
 11
488.60086100394182
 21
165.16602315272399
 31
0.0
  0
LINE
  5
939D
  8
1
 10
491.05086100394192
 20
169.66602315272399
 30
0.0
 11
491.05086100394192
 21
165.16602315272399
 31
0.0
  0
LINE
  5
939E
  8
1
 10
517.15086100394228
 20
169.66602315272399
 30
0.0
 11
517.15086100394228
 21
165.16602315272399
 31
0.0
  0
LINE
  5
939F
  8
1
 10
519.60086100394255
 20
169.66602315272399
 30
0.0
 11
519.60086100394255
 21
165.16602315272399
 31
0.0
  0
TEXT
  5
9466
  8
0
 62
     3
 10
0.0
 20
0.0
 30
0.0
 40
10.0
  1
TCDHF08200-SUS
  7
STANDARD1
  0
ENDSEC
  0
EOF
