  0
SECTION
  2
HEADER
  9
$ACADVER
  1
AC1009
  9
$INSBASE
 10
0.0
 20
0.0
 30
0.0
  9
$EXTMIN
 10
0.0
 20
-2.960436562073669
 30
0.0
  9
$EXTMAX
 10
461.38912637984453
 20
332.88829302698559
 30
0.0
  9
$LIMMIN
 10
0.0
 20
0.0
  9
$LIMMAX
 10
420.0
 20
297.0
  9
$ORTHOMODE
 70
     1
  9
$REGENMODE
 70
     1
  9
$FILLMODE
 70
     1
  9
$QTEXTMODE
 70
     0
  9
$MIRRTEXT
 70
     0
  9
$DRAGMODE
 70
     2
  9
$LTSCALE
 40
10.0
  9
$OSMODE
 70
    55
  9
$ATTMODE
 70
     1
  9
$TEXTSIZE
 40
2.5
  9
$TRACEWID
 40
1.0
  9
$TEXTSTYLE
  7
STANDARD
  9
$CLAYER
  8
0
  9
$CELTYPE
  6
BYLAYER
  9
$CECOLOR
 62
   256
  9
$DIMSCALE
 40
1.0
  9
$DIMASZ
 40
2.5
  9
$DIMEXO
 40
0.625
  9
$DIMDLI
 40
3.75
  9
$DIMRND
 40
0.0
  9
$DIMDLE
 40
0.0
  9
$DIMEXE
 40
1.25
  9
$DIMTP
 40
0.0
  9
$DIMTM
 40
0.0
  9
$DIMTXT
 40
2.5
  9
$DIMCEN
 40
2.5
  9
$DIMTSZ
 40
0.0
  9
$DIMTOL
 70
     0
  9
$DIMLIM
 70
     0
  9
$DIMTIH
 70
     0
  9
$DIMTOH
 70
     0
  9
$DIMSE1
 70
     0
  9
$DIMSE2
 70
     0
  9
$DIMTAD
 70
     1
  9
$DIMZIN
 70
     8
  9
$DIMBLK
  1

  9
$DIMASO
 70
     1
  9
$DIMSHO
 70
     1
  9
$DIMPOST
  1

  9
$DIMAPOST
  1

  9
$DIMALT
 70
     0
  9
$DIMALTD
 70
     3
  9
$DIMALTF
 40
0.03937007874016
  9
$DIMLFAC
 40
1.0
  9
$DIMTOFL
 70
     1
  9
$DIMTVP
 40
0.0
  9
$DIMTIX
 70
     0
  9
$DIMSOXD
 70
     0
  9
$DIMSAH
 70
     0
  9
$DIMBLK1
  1

  9
$DIMBLK2
  1

  9
$DIMSTYLE
  2
ISO-25
  9
$DIMCLRD
 70
     0
  9
$DIMCLRE
 70
     0
  9
$DIMCLRT
 70
     0
  9
$DIMTFAC
 40
1.0
  9
$DIMGAP
 40
0.625
  9
$LUNITS
 70
     2
  9
$LUPREC
 70
     2
  9
$SKETCHINC
 40
1.0
  9
$FILLETRAD
 40
0.0
  9
$AUNITS
 70
     0
  9
$AUPREC
 70
     2
  9
$MENU
  1
.
  9
$ELEVATION
 40
0.0
  9
$PELEVATION
 40
0.0
  9
$THICKNESS
 40
0.0
  9
$LIMCHECK
 70
     0
  9
$BLIPMODE
 70
     0
  9
$CHAMFERA
 40
0.0
  9
$CHAMFERB
 40
0.0
  9
$SKPOLY
 70
     0
  9
$TDCREATE
 40
2454083.4444627082
  9
$TDUPDATE
 40
2456598.4292807761
  9
$TDINDWG
 40
1.3818657292000001
  9
$TDUSRTIMER
 40
1.3818657292000001
  9
$USRTIMER
 70
     1
  9
$ANGBASE
 50
0.0
  9
$ANGDIR
 70
     0
  9
$PDMODE
 70
     0
  9
$PDSIZE
 40
0.0
  9
$PLINEWID
 40
0.0
  9
$COORDS
 70
     1
  9
$SPLFRAME
 70
     0
  9
$SPLINETYPE
 70
     6
  9
$SPLINESEGS
 70
     8
  9
$ATTDIA
 70
     0
  9
$ATTREQ
 70
     1
  9
$HANDLING
 70
     1
  9
$HANDSEED
  5
AAF1
  9
$SURFTAB1
 70
     6
  9
$SURFTAB2
 70
     6
  9
$SURFTYPE
 70
     6
  9
$SURFU
 70
     6
  9
$SURFV
 70
     6
  9
$UCSNAME
  2

  9
$UCSORG
 10
0.0
 20
0.0
 30
0.0
  9
$UCSXDIR
 10
1.0
 20
0.0
 30
0.0
  9
$UCSYDIR
 10
0.0
 20
1.0
 30
0.0
  9
$PUCSNAME
  2

  9
$PUCSORG
 10
0.0
 20
0.0
 30
0.0
  9
$PUCSXDIR
 10
1.0
 20
0.0
 30
0.0
  9
$PUCSYDIR
 10
0.0
 20
1.0
 30
0.0
  9
$USERI1
 70
     0
  9
$USERI2
 70
     0
  9
$USERI3
 70
     0
  9
$USERI4
 70
     0
  9
$USERI5
 70
     0
  9
$USERR1
 40
0.0
  9
$USERR2
 40
0.0
  9
$USERR3
 40
0.0
  9
$USERR4
 40
0.0
  9
$USERR5
 40
0.0
  9
$WORLDVIEW
 70
     1
  9
$SHADEDGE
 70
     3
  9
$SHADEDIF
 70
    70
  9
$TILEMODE
 70
     1
  9
$MAXACTVP
 70
    64
  9
$PLIMCHECK
 70
     0
  9
$PEXTMIN
 10
0.0
 20
0.0
 30
0.0
  9
$PEXTMAX
 10
0.0
 20
0.0
 30
0.0
  9
$PLIMMIN
 10
0.0
 20
0.0
  9
$PLIMMAX
 10
12.0
 20
9.0
  9
$UNITMODE
 70
     0
  9
$VISRETAIN
 70
     1
  9
$PLINEGEN
 70
     0
  9
$PSLTSCALE
 70
     1
  0
ENDSEC
  0
SECTION
  2
TABLES
  0
TABLE
  2
VPORT
 70
     1
  0
VPORT
  2
*ACTIVE
 70
     0
 10
0.0
 20
0.0
 11
1.0
 21
1.0
 12
230.6945642641775
 22
243.15794670059211
 13
0.0
 23
0.0
 14
10.0
 24
10.0
 15
10.0
 25
10.0
 16
0.0
 26
0.0
 36
1.0
 17
0.0
 27
0.0
 37
0.0
 40
496.61394751488177
 41
1.7807262569832401
 42
50.0
 43
0.0
 44
0.0
 50
0.0
 51
0.0
 71
     0
 72
  1000
 73
     1
 74
     3
 75
     0
 76
     0
 77
     0
 78
     0
  0
ENDTAB
  0
TABLE
  2
LTYPE
 70
     2
  0
LTYPE
  2
CONTINUOUS
 70
     0
  3
Solid line
 72
    65
 73
     0
 40
0.0
  0
LTYPE
  2
CENTER
 70
     0
  3
____ _ ____ _ ____ _ ____ _ ____ _ ____ _ ____
 72
    65
 73
     4
 40
2.0
 49
1.25
 49
-0.25
 49
0.25
 49
-0.25
  0
ENDTAB
  0
TABLE
  2
LAYER
 70
     4
  0
LAYER
  2
0
 70
     0
 62
     7
  6
CONTINUOUS
  0
LAYER
  2
DEFPOINTS
 70
     0
 62
     7
  6
CONTINUOUS
  0
LAYER
  2
1
 70
     0
 62
     1
  6
CENTER
  0
LAYER
  2
3
 70
     0
 62
     3
  6
CONTINUOUS
  0
ENDTAB
  0
TABLE
  2
STYLE
 70
     2
  0
STYLE
  2
STANDARD
 70
     0
 40
0.0
 41
1.0
 50
0.0
 71
     0
 42
2.5
  3
txt
  4

  0
STYLE
  2
STANDARD1
 70
     0
 40
0.0
 41
1.0
 50
0.0
 71
     0
 42
3.0
  3
txt
  4

  0
ENDTAB
  0
TABLE
  2
VIEW
 70
     4
  0
VIEW
  2
OLE1
 70
     0
 40
17.336203194614189
 10
1078.262703908531
 20
377.67444865954309
 41
31.074911629702001
 11
0.0
 21
0.0
 31
1.0
 12
0.0
 22
0.0
 32
0.0
 42
50.0
 43
0.0
 44
0.0
 50
0.0
 71
     0
  0
VIEW
  2
OLE2
 70
     0
 40
50.523198253338478
 10
1031.767738941523
 20
579.92835671582054
 41
90.562155008667546
 11
0.0
 21
0.0
 31
1.0
 12
0.0
 22
0.0
 32
0.0
 42
50.0
 43
0.0
 44
0.0
 50
0.0
 71
     0
  0
VIEW
  2
OLE3
 70
     0
 40
88.422785089493104
 10
388.76694342935571
 20
353.8859803153702
 41
106.4128334954169
 11
0.0
 21
0.0
 31
1.0
 12
0.0
 22
0.0
 32
0.0
 42
50.0
 43
0.0
 44
0.0
 50
0.0
 71
     0
  0
VIEW
  2
OLE4
 70
     0
 40
129.98439230332181
 10
530.47182373476517
 20
489.6101067767658
 41
232.99527922706341
 11
0.0
 21
0.0
 31
1.0
 12
0.0
 22
0.0
 32
0.0
 42
50.0
 43
0.0
 44
0.0
 50
0.0
 71
     0
  0
ENDTAB
  0
TABLE
  2
UCS
 70
     0
  0
ENDTAB
  0
TABLE
  2
APPID
 70
    42
  0
APPID
  2
ACAD
 70
     0
  0
APPID
  2
_FTCNV
 70
     0
  0
APPID
  2
DCO15
 70
     0
  0
APPID
  2
GENIUS_GENOREF_13
 70
     0
  0
APPID
  2
GENIUS_GENOENT_13
 70
     0
  0
APPID
  2
GENIUS_GENBH_13
 70
     0
  0
APPID
  2
GENIUS_GENOBJ_13
 70
     0
  0
APPID
  2
GENIUS_GENODEF_13
 70
     0
  0
APPID
  2
GENIUS_GENOLIS_13
 70
     0
  0
APPID
  2
GENIUS_GENOBJ-NBEHI-BHF_13
 70
     0
  0
APPID
  2
GENIUS_GENOBJ-NBEHI-BHB_13
 70
     0
  0
APPID
  2
GENIUS_GENOBJ-F-PART_13
 70
     0
  0
APPID
  2
GENIUS_GEFSTDP_13
 70
     0
  0
APPID
  2
GENIUS_GENOBJ-N-RSSYM_13
 70
     0
  0
APPID
  2
GENIUS_GENSYMENT_13
 70
     0
  0
APPID
  2
GENIUS_GENOBJ-N-TIT_13
 70
     0
  0
APPID
  2
GENIUS_GENTITLE_13
 70
     0
  0
APPID
  2
GENIUS_GENZVEED_13
 70
     0
  0
APPID
  2
GENIUS_GENOBJ-N-LEADER_13
 70
     0
  0
APPID
  2
GENIUS_GENOBJ-N-FIL_13
 70
     0
  0
APPID
  2
GENIUS_GENOBJ-N-SEC_13
 70
     0
  0
APPID
  2
GENIUS_GENOBJ-N-CRS_13
 70
     0
  0
APPID
  2
GENIUS_GENOBJ-N-ZOO_13
 70
     0
  0
APPID
  2
GENIUS_GENZOO_13
 70
     0
  0
APPID
  2
GENIUS_GENOBJ-F-TOL_13
 70
     0
  0
APPID
  2
GENIUS_GENFIL_13
 70
     0
  0
APPID
  2
GENIUS_GENOBJ-N-CHA_13
 70
     0
  0
APPID
  2
_CALL_MAC$
 70
     0
  0
APPID
  2
ASM_BASE
 70
     0
  0
APPID
  2
ASM_EXPLO_VER_2_00
 70
     0
  0
APPID
  2
ASM_CADM_VER_12_00
 70
     0
  0
APPID
  2
ASM_BASEFORO
 70
     0
  0
APPID
  2
ASM_BASETRAVI
 70
     0
  0
APPID
  2
ASM_BASETRAVI1
 70
     0
  0
APPID
  2
ASM_GRUPPI
 70
     0
  0
APPID
  2
ASM_CADM_ALBERO
 70
     0
  0
APPID
  2
ASM_GOLE
 70
     0
  0
APPID
  2
ACAD_MLEADERVER
 70
     0
  0
APPID
  2
ACAD_EXEMPT_FROM_CAD_STANDARDS
 70
     0
  0
APPID
  2
ACAD_DSTYLE_DIMJAG
 70
     0
  0
APPID
  2
ACAD_DSTYLE_DIMTALN
 70
     0
  0
APPID
  2
ACAD_NAV_VCDISPLAY
 70
     0
  0
ENDTAB
  0
TABLE
  2
DIMSTYLE
 70
     2
  0
DIMSTYLE
  2
ISO-25
 70
     0
  3

  4

  5

  6

  7

 40
1.0
 41
2.5
 42
0.625
 43
3.75
 44
1.25
 45
0.0
 46
0.0
 47
0.0
 48
0.0
140
2.5
141
2.5
142
0.0
143
0.03937007874016
144
1.0
145
0.0
146
1.0
147
0.625
 71
     0
 72
     0
 73
     0
 74
     0
 75
     0
 76
     0
 77
     1
 78
     8
170
     0
171
     3
172
     1
173
     0
174
     0
175
     0
176
     0
177
     0
178
     0
  0
DIMSTYLE
  2
STANDARD
 70
     0
  3

  4

  5

  6

  7

 40
1.0
 41
0.18
 42
0.0625
 43
0.38
 44
0.18
 45
0.0
 46
0.0
 47
0.0
 48
0.0
140
0.18
141
0.09
142
0.0
143
25.399999999999999
144
1.0
145
0.0
146
1.0
147
0.09
 71
     0
 72
     0
 73
     1
 74
     1
 75
     0
 76
     0
 77
     0
 78
     0
170
     0
171
     2
172
     0
173
     0
174
     0
175
     0
176
     0
177
     0
178
     0
  0
ENDTAB
  0
ENDSEC
  0
SECTION
  2
BLOCKS
  0
BLOCK
  8
0
  2
$MODEL_SPACE
 70
     0
 10
0.0
 20
0.0
 30
0.0
  3
$MODEL_SPACE
  1

  0
ENDBLK
  5
21
  8
0
  0
BLOCK
 67
     1
  8
0
  2
$PAPER_SPACE
 70
     0
 10
0.0
 20
0.0
 30
0.0
  3
$PAPER_SPACE
  1

  0
ENDBLK
  5
53
 67
     1
  8
0
  0
ENDSEC
  0
SECTION
  2
ENTITIES
  0
LINE
  5
9943
  8
0
 10
151.66912637980769
 20
175.643907408959
 30
0.0
 11
151.95780151443279
 21
175.14390740888791
 31
0.0
  0
LINE
  5
9944
  8
0
 10
151.66912637984441
 20
182.5220846906459
 30
0.0
 11
151.66912637984441
 21
175.643907408959
 31
0.0
  0
ARC
  5
9945
  8
0
 10
158.41912637984441
 20
175.14390740895891
 30
0.0
 40
10.00000000000005
 50
109.8896759011123
 51
132.45415020439759
  0
LINE
  5
9946
  8
0
 10
152.64562368794441
 20
169.89048939631809
 30
0.0
 11
153.41912637979209
 21
169.44390740895551
 31
0.0
  0
LINE
  5
9947
  8
0
 10
163.41912637989671
 20
169.44390740895551
 30
0.0
 11
164.19262907174451
 21
169.89048939631809
 31
0.0
  0
LINE
  5
9948
  8
0
 10
153.4191263798491
 20
172.64390740896471
 30
0.0
 11
152.64562370960411
 21
172.1973254340746
 31
0.0
  0
LINE
  5
9949
  8
0
 10
164.19262906507419
 20
172.1973254254205
 30
0.0
 11
163.41912637984001
 21
172.64390740896471
 31
0.0
  0
LINE
  5
994A
  8
0
 10
153.96912637984451
 20
151.94390740895901
 30
0.0
 11
153.96912637984451
 21
151.44390740895901
 31
0.0
  0
LINE
  5
994B
  8
0
 10
162.86912637984449
 20
151.44390740895901
 30
0.0
 11
162.86912637984449
 21
151.94390740895901
 31
0.0
  0
LINE
  5
994C
  8
0
 10
155.4191263798445
 20
186.3304074089591
 30
0.0
 11
155.4191263798445
 21
184.543907408959
 31
0.0
  0
LINE
  5
994D
  8
0
 10
155.4191263798445
 20
172.94390740895909
 30
0.0
 11
155.4191263798445
 21
172.64390740896471
 31
0.0
  0
LINE
  5
994E
  8
0
 10
155.4191263798445
 20
169.44390740895551
 30
0.0
 11
155.4191263798445
 21
151.94390740895901
 31
0.0
  0
LINE
  5
994F
  8
0
 10
161.4191263798445
 20
151.94390740895901
 30
0.0
 11
161.4191263798445
 21
169.44390740895551
 31
0.0
  0
LINE
  5
9950
  8
0
 10
161.4191263798445
 20
172.64390740896471
 30
0.0
 11
161.4191263798445
 21
172.94390740895909
 31
0.0
  0
LINE
  5
9951
  8
0
 10
161.4191263798445
 20
186.30871249908711
 30
0.0
 11
161.4191263798445
 21
186.3304074089591
 31
0.0
  0
LINE
  5
9952
  8
0
 10
161.41912637982179
 20
186.3304074089591
 30
0.0
 11
160.80562637977121
 21
186.94390740902679
 31
0.0
  0
LINE
  5
9953
  8
0
 10
156.03262637991779
 20
186.94390740902679
 30
0.0
 11
155.41912637986729
 21
186.3304074089591
 31
0.0
  0
LINE
  5
9954
  8
0
 10
163.4191263798208
 20
147.9439074089629
 30
0.0
 11
164.1926290717679
 21
148.15116683062089
 31
0.0
  0
LINE
  5
9955
  8
0
 10
152.64562368797829
 20
148.15116683060549
 30
0.0
 11
153.41912637986809
 21
147.9439074089629
 31
0.0
  0
CIRCLE
  5
9956
  8
0
 10
224.96912637984451
 20
199.69390740895901
 30
0.0
 40
4.0000000000017382
  0
LINE
  5
9957
  8
0
 10
151.66912637980769
 20
175.643907408959
 30
0.0
 11
152.9191263798443
 21
175.643907408959
 31
0.0
  0
LINE
  5
9958
  8
0
 10
151.9578015144312
 20
175.14390740888891
 30
0.0
 11
152.91912637984441
 21
175.14390740888791
 31
0.0
  0
LINE
  5
9959
  8
0
 10
151.66912637984441
 20
182.5220846906459
 30
0.0
 11
153.51552145177669
 21
182.5220846906459
 31
0.0
  0
LINE
  5
995A
  8
0
 10
155.5258232231173
 20
184.543907408959
 30
0.0
 11
155.0125507439364
 21
184.543907408959
 31
0.0
  0
POLYLINE
  5
995D
  8
0
 66
     1
 10
0.0
 20
0.0
 30
0.0
 70
   128
  0
VERTEX
  5
A5E9
  8
0
 10
196.91912637984441
 20
176.15390740895899
 30
0.0
  0
VERTEX
  5
A5EA
  8
0
 10
197.0108089265737
 20
176.75250952851979
 30
0.0
  0
VERTEX
  5
A5EB
  8
0
 10
197.08176414011049
 20
176.94390740895909
 30
0.0
  0
SEQEND
  5
A5EC
  8
0
  0
LINE
  5
995E
  8
0
 10
196.91912637984441
 20
172.94390740895909
 30
0.0
 11
196.91912637984441
 21
176.15390740895899
 31
0.0
  0
LINE
  5
995F
  8
0
 10
196.91912637984441
 20
172.94390740895909
 30
0.0
 11
152.91912637984441
 21
172.94390740895909
 31
0.0
  0
LINE
  5
9960
  8
0
 10
156.58713963874891
 20
184.97322388762549
 30
0.0
 11
201.3191263798445
 21
197.33647363595719
 31
0.0
  0
LINE
  5
9962
  8
0
 10
212.70802382891659
 20
178.15390740895899
 30
0.0
 11
198.9191263798445
 21
178.15390740895899
 31
0.0
  0
ARC
  5
9963
  8
0
 10
157.91912637984441
 20
180.15390740895899
 30
0.0
 40
5.0000000000000098
 50
105.4500000000005
 51
180.0
  0
LINE
  5
9964
  8
0
 10
152.91912637984419
 20
172.94390740895909
 30
0.0
 11
152.9191263798445
 21
180.15390740895899
 31
0.0
  0
ARC
  5
9965
  8
0
 10
198.91912637984441
 20
176.15390740895899
 30
0.0
 40
2.0000000000000071
 50
90.0
 51
156.73402593846461
  0
LINE
  5
9967
  8
0
 10
201.3191263798445
 20
197.33647363595719
 30
0.0
 11
203.4261481435486
 21
197.9188228269426
 31
0.0
  0
LINE
  5
9969
  8
0
 10
210.4540531790874
 20
199.86123029622891
 30
0.0
 11
215.26561549799251
 21
202.6391870962714
 31
0.0
  0
ARC
  5
996B
  8
0
 10
217.6091263798445
 20
177.65390740895899
 30
0.0
 40
4.0000000000000142
 50
192.76730012985001
 51
213.79457652093311
  0
LINE
  5
996C
  8
0
 10
213.70802382891659
 20
176.7699397132013
 30
0.0
 11
213.70802382891659
 21
177.15390740895899
 31
0.0
  0
ARC
  5
996D
  8
0
 10
212.70802382891659
 20
177.15390740895899
 30
0.0
 40
1.0
 50
0.0
 51
90.0
  0
LINE
  5
996E
  8
0
 10
203.4261481435486
 20
197.9188228269426
 30
0.0
 11
210.4540531790874
 21
199.86123029622891
 31
0.0
  0
LINE
  5
9972
  8
0
 10
215.26561549799251
 20
202.6391870962714
 30
0.0
 11
216.3191263798445
 21
203.24743188750281
 31
0.0
  0
ARC
  5
9975
  8
0
 10
224.96912637984451
 20
199.00390740895909
 30
0.0
 40
8.0
 50
90.0
 51
119.9999999999997
  0
LINE
  5
9976
  8
0
 10
224.96912637984451
 20
207.00390740895909
 30
0.0
 11
230.3691263798446
 21
207.00390740895901
 31
0.0
  0
ARC
  5
9977
  8
0
 10
230.36912637984449
 20
197.4939074089591
 30
0.0
 40
9.5100000000000016
 50
32.09387424507981
 51
90.0
  0
LINE
  5
997D
  8
0
 10
230.26262042180491
 20
181.95355687496871
 30
0.0
 11
230.13758777451321
 21
181.69479917758059
 31
0.0
  0
LINE
  5
9981
  8
0
 10
216.3191263798445
 20
203.24743188750281
 30
0.0
 11
220.96912637984451
 21
205.93211063923459
 31
0.0
  0
POLYLINE
  5
9983
  8
0
 66
     1
 10
0.0
 20
0.0
 30
0.0
 70
   128
  0
VERTEX
  5
A5ED
  8
0
 10
158.4191263798445
 20
169.4439074089247
 30
0.0
  0
VERTEX
  5
A5EE
  8
0
 10
156.97575070686659
 20
169.56178212586579
 30
0.0
  0
VERTEX
  5
A5EF
  8
0
 10
155.5323750338888
 20
169.89048939631809
 30
0.0
  0
SEQEND
  5
A5F0
  8
0
  0
LINE
  5
9984
  8
0
 10
155.53237503389451
 20
169.89048939631809
 30
0.0
 11
155.53237501723919
 21
172.19732541676311
 31
0.0
  0
POLYLINE
  5
9985
  8
0
 66
     1
 10
0.0
 20
0.0
 30
0.0
 70
   128
  0
VERTEX
  5
A5F1
  8
0
 10
155.5323750071278
 20
172.19732538927951
 30
0.0
  0
VERTEX
  5
A5F2
  8
0
 10
156.94667608113841
 20
172.52133380944571
 30
0.0
  0
VERTEX
  5
A5F3
  8
0
 10
158.41912637984461
 20
172.64390740896209
 30
0.0
  0
SEQEND
  5
A5F4
  8
0
  0
POLYLINE
  5
9986
  8
0
 66
     1
 10
0.0
 20
0.0
 30
0.0
 70
   128
  0
VERTEX
  5
A5F5
  8
0
 10
158.41912637984461
 20
172.64390740896209
 30
0.0
  0
VERTEX
  5
A5F6
  8
0
 10
159.8625020094949
 20
172.52603269895951
 30
0.0
  0
VERTEX
  5
A5F7
  8
0
 10
161.30587763914511
 20
172.19732544658461
 30
0.0
  0
SEQEND
  5
A5F8
  8
0
  0
LINE
  5
9987
  8
0
 10
161.305877717464
 20
172.19732541676319
 30
0.0
 11
161.30587772579071
 21
169.89048939631709
 31
0.0
  0
POLYLINE
  5
9988
  8
0
 66
     1
 10
0.0
 20
0.0
 30
0.0
 70
   128
  0
VERTEX
  5
A5F9
  8
0
 10
161.3058777258002
 20
169.8904893963182
 30
0.0
  0
VERTEX
  5
A5FA
  8
0
 10
159.89157666097131
 20
169.5664810055747
 30
0.0
  0
VERTEX
  5
A5FB
  8
0
 10
158.4191263798443
 20
169.44390740892541
 30
0.0
  0
SEQEND
  5
A5FC
  8
0
  0
POLYLINE
  5
9989
  8
0
 66
     1
 10
0.0
 20
0.0
 30
0.0
 70
   128
  0
VERTEX
  5
A5FD
  8
0
 10
164.19262907174451
 20
169.89048939631809
 30
0.0
  0
VERTEX
  5
A5FE
  8
0
 10
163.4854785393299
 20
169.5664810055747
 30
0.0
  0
VERTEX
  5
A5FF
  8
0
 10
162.74925339876651
 20
169.44390740892541
 30
0.0
  0
SEQEND
  5
A600
  8
0
  0
POLYLINE
  5
998A
  8
0
 66
     1
 10
0.0
 20
0.0
 30
0.0
 70
   128
  0
VERTEX
  5
A601
  8
0
 10
162.74925339876751
 20
169.4439074089247
 30
0.0
  0
VERTEX
  5
A602
  8
0
 10
162.02756556227769
 20
169.56178212586579
 30
0.0
  0
VERTEX
  5
A603
  8
0
 10
161.3058777257888
 20
169.89048939631809
 30
0.0
  0
SEQEND
  5
A604
  8
0
  0
POLYLINE
  5
998B
  8
0
 66
     1
 10
0.0
 20
0.0
 30
0.0
 70
   128
  0
VERTEX
  5
A605
  8
0
 10
161.3058776799146
 20
172.1973253892796
 30
0.0
  0
VERTEX
  5
A606
  8
0
 10
162.01302824941359
 20
172.52133380944571
 30
0.0
  0
VERTEX
  5
A607
  8
0
 10
162.7492533987666
 20
172.64390740896221
 30
0.0
  0
SEQEND
  5
A608
  8
0
  0
POLYLINE
  5
998C
  8
0
 66
     1
 10
0.0
 20
0.0
 30
0.0
 70
   128
  0
VERTEX
  5
A609
  8
0
 10
162.7492533987666
 20
172.64390740896221
 30
0.0
  0
VERTEX
  5
A60A
  8
0
 10
163.47094122776869
 20
172.52603269441931
 30
0.0
  0
VERTEX
  5
A60B
  8
0
 10
164.19262905677101
 20
172.19732543021439
 30
0.0
  0
SEQEND
  5
A60C
  8
0
  0
LINE
  5
998D
  8
0
 10
164.19262907174451
 20
169.89048939631809
 30
0.0
 11
164.19262906507419
 21
172.1973254254205
 31
0.0
  0
POLYLINE
  5
998F
  8
0
 66
     1
 10
0.0
 20
0.0
 30
0.0
 70
   128
  0
VERTEX
  5
A60D
  8
0
 10
155.5323750339
 20
169.8904893963182
 30
0.0
  0
VERTEX
  5
A60E
  8
0
 10
154.82522450148559
 20
169.5664810055747
 30
0.0
  0
VERTEX
  5
A60F
  8
0
 10
154.08899936092209
 20
169.44390740892541
 30
0.0
  0
SEQEND
  5
A610
  8
0
  0
POLYLINE
  5
9992
  8
0
 66
     1
 10
0.0
 20
0.0
 30
0.0
 70
   128
  0
VERTEX
  5
A611
  8
0
 10
154.08899936092129
 20
169.4439074089247
 30
0.0
  0
VERTEX
  5
A612
  8
0
 10
153.36731152443329
 20
169.56178212586579
 30
0.0
  0
VERTEX
  5
A613
  8
0
 10
152.64562368794441
 20
169.89048939631809
 30
0.0
  0
SEQEND
  5
A614
  8
0
  0
LINE
  5
9993
  8
0
 10
152.64562368794441
 20
169.89048939631809
 30
0.0
 11
152.64562370960411
 21
172.1973254340746
 31
0.0
  0
POLYLINE
  5
9994
  8
0
 66
     1
 10
0.0
 20
0.0
 30
0.0
 70
   128
  0
VERTEX
  5
A615
  8
0
 10
152.64562373126009
 20
172.19732544657771
 30
0.0
  0
VERTEX
  5
A616
  8
0
 10
153.35277424307901
 20
172.52133381972399
 30
0.0
  0
VERTEX
  5
A617
  8
0
 10
154.0889993609222
 20
172.64390740896209
 30
0.0
  0
SEQEND
  5
A618
  8
0
  0
POLYLINE
  5
9995
  8
0
 66
     1
 10
0.0
 20
0.0
 30
0.0
 70
   128
  0
VERTEX
  5
A619
  8
0
 10
154.0889993609222
 20
172.64390740896209
 30
0.0
  0
VERTEX
  5
A61A
  8
0
 10
154.81068717574749
 20
172.52603269895951
 30
0.0
  0
VERTEX
  5
A61B
  8
0
 10
155.53237499057261
 20
172.1973254465845
 30
0.0
  0
SEQEND
  5
A61C
  8
0
  0
LINE
  5
9997
  8
0
 10
153.41912637981829
 20
169.44390740894241
 30
0.0
 11
163.41912637982111
 21
169.44390740891191
 31
0.0
  0
LINE
  5
9999
  8
0
 10
153.4191263798468
 20
172.6439074089636
 30
0.0
 11
163.4191263798449
 21
172.64390740896189
 31
0.0
  0
LINE
  5
999C
  8
0
 10
161.30587772579199
 20
148.15116683061331
 30
0.0
 11
161.30587772579261
 21
151.44390740895909
 31
0.0
  0
POLYLINE
  5
999D
  8
0
 66
     1
 10
0.0
 20
0.0
 30
0.0
 70
   128
  0
VERTEX
  5
A61D
  8
0
 10
161.30587772579031
 20
148.15116683061331
 30
0.0
  0
VERTEX
  5
A61E
  8
0
 10
159.86899185850521
 20
147.99909655067671
 30
0.0
  0
VERTEX
  5
A61F
  8
0
 10
158.4191263798445
 20
147.94390740896921
 30
0.0
  0
SEQEND
  5
A620
  8
0
  0
POLYLINE
  5
999E
  8
0
 66
     1
 10
0.0
 20
0.0
 30
0.0
 70
   128
  0
VERTEX
  5
A621
  8
0
 10
158.4191263798445
 20
147.94390740896921
 30
0.0
  0
VERTEX
  5
A622
  8
0
 10
156.97575070687159
 20
147.99861325548619
 30
0.0
  0
VERTEX
  5
A623
  8
0
 10
155.53237503389869
 20
148.15116683061331
 30
0.0
  0
SEQEND
  5
A624
  8
0
  0
LINE
  5
999F
  8
0
 10
155.53237503389701
 20
148.15116683061331
 30
0.0
 11
155.53237503389639
 21
151.44390740895909
 31
0.0
  0
LINE
  5
99A1
  8
0
 10
164.1926290717677
 20
148.1511668306303
 30
0.0
 11
164.19262907174081
 21
151.44390740895901
 31
0.0
  0
POLYLINE
  5
99A2
  8
0
 66
     1
 10
0.0
 20
0.0
 30
0.0
 70
   128
  0
VERTEX
  5
A625
  8
0
 10
164.1926290717397
 20
148.15116683061331
 30
0.0
  0
VERTEX
  5
A626
  8
0
 10
163.47418613809711
 20
147.9990965506768
 30
0.0
  0
VERTEX
  5
A627
  8
0
 10
162.7492533987668
 20
147.94390740896921
 30
0.0
  0
SEQEND
  5
A628
  8
0
  0
POLYLINE
  5
99A3
  8
0
 66
     1
 10
0.0
 20
0.0
 30
0.0
 70
   128
  0
VERTEX
  5
A629
  8
0
 10
162.7492533987668
 20
147.94390740896921
 30
0.0
  0
VERTEX
  5
A62A
  8
0
 10
162.02756556228019
 20
147.99861325548619
 30
0.0
  0
VERTEX
  5
A62B
  8
0
 10
161.30587772579381
 20
148.15116683061331
 30
0.0
  0
SEQEND
  5
A62C
  8
0
  0
POLYLINE
  5
99A4
  8
0
 66
     1
 10
0.0
 20
0.0
 30
0.0
 70
   128
  0
VERTEX
  5
A62D
  8
0
 10
155.53237503389511
 20
148.15116683061331
 30
0.0
  0
VERTEX
  5
A62E
  8
0
 10
154.8139321002526
 20
147.99909655067671
 30
0.0
  0
VERTEX
  5
A62F
  8
0
 10
154.08899936092229
 20
147.94390740896921
 30
0.0
  0
SEQEND
  5
A630
  8
0
  0
POLYLINE
  5
99A5
  8
0
 66
     1
 10
0.0
 20
0.0
 30
0.0
 70
   128
  0
VERTEX
  5
A631
  8
0
 10
154.08899936092229
 20
147.94390740896921
 30
0.0
  0
VERTEX
  5
A632
  8
0
 10
153.36731152443269
 20
147.9986132554867
 30
0.0
  0
VERTEX
  5
A633
  8
0
 10
152.6456236879431
 20
148.1511668306149
 30
0.0
  0
SEQEND
  5
A634
  8
0
  0
LINE
  5
99A6
  8
0
 10
152.6456236879788
 20
148.15116683058741
 30
0.0
 11
152.64562368794819
 21
151.44390740895901
 31
0.0
  0
LINE
  5
99A7
  8
0
 10
152.6456236879481
 20
151.44390740895901
 30
0.0
 11
164.1926290717409
 21
151.44390740895921
 31
0.0
  0
LINE
  5
99AA
  8
0
 10
153.96912637984451
 20
151.94390740895901
 30
0.0
 11
162.86912637984449
 21
151.94390740895901
 31
0.0
  0
LINE
  5
99AB
  8
0
 10
161.4191263798445
 20
186.3304074089591
 30
0.0
 11
155.4191263798445
 21
186.3304074089591
 31
0.0
  0
LINE
  5
99AC
  8
0
 10
160.80562637977121
 20
186.94390740902679
 30
0.0
 11
156.03262637991779
 21
186.94390740902679
 31
0.0
  0
LINE
  5
99AE
  8
0
 10
153.41912637985621
 20
147.9439074089656
 30
0.0
 11
163.41912637985641
 21
147.94390740897239
 31
0.0
  0
ARC
  5
99AF
  8
0
 10
224.9691263798442
 20
362.64475147319808
 30
0.0
 40
60.000000000011909
 50
266.17744627072261
 51
270.0
  0
ARC
  5
99B0
  8
0
 10
224.9691263798442
 20
362.64475147319808
 30
0.0
 40
60.000000000011909
 50
270.0
 51
273.82255372927739
  0
ARC
  5
99B1
  8
0
 10
224.9691263798442
 20
259.74475147316713
 30
0.0
 40
60.000000000021672
 50
91.910213171708165
 51
93.822553729290476
  0
ARC
  5
99B2
  8
0
 10
224.9691263798442
 20
259.74475147316713
 30
0.0
 40
60.000000000021672
 50
86.177446270709524
 51
88.089786828291835
  0
LINE
  5
99B3
  8
0
 10
220.9691263798442
 20
319.61126966156962
 30
0.0
 11
220.9691263798442
 21
318.24475147318651
 31
0.0
  0
LINE
  5
99B4
  8
0
 10
228.9691263798442
 20
318.24475147318651
 30
0.0
 11
228.9691263798442
 21
319.61126966156962
 31
0.0
  0
LINE
  5
99B5
  8
0
 10
220.9691263798442
 20
304.1447514731866
 30
0.0
 11
220.9691263798442
 21
302.7782332848036
 31
0.0
  0
LINE
  5
99B6
  8
0
 10
228.9691263798442
 20
302.7782332848036
 30
0.0
 11
228.9691263798442
 21
304.1447514731866
 31
0.0
  0
LINE
  5
99B7
  8
0
 10
221.9691263798442
 20
315.79475147318669
 30
0.0
 11
221.9691263798442
 21
313.74475147318662
 31
0.0
  0
LINE
  5
99B8
  8
0
 10
221.9691263798442
 20
308.6447514731866
 30
0.0
 11
221.9691263798444
 21
306.59475147318659
 31
0.0
  0
LINE
  5
99B9
  8
0
 10
227.9691263798442
 20
306.59475147318659
 30
0.0
 11
227.9691263798442
 21
308.6447514731866
 31
0.0
  0
LINE
  5
99BA
  8
0
 10
227.9691263798442
 20
313.74475147318662
 30
0.0
 11
227.96912637984431
 21
315.79475147318669
 31
0.0
  0
LINE
  5
99BB
  8
0
 10
239.2773966191173
 20
308.6447514731866
 30
0.0
 11
239.2773966191173
 21
313.74475147318662
 31
0.0
  0
LINE
  5
99BC
  8
0
 10
228.96265342222179
 20
302.7782332848036
 30
0.0
 11
228.96912637984781
 21
302.7782332848036
 31
0.0
  0
LINE
  5
99BD
  8
0
 10
216.9191263798445
 20
302.7782332848036
 30
0.0
 11
228.96265342222179
 21
302.7782332848036
 31
0.0
  0
LINE
  5
99BE
  8
0
 10
226.9691263798442
 20
319.71140887544851
 30
0.0
 11
218.91912637984251
 21
319.71140887544851
 31
0.0
  0
LINE
  5
99BF
  8
0
 10
228.969126379861
 20
319.61126966156962
 30
0.0
 11
216.9191263798447
 21
319.61126966156962
 31
0.0
  0
ARC
  5
99C3
  8
0
 10
158.4191263798441
 20
311.19475147318661
 30
0.0
 40
6.7499999999999911
 50
295.35074426734752
 51
64.649255732652435
  0
LINE
  5
99C4
  8
0
 10
155.5290571765205
 20
305.09475147318648
 30
0.0
 11
161.30919558316779
 21
305.09475147318648
 31
0.0
  0
ARC
  5
99C5
  8
0
 10
158.4191263798441
 20
311.19475147318661
 30
0.0
 40
6.7499999999999716
 50
115.35074426734749
 51
244.64925573265251
  0
LINE
  5
99C6
  8
0
 10
161.30919558316779
 20
317.29475147318658
 30
0.0
 11
155.5290571765205
 21
317.29475147318658
 31
0.0
  0
ARC
  5
99D1
  8
0
 10
216.31912637984419
 20
316.24475147318651
 30
0.0
 40
2.4999999999999818
 50
245.07671806159479
 51
270.0
  0
ARC
  5
99D2
  8
0
 10
216.31912637984419
 20
306.1447514731866
 30
0.0
 40
2.5000000000000071
 50
90.0
 51
114.9232819384052
  0
LINE
  5
99D3
  8
0
 10
210.454053179087
 20
306.17610385512592
 30
0.0
 11
215.2656154979922
 21
308.41193360566268
 31
0.0
  0
LINE
  5
99D5
  8
0
 10
214.24369117490861
 20
310.593659991734
 30
0.0
 11
210.454053179087
 21
308.86464124395741
 31
0.0
  0
ARC
  5
99D6
  8
0
 10
216.31912637984419
 20
306.04475147318652
 30
0.0
 40
5.0000000000000604
 50
90.0
 51
114.52479798774129
  0
LINE
  5
99D7
  8
0
 10
216.31912637984419
 20
311.34475147318648
 30
0.0
 11
216.31912637984419
 21
311.04475147318658
 31
0.0
  0
ARC
  5
99D8
  8
0
 10
216.31912637984419
 20
316.3447514731867
 30
0.0
 40
5.0000000000000284
 50
245.47520201225871
 51
270.0
  0
LINE
  5
99D9
  8
0
 10
210.454053179087
 20
313.52486170241571
 30
0.0
 11
214.24369117490861
 21
311.79584295463911
 31
0.0
  0
LINE
  5
99DB
  8
0
 10
215.2656154979922
 20
313.97756934071037
 30
0.0
 11
210.454053179087
 21
316.2133990912472
 31
0.0
  0
LINE
  5
99DC
  8
0
 10
216.31912637984419
 20
308.6447514731866
 30
0.0
 11
239.2773966191173
 21
308.6447514731866
 31
0.0
  0
LINE
  5
99DD
  8
0
 10
239.2773966191173
 20
313.74475147318668
 30
0.0
 11
216.31912637984419
 21
313.74475147318662
 31
0.0
  0
ARC
  5
99E0
  8
0
 10
201.31912637984419
 20
307.44475147318627
 30
0.0
 40
4.9999999999998508
 50
270.0
 51
294.92328193840518
  0
LINE
  5
99E1
  8
0
 10
152.91912637984419
 20
302.4447514731865
 30
0.0
 11
201.31912637984419
 21
302.4447514731865
 31
0.0
  0
LINE
  5
99E3
  8
0
 10
201.31912637984419
 20
304.94475147318661
 30
0.0
 11
152.91912637984419
 21
304.94475147318661
 31
0.0
  0
ARC
  5
99E4
  8
0
 10
201.31912637984431
 20
307.44475147318622
 30
0.0
 40
2.4999999999996358
 50
270.0
 51
294.52479798774141
  0
LINE
  5
99E5
  8
0
 10
210.454053179087
 20
308.86464124395741
 30
0.0
 11
202.35684398231189
 21
305.17029721391282
 31
0.0
  0
LINE
  5
99E6
  8
0
 10
203.42614814354829
 20
302.91038720823411
 30
0.0
 11
210.454053179087
 21
306.17610385512592
 31
0.0
  0
ARC
  5
99E7
  8
0
 10
201.31912637984419
 20
314.94475147318678
 30
0.0
 40
4.9999999999997744
 50
65.076718061594804
 51
90.0
  0
ARC
  5
99E8
  8
0
 10
201.31912637984419
 20
314.9447514731869
 30
0.0
 40
2.4999999999996971
 50
65.475202012258634
 51
90.0
  0
LINE
  5
99E9
  8
0
 10
152.91912637984419
 20
317.44475147318661
 30
0.0
 11
201.31912637984419
 21
317.44475147318661
 31
0.0
  0
LINE
  5
99EB
  8
0
 10
201.31912637984419
 20
319.94475147318661
 30
0.0
 11
152.91912637984419
 21
319.94475147318661
 31
0.0
  0
LINE
  5
99EC
  8
0
 10
202.35684398231189
 20
317.21920573246041
 30
0.0
 11
210.454053179087
 21
313.52486170241571
 31
0.0
  0
LINE
  5
99ED
  8
0
 10
210.454053179087
 20
316.2133990912472
 30
0.0
 11
203.42614814354829
 21
319.479115738139
 31
0.0
  0
LINE
  5
99F4
  8
0
 10
190.41912637984419
 20
308.1447514731866
 30
0.0
 11
164.44075406677391
 21
308.1447514731866
 31
0.0
  0
ARC
  5
99F5
  8
0
 10
190.41912637984419
 20
311.19475147318661
 30
0.0
 40
3.0500000000000109
 50
270.0
 51
90.0
  0
LINE
  5
99F6
  8
0
 10
164.44075406677391
 20
314.24475147318651
 30
0.0
 11
190.41912637984419
 21
314.24475147318651
 31
0.0
  0
LINE
  5
99F7
  8
0
 10
196.91912637984419
 20
304.94475147318661
 30
0.0
 11
196.91912637984419
 21
317.44475147318661
 31
0.0
  0
LINE
  5
99F8
  8
0
 10
152.91912637984419
 20
302.4447514731865
 30
0.0
 11
152.91912637984419
 21
307.28163251256183
 31
0.0
  0
LINE
  5
99F9
  8
0
 10
152.91912637984419
 20
315.1078704338114
 30
0.0
 11
152.91912637984419
 21
319.94475147318661
 31
0.0
  0
LINE
  5
99FA
  8
0
 10
214.27507479056121
 20
310.60784834925113
 30
0.0
 11
214.27507479056121
 21
311.7816545971221
 31
0.0
  0
ARC
  5
99FD
  8
0
 10
1.4691263610777121
 20
199.6939074089598
 30
0.0
 40
60.000000000011902
 50
358.14533040709028
 51
0.0
  0
ARC
  5
99FE
  8
0
 10
1.4691263610777121
 20
199.6939074089598
 30
0.0
 40
60.000000000011902
 50
0.0
 51
3.822553729277482
  0
ARC
  5
99FF
  8
0
 10
104.3691263611087
 20
199.69390740896031
 30
0.0
 40
60.000000000021679
 50
176.17744627070951
 51
178.08978682829181
  0
LINE
  5
9A00
  8
0
 10
45.869126361089172
 20
203.69390740896
 30
0.0
 11
44.502608172706168
 21
203.69390740896
 31
0.0
  0
LINE
  5
9A01
  8
0
 10
61.335644549472192
 20
203.69390740896
 30
0.0
 11
59.969126361089202
 21
203.69390740896
 31
0.0
  0
LINE
  5
9A02
  8
0
 10
57.519126379844522
 20
202.69390740896009
 30
0.0
 11
55.660266912149432
 21
202.69390740896009
 31
0.0
  0
LINE
  5
9A03
  8
0
 10
50.177985810029043
 20
202.69390740896009
 30
0.0
 11
48.31912637984459
 21
202.69390740896009
 31
0.0
  0
ARC
  5
9A04
  8
0
 10
52.919126361089582
 20
175.14390740895999
 30
0.0
 40
10.000000000000011
 50
109.946540215637
 51
127.5895029648578
  0
ARC
  5
9A05
  8
0
 10
52.919126361089582
 20
175.14390740895999
 30
0.0
 40
10.000000000000011
 50
52.41049703514215
 51
70.05029246035653
  0
LINE
  5
9A06
  8
0
 10
48.46912636108965
 20
151.94390740896
 30
0.0
 11
48.46912636108965
 21
151.44390740896
 31
0.0
  0
LINE
  5
9A07
  8
0
 10
57.369126361089627
 20
151.44390740896009
 30
0.0
 11
57.369126361089627
 21
151.94390740896009
 31
0.0
  0
LINE
  5
9A08
  8
0
 10
49.919126361089461
 20
186.33040740896001
 30
0.0
 11
49.919126361089461
 21
184.54390740896011
 31
0.0
  0
LINE
  5
9A09
  8
0
 10
49.919126361089582
 20
172.94390740896
 30
0.0
 11
49.919126361089582
 21
172.64390740896579
 31
0.0
  0
LINE
  5
9A0A
  8
0
 10
49.919126361089582
 20
169.44390740895651
 30
0.0
 11
49.919126361089582
 21
151.94390740896
 31
0.0
  0
LINE
  5
9A0B
  8
0
 10
55.919126361089582
 20
151.94390740896
 30
0.0
 11
55.919126361089582
 21
169.44390740895651
 31
0.0
  0
LINE
  5
9A0C
  8
0
 10
55.919126361089582
 20
172.64390740896579
 30
0.0
 11
55.919126361089582
 21
172.94390740896
 31
0.0
  0
LINE
  5
9A0D
  8
0
 10
55.919126361089468
 20
184.54390740896011
 30
0.0
 11
55.919126361089468
 21
186.3304074089601
 31
0.0
  0
LINE
  5
9A0E
  8
0
 10
55.919126361066731
 20
186.3304074089601
 30
0.0
 11
55.305626361016202
 21
186.94390740902779
 31
0.0
  0
LINE
  5
9A0F
  8
0
 10
50.532626361162841
 20
186.94390740902779
 30
0.0
 11
49.919126361112198
 21
186.33040740896001
 31
0.0
  0
LINE
  5
9A10
  8
0
 10
61.335644549472299
 20
197.83270655061671
 30
0.0
 11
61.335644549472192
 21
203.6939074089637
 31
0.0
  0
LINE
  5
9A11
  8
0
 10
44.402468958827221
 20
201.69390740896
 30
0.0
 11
44.402468958827221
 21
197.75371220378341
 31
0.0
  0
LINE
  5
9A12
  8
0
 10
44.502608172706168
 20
203.69390740896
 30
0.0
 11
44.502608172706168
 21
197.83270655061659
 31
0.0
  0
LINE
  5
9A14
  8
0
 10
45.869126361089123
 20
206.6938760263065
 30
0.0
 11
45.869126361089172
 21
198.65300727321059
 31
0.0
  0
LINE
  5
9A17
  8
0
 10
59.969126361089202
 20
198.6530072732107
 30
0.0
 11
59.969126361089202
 21
206.69387602630641
 31
0.0
  0
LINE
  5
9A18
  8
0
 10
46.819126361089559
 20
182.52208469064689
 30
0.0
 11
59.019126361089491
 21
182.52208469064689
 31
0.0
  0
LINE
  5
9A1A
  8
0
 10
46.819126361089559
 20
175.6439074089395
 30
0.0
 11
59.019126361089491
 21
175.6439074089395
 31
0.0
  0
LINE
  5
9A1C
  8
0
 10
56.33087078293574
 20
184.54390740896011
 30
0.0
 11
49.507381939243203
 21
184.54390740896011
 31
0.0
  0
LINE
  5
9A1D
  8
0
 10
59.019126361089491
 20
175.14390740888791
 30
0.0
 11
59.019126361089491
 21
183.06792154322301
 31
0.0
  0
LINE
  5
9A1E
  8
0
 10
46.819126361089559
 20
183.06792154322301
 30
0.0
 11
46.819126361089559
 21
175.14390740888791
 31
0.0
  0
LINE
  5
9A20
  8
0
 10
46.669126361089532
 20
175.14390740888891
 30
0.0
 11
59.169126361089582
 21
175.14390740888911
 31
0.0
  0
LINE
  5
9A21
  8
0
 10
46.819126361089559
 20
175.64390740891889
 30
0.0
 11
46.819126361089559
 21
175.44390740896
 31
0.0
  0
ARC
  5
9A26
  8
0
 10
57.669126361089582
 20
176.94390740896
 30
0.0
 40
3.9999999999999711
 50
270.0
 51
0.0
  0
LINE
  5
9A27
  8
0
 10
48.169126361089582
 20
172.94390740896
 30
0.0
 11
57.669126361089582
 21
172.9439074089602
 31
0.0
  0
ARC
  5
9A28
  8
0
 10
48.169126361089582
 20
176.94390740896
 30
0.0
 40
3.999999999999996
 50
180.0
 51
270.0
  0
LINE
  5
9A29
  8
0
 10
61.669126361089582
 20
176.94390740896
 30
0.0
 11
61.669126361089582
 21
197.33647363595821
 31
0.0
  0
LINE
  5
9A2A
  8
0
 10
44.169126361089582
 20
197.3364736359581
 30
0.0
 11
44.169126361089582
 21
176.94390740896
 31
0.0
  0
POLYLINE
  5
9A33
  8
0
 10
44.634762096136967
 20
197.91882282694343
 30
0.0
 66
     1
 70
     8
  0
VERTEX
  8
0
  5
A6E1
 10
44.6348
 20
197.919
 30
0.000000
  70
    32
  0
VERTEX
  8
0
  5
A6E2
 10
44.6276
 20
197.915
 30
0.000000
  70
    32
  0
VERTEX
  8
0
  5
A6E3
 10
44.6205
 20
197.910
 30
0.000000
  70
    32
  0
VERTEX
  8
0
  5
A6E4
 10
44.6135
 20
197.906
 30
0.000000
  70
    32
  0
VERTEX
  8
0
  5
A6E5
 10
44.6065
 20
197.902
 30
0.000000
  70
    32
  0
VERTEX
  8
0
  5
A6E6
 10
44.5996
 20
197.897
 30
0.000000
  70
    32
  0
VERTEX
  8
0
  5
A6E7
 10
44.5927
 20
197.893
 30
0.000000
  70
    32
  0
VERTEX
  8
0
  5
A6E8
 10
44.5859
 20
197.889
 30
0.000000
  70
    32
  0
VERTEX
  8
0
  5
A6E9
 10
44.5792
 20
197.885
 30
0.000000
  70
    32
  0
VERTEX
  8
0
  5
A6EA
 10
44.5724
 20
197.880
 30
0.000000
  70
    32
  0
VERTEX
  8
0
  5
A6EB
 10
44.5658
 20
197.876
 30
0.000000
  70
    32
  0
VERTEX
  8
0
  5
A6EC
 10
44.5592
 20
197.872
 30
0.000000
  70
    32
  0
VERTEX
  8
0
  5
A6ED
 10
44.5526
 20
197.867
 30
0.000000
  70
    32
  0
VERTEX
  8
0
  5
A6EE
 10
44.5461
 20
197.863
 30
0.000000
  70
    32
  0
VERTEX
  8
0
  5
A6EF
 10
44.5397
 20
197.859
 30
0.000000
  70
    32
  0
VERTEX
  8
0
  5
A6F0
 10
44.5333
 20
197.854
 30
0.000000
  70
    32
  0
VERTEX
  8
0
  5
A6F1
 10
44.5270
 20
197.850
 30
0.000000
  70
    32
  0
VERTEX
  8
0
  5
A6F2
 10
44.5207
 20
197.845
 30
0.000000
  70
    32
  0
VERTEX
  8
0
  5
A6F3
 10
44.5144
 20
197.841
 30
0.000000
  70
    32
  0
VERTEX
  8
0
  5
A6F4
 10
44.5083
 20
197.837
 30
0.000000
  70
    32
  0
VERTEX
  8
0
  5
A6F5
 10
44.5021
 20
197.832
 30
0.000000
  70
    32
  0
VERTEX
  8
0
  5
A6F6
 10
44.4961
 20
197.828
 30
0.000000
  70
    32
  0
VERTEX
  8
0
  5
A6F7
 10
44.4900
 20
197.824
 30
0.000000
  70
    32
  0
VERTEX
  8
0
  5
A6F8
 10
44.4841
 20
197.819
 30
0.000000
  70
    32
  0
VERTEX
  8
0
  5
A6F9
 10
44.4782
 20
197.815
 30
0.000000
  70
    32
  0
VERTEX
  8
0
  5
A6FA
 10
44.4723
 20
197.810
 30
0.000000
  70
    32
  0
VERTEX
  8
0
  5
A6FB
 10
44.4665
 20
197.806
 30
0.000000
  70
    32
  0
VERTEX
  8
0
  5
A6FC
 10
44.4608
 20
197.802
 30
0.000000
  70
    32
  0
VERTEX
  8
0
  5
A6FD
 10
44.4551
 20
197.797
 30
0.000000
  70
    32
  0
VERTEX
  8
0
  5
A6FE
 10
44.4494
 20
197.793
 30
0.000000
  70
    32
  0
VERTEX
  8
0
  5
A6FF
 10
44.4439
 20
197.788
 30
0.000000
  70
    32
  0
VERTEX
  8
0
  5
A700
 10
44.4383
 20
197.784
 30
0.000000
  70
    32
  0
VERTEX
  8
0
  5
A701
 10
44.4329
 20
197.779
 30
0.000000
  70
    32
  0
VERTEX
  8
0
  5
A702
 10
44.4274
 20
197.775
 30
0.000000
  70
    32
  0
VERTEX
  8
0
  5
A703
 10
44.4221
 20
197.770
 30
0.000000
  70
    32
  0
VERTEX
  8
0
  5
A704
 10
44.4168
 20
197.766
 30
0.000000
  70
    32
  0
VERTEX
  8
0
  5
A705
 10
44.4115
 20
197.762
 30
0.000000
  70
    32
  0
VERTEX
  8
0
  5
A706
 10
44.4063
 20
197.757
 30
0.000000
  70
    32
  0
VERTEX
  8
0
  5
A707
 10
44.4012
 20
197.753
 30
0.000000
  70
    32
  0
VERTEX
  8
0
  5
A708
 10
44.3961
 20
197.748
 30
0.000000
  70
    32
  0
VERTEX
  8
0
  5
A709
 10
44.3911
 20
197.744
 30
0.000000
  70
    32
  0
VERTEX
  8
0
  5
A70A
 10
44.3861
 20
197.739
 30
0.000000
  70
    32
  0
VERTEX
  8
0
  5
A70B
 10
44.3812
 20
197.735
 30
0.000000
  70
    32
  0
VERTEX
  8
0
  5
A70C
 10
44.3763
 20
197.730
 30
0.000000
  70
    32
  0
VERTEX
  8
0
  5
A70D
 10
44.3715
 20
197.726
 30
0.000000
  70
    32
  0
VERTEX
  8
0
  5
A70E
 10
44.3667
 20
197.721
 30
0.000000
  70
    32
  0
VERTEX
  8
0
  5
A70F
 10
44.3620
 20
197.717
 30
0.000000
  70
    32
  0
VERTEX
  8
0
  5
A710
 10
44.3574
 20
197.712
 30
0.000000
  70
    32
  0
VERTEX
  8
0
  5
A711
 10
44.3528
 20
197.708
 30
0.000000
  70
    32
  0
VERTEX
  8
0
  5
A712
 10
44.3482
 20
197.703
 30
0.000000
  70
    32
  0
VERTEX
  8
0
  5
A713
 10
44.3438
 20
197.699
 30
0.000000
  70
    32
  0
VERTEX
  8
0
  5
A714
 10
44.3393
 20
197.694
 30
0.000000
  70
    32
  0
VERTEX
  8
0
  5
A715
 10
44.3350
 20
197.689
 30
0.000000
  70
    32
  0
VERTEX
  8
0
  5
A716
 10
44.3307
 20
197.685
 30
0.000000
  70
    32
  0
VERTEX
  8
0
  5
A717
 10
44.3264
 20
197.680
 30
0.000000
  70
    32
  0
VERTEX
  8
0
  5
A718
 10
44.3222
 20
197.676
 30
0.000000
  70
    32
  0
VERTEX
  8
0
  5
A719
 10
44.3181
 20
197.671
 30
0.000000
  70
    32
  0
VERTEX
  8
0
  5
A71A
 10
44.3140
 20
197.667
 30
0.000000
  70
    32
  0
VERTEX
  8
0
  5
A71B
 10
44.3099
 20
197.662
 30
0.000000
  70
    32
  0
VERTEX
  8
0
  5
A71C
 10
44.3060
 20
197.658
 30
0.000000
  70
    32
  0
VERTEX
  8
0
  5
A71D
 10
44.3020
 20
197.653
 30
0.000000
  70
    32
  0
VERTEX
  8
0
  5
A71E
 10
44.2982
 20
197.648
 30
0.000000
  70
    32
  0
VERTEX
  8
0
  5
A71F
 10
44.2944
 20
197.644
 30
0.000000
  70
    32
  0
VERTEX
  8
0
  5
A720
 10
44.2906
 20
197.639
 30
0.000000
  70
    32
  0
VERTEX
  8
0
  5
A721
 10
44.2869
 20
197.635
 30
0.000000
  70
    32
  0
VERTEX
  8
0
  5
A722
 10
44.2833
 20
197.630
 30
0.000000
  70
    32
  0
VERTEX
  8
0
  5
A723
 10
44.2797
 20
197.625
 30
0.000000
  70
    32
  0
VERTEX
  8
0
  5
A724
 10
44.2762
 20
197.621
 30
0.000000
  70
    32
  0
VERTEX
  8
0
  5
A725
 10
44.2727
 20
197.616
 30
0.000000
  70
    32
  0
VERTEX
  8
0
  5
A726
 10
44.2693
 20
197.612
 30
0.000000
  70
    32
  0
VERTEX
  8
0
  5
A727
 10
44.2659
 20
197.607
 30
0.000000
  70
    32
  0
VERTEX
  8
0
  5
A728
 10
44.2626
 20
197.602
 30
0.000000
  70
    32
  0
VERTEX
  8
0
  5
A729
 10
44.2594
 20
197.598
 30
0.000000
  70
    32
  0
VERTEX
  8
0
  5
A72A
 10
44.2562
 20
197.593
 30
0.000000
  70
    32
  0
VERTEX
  8
0
  5
A72B
 10
44.2531
 20
197.589
 30
0.000000
  70
    32
  0
VERTEX
  8
0
  5
A72C
 10
44.2500
 20
197.584
 30
0.000000
  70
    32
  0
VERTEX
  8
0
  5
A72D
 10
44.2470
 20
197.579
 30
0.000000
  70
    32
  0
VERTEX
  8
0
  5
A72E
 10
44.2440
 20
197.575
 30
0.000000
  70
    32
  0
VERTEX
  8
0
  5
A72F
 10
44.2411
 20
197.570
 30
0.000000
  70
    32
  0
VERTEX
  8
0
  5
A730
 10
44.2383
 20
197.566
 30
0.000000
  70
    32
  0
VERTEX
  8
0
  5
A731
 10
44.2355
 20
197.561
 30
0.000000
  70
    32
  0
VERTEX
  8
0
  5
A732
 10
44.2328
 20
197.556
 30
0.000000
  70
    32
  0
VERTEX
  8
0
  5
A733
 10
44.2301
 20
197.552
 30
0.000000
  70
    32
  0
VERTEX
  8
0
  5
A734
 10
44.2275
 20
197.547
 30
0.000000
  70
    32
  0
VERTEX
  8
0
  5
A735
 10
44.2249
 20
197.542
 30
0.000000
  70
    32
  0
VERTEX
  8
0
  5
A736
 10
44.2224
 20
197.538
 30
0.000000
  70
    32
  0
VERTEX
  8
0
  5
A737
 10
44.2200
 20
197.533
 30
0.000000
  70
    32
  0
VERTEX
  8
0
  5
A738
 10
44.2176
 20
197.528
 30
0.000000
  70
    32
  0
VERTEX
  8
0
  5
A739
 10
44.2153
 20
197.524
 30
0.000000
  70
    32
  0
VERTEX
  8
0
  5
A73A
 10
44.2130
 20
197.519
 30
0.000000
  70
    32
  0
VERTEX
  8
0
  5
A73B
 10
44.2108
 20
197.514
 30
0.000000
  70
    32
  0
VERTEX
  8
0
  5
A73C
 10
44.2086
 20
197.510
 30
0.000000
  70
    32
  0
VERTEX
  8
0
  5
A73D
 10
44.2065
 20
197.505
 30
0.000000
  70
    32
  0
VERTEX
  8
0
  5
A73E
 10
44.2045
 20
197.500
 30
0.000000
  70
    32
  0
VERTEX
  8
0
  5
A73F
 10
44.2025
 20
197.496
 30
0.000000
  70
    32
  0
VERTEX
  8
0
  5
A740
 10
44.2005
 20
197.491
 30
0.000000
  70
    32
  0
VERTEX
  8
0
  5
A741
 10
44.1987
 20
197.486
 30
0.000000
  70
    32
  0
VERTEX
  8
0
  5
A742
 10
44.1968
 20
197.482
 30
0.000000
  70
    32
  0
VERTEX
  8
0
  5
A743
 10
44.1951
 20
197.477
 30
0.000000
  70
    32
  0
VERTEX
  8
0
  5
A744
 10
44.1934
 20
197.472
 30
0.000000
  70
    32
  0
VERTEX
  8
0
  5
A745
 10
44.1917
 20
197.468
 30
0.000000
  70
    32
  0
VERTEX
  8
0
  5
A746
 10
44.1902
 20
197.463
 30
0.000000
  70
    32
  0
VERTEX
  8
0
  5
A747
 10
44.1886
 20
197.458
 30
0.000000
  70
    32
  0
VERTEX
  8
0
  5
A748
 10
44.1872
 20
197.454
 30
0.000000
  70
    32
  0
VERTEX
  8
0
  5
A749
 10
44.1857
 20
197.449
 30
0.000000
  70
    32
  0
VERTEX
  8
0
  5
A74A
 10
44.1844
 20
197.444
 30
0.000000
  70
    32
  0
VERTEX
  8
0
  5
A74B
 10
44.1831
 20
197.440
 30
0.000000
  70
    32
  0
VERTEX
  8
0
  5
A74C
 10
44.1819
 20
197.435
 30
0.000000
  70
    32
  0
VERTEX
  8
0
  5
A74D
 10
44.1807
 20
197.430
 30
0.000000
  70
    32
  0
VERTEX
  8
0
  5
A74E
 10
44.1795
 20
197.426
 30
0.000000
  70
    32
  0
VERTEX
  8
0
  5
A74F
 10
44.1785
 20
197.421
 30
0.000000
  70
    32
  0
VERTEX
  8
0
  5
A750
 10
44.1775
 20
197.416
 30
0.000000
  70
    32
  0
VERTEX
  8
0
  5
A751
 10
44.1765
 20
197.412
 30
0.000000
  70
    32
  0
VERTEX
  8
0
  5
A752
 10
44.1756
 20
197.407
 30
0.000000
  70
    32
  0
VERTEX
  8
0
  5
A753
 10
44.1748
 20
197.402
 30
0.000000
  70
    32
  0
VERTEX
  8
0
  5
A754
 10
44.1740
 20
197.398
 30
0.000000
  70
    32
  0
VERTEX
  8
0
  5
A755
 10
44.1733
 20
197.393
 30
0.000000
  70
    32
  0
VERTEX
  8
0
  5
A756
 10
44.1726
 20
197.388
 30
0.000000
  70
    32
  0
VERTEX
  8
0
  5
A757
 10
44.1720
 20
197.383
 30
0.000000
  70
    32
  0
VERTEX
  8
0
  5
A758
 10
44.1715
 20
197.379
 30
0.000000
  70
    32
  0
VERTEX
  8
0
  5
A759
 10
44.1710
 20
197.374
 30
0.000000
  70
    32
  0
VERTEX
  8
0
  5
A75A
 10
44.1705
 20
197.369
 30
0.000000
  70
    32
  0
VERTEX
  8
0
  5
A75B
 10
44.1702
 20
197.365
 30
0.000000
  70
    32
  0
VERTEX
  8
0
  5
A75C
 10
44.1698
 20
197.360
 30
0.000000
  70
    32
  0
VERTEX
  8
0
  5
A75D
 10
44.1696
 20
197.355
 30
0.000000
  70
    32
  0
VERTEX
  8
0
  5
A75E
 10
44.1694
 20
197.351
 30
0.000000
  70
    32
  0
VERTEX
  8
0
  5
A75F
 10
44.1692
 20
197.346
 30
0.000000
  70
    32
  0
VERTEX
  8
0
  5
A760
 10
44.1692
 20
197.341
 30
0.000000
  70
    32
  0
VERTEX
  8
0
  5
A761
 10
44.1691
 20
197.336
 30
0.000000
  70
    32
  0
SEQEND
  8
0
  5
A762
  0
LINE
  5
9A34
  8
0
 10
47.900478743028593
 20
199.86123029622991
 30
0.0
 11
44.634762096136853
 21
197.91882282694351
 31
0.0
  0
LINE
  5
9A36
  8
0
 10
46.894672101815488
 20
197.62328320607179
 30
0.0
 11
50.589016131860092
 21
199.86123029622991
 31
0.0
  0
POLYLINE
  5
9A37
  8
0
 10
46.894672101815637
 20
197.62328320607187
 30
0.0
 66
     1
 70
     8
  0
VERTEX
  8
0
  5
A763
 10
46.8947
 20
197.623
 30
0.000000
  70
    32
  0
VERTEX
  8
0
  5
A764
 10
46.8912
 20
197.621
 30
0.000000
  70
    32
  0
VERTEX
  8
0
  5
A765
 10
46.8878
 20
197.619
 30
0.000000
  70
    32
  0
VERTEX
  8
0
  5
A766
 10
46.8844
 20
197.617
 30
0.000000
  70
    32
  0
VERTEX
  8
0
  5
A767
 10
46.8810
 20
197.615
 30
0.000000
  70
    32
  0
VERTEX
  8
0
  5
A768
 10
46.8776
 20
197.613
 30
0.000000
  70
    32
  0
VERTEX
  8
0
  5
A769
 10
46.8743
 20
197.611
 30
0.000000
  70
    32
  0
VERTEX
  8
0
  5
A76A
 10
46.8710
 20
197.608
 30
0.000000
  70
    32
  0
VERTEX
  8
0
  5
A76B
 10
46.8677
 20
197.606
 30
0.000000
  70
    32
  0
VERTEX
  8
0
  5
A76C
 10
46.8645
 20
197.604
 30
0.000000
  70
    32
  0
VERTEX
  8
0
  5
A76D
 10
46.8612
 20
197.602
 30
0.000000
  70
    32
  0
VERTEX
  8
0
  5
A76E
 10
46.8580
 20
197.600
 30
0.000000
  70
    32
  0
VERTEX
  8
0
  5
A76F
 10
46.8549
 20
197.598
 30
0.000000
  70
    32
  0
VERTEX
  8
0
  5
A770
 10
46.8517
 20
197.596
 30
0.000000
  70
    32
  0
VERTEX
  8
0
  5
A771
 10
46.8486
 20
197.594
 30
0.000000
  70
    32
  0
VERTEX
  8
0
  5
A772
 10
46.8455
 20
197.591
 30
0.000000
  70
    32
  0
VERTEX
  8
0
  5
A773
 10
46.8424
 20
197.589
 30
0.000000
  70
    32
  0
VERTEX
  8
0
  5
A774
 10
46.8394
 20
197.587
 30
0.000000
  70
    32
  0
VERTEX
  8
0
  5
A775
 10
46.8364
 20
197.585
 30
0.000000
  70
    32
  0
VERTEX
  8
0
  5
A776
 10
46.8334
 20
197.583
 30
0.000000
  70
    32
  0
VERTEX
  8
0
  5
A777
 10
46.8304
 20
197.581
 30
0.000000
  70
    32
  0
VERTEX
  8
0
  5
A778
 10
46.8275
 20
197.578
 30
0.000000
  70
    32
  0
VERTEX
  8
0
  5
A779
 10
46.8245
 20
197.576
 30
0.000000
  70
    32
  0
VERTEX
  8
0
  5
A77A
 10
46.8217
 20
197.574
 30
0.000000
  70
    32
  0
VERTEX
  8
0
  5
A77B
 10
46.8188
 20
197.572
 30
0.000000
  70
    32
  0
VERTEX
  8
0
  5
A77C
 10
46.8160
 20
197.570
 30
0.000000
  70
    32
  0
VERTEX
  8
0
  5
A77D
 10
46.8132
 20
197.568
 30
0.000000
  70
    32
  0
VERTEX
  8
0
  5
A77E
 10
46.8104
 20
197.565
 30
0.000000
  70
    32
  0
VERTEX
  8
0
  5
A77F
 10
46.8076
 20
197.563
 30
0.000000
  70
    32
  0
VERTEX
  8
0
  5
A780
 10
46.8049
 20
197.561
 30
0.000000
  70
    32
  0
VERTEX
  8
0
  5
A781
 10
46.8022
 20
197.559
 30
0.000000
  70
    32
  0
VERTEX
  8
0
  5
A782
 10
46.7995
 20
197.557
 30
0.000000
  70
    32
  0
VERTEX
  8
0
  5
A783
 10
46.7968
 20
197.555
 30
0.000000
  70
    32
  0
VERTEX
  8
0
  5
A784
 10
46.7942
 20
197.552
 30
0.000000
  70
    32
  0
VERTEX
  8
0
  5
A785
 10
46.7916
 20
197.550
 30
0.000000
  70
    32
  0
VERTEX
  8
0
  5
A786
 10
46.7891
 20
197.548
 30
0.000000
  70
    32
  0
VERTEX
  8
0
  5
A787
 10
46.7865
 20
197.546
 30
0.000000
  70
    32
  0
VERTEX
  8
0
  5
A788
 10
46.7840
 20
197.544
 30
0.000000
  70
    32
  0
VERTEX
  8
0
  5
A789
 10
46.7815
 20
197.541
 30
0.000000
  70
    32
  0
VERTEX
  8
0
  5
A78A
 10
46.7790
 20
197.539
 30
0.000000
  70
    32
  0
VERTEX
  8
0
  5
A78B
 10
46.7766
 20
197.537
 30
0.000000
  70
    32
  0
VERTEX
  8
0
  5
A78C
 10
46.7742
 20
197.535
 30
0.000000
  70
    32
  0
VERTEX
  8
0
  5
A78D
 10
46.7718
 20
197.532
 30
0.000000
  70
    32
  0
VERTEX
  8
0
  5
A78E
 10
46.7694
 20
197.530
 30
0.000000
  70
    32
  0
VERTEX
  8
0
  5
A78F
 10
46.7671
 20
197.528
 30
0.000000
  70
    32
  0
VERTEX
  8
0
  5
A790
 10
46.7648
 20
197.526
 30
0.000000
  70
    32
  0
VERTEX
  8
0
  5
A791
 10
46.7625
 20
197.524
 30
0.000000
  70
    32
  0
VERTEX
  8
0
  5
A792
 10
46.7603
 20
197.521
 30
0.000000
  70
    32
  0
VERTEX
  8
0
  5
A793
 10
46.7581
 20
197.519
 30
0.000000
  70
    32
  0
VERTEX
  8
0
  5
A794
 10
46.7559
 20
197.517
 30
0.000000
  70
    32
  0
VERTEX
  8
0
  5
A795
 10
46.7537
 20
197.515
 30
0.000000
  70
    32
  0
VERTEX
  8
0
  5
A796
 10
46.7515
 20
197.512
 30
0.000000
  70
    32
  0
VERTEX
  8
0
  5
A797
 10
46.7494
 20
197.510
 30
0.000000
  70
    32
  0
VERTEX
  8
0
  5
A798
 10
46.7473
 20
197.508
 30
0.000000
  70
    32
  0
VERTEX
  8
0
  5
A799
 10
46.7453
 20
197.506
 30
0.000000
  70
    32
  0
VERTEX
  8
0
  5
A79A
 10
46.7432
 20
197.503
 30
0.000000
  70
    32
  0
VERTEX
  8
0
  5
A79B
 10
46.7412
 20
197.501
 30
0.000000
  70
    32
  0
VERTEX
  8
0
  5
A79C
 10
46.7393
 20
197.499
 30
0.000000
  70
    32
  0
VERTEX
  8
0
  5
A79D
 10
46.7373
 20
197.497
 30
0.000000
  70
    32
  0
VERTEX
  8
0
  5
A79E
 10
46.7354
 20
197.494
 30
0.000000
  70
    32
  0
VERTEX
  8
0
  5
A79F
 10
46.7335
 20
197.492
 30
0.000000
  70
    32
  0
VERTEX
  8
0
  5
A7A0
 10
46.7316
 20
197.490
 30
0.000000
  70
    32
  0
VERTEX
  8
0
  5
A7A1
 10
46.7298
 20
197.488
 30
0.000000
  70
    32
  0
VERTEX
  8
0
  5
A7A2
 10
46.7280
 20
197.485
 30
0.000000
  70
    32
  0
VERTEX
  8
0
  5
A7A3
 10
46.7262
 20
197.483
 30
0.000000
  70
    32
  0
VERTEX
  8
0
  5
A7A4
 10
46.7244
 20
197.481
 30
0.000000
  70
    32
  0
VERTEX
  8
0
  5
A7A5
 10
46.7227
 20
197.479
 30
0.000000
  70
    32
  0
VERTEX
  8
0
  5
A7A6
 10
46.7210
 20
197.476
 30
0.000000
  70
    32
  0
VERTEX
  8
0
  5
A7A7
 10
46.7193
 20
197.474
 30
0.000000
  70
    32
  0
VERTEX
  8
0
  5
A7A8
 10
46.7176
 20
197.472
 30
0.000000
  70
    32
  0
VERTEX
  8
0
  5
A7A9
 10
46.7160
 20
197.470
 30
0.000000
  70
    32
  0
VERTEX
  8
0
  5
A7AA
 10
46.7144
 20
197.467
 30
0.000000
  70
    32
  0
VERTEX
  8
0
  5
A7AB
 10
46.7128
 20
197.465
 30
0.000000
  70
    32
  0
VERTEX
  8
0
  5
A7AC
 10
46.7113
 20
197.463
 30
0.000000
  70
    32
  0
VERTEX
  8
0
  5
A7AD
 10
46.7098
 20
197.461
 30
0.000000
  70
    32
  0
VERTEX
  8
0
  5
A7AE
 10
46.7083
 20
197.458
 30
0.000000
  70
    32
  0
VERTEX
  8
0
  5
A7AF
 10
46.7068
 20
197.456
 30
0.000000
  70
    32
  0
VERTEX
  8
0
  5
A7B0
 10
46.7054
 20
197.454
 30
0.000000
  70
    32
  0
VERTEX
  8
0
  5
A7B1
 10
46.7040
 20
197.451
 30
0.000000
  70
    32
  0
VERTEX
  8
0
  5
A7B2
 10
46.7026
 20
197.449
 30
0.000000
  70
    32
  0
VERTEX
  8
0
  5
A7B3
 10
46.7013
 20
197.447
 30
0.000000
  70
    32
  0
VERTEX
  8
0
  5
A7B4
 10
46.6999
 20
197.445
 30
0.000000
  70
    32
  0
VERTEX
  8
0
  5
A7B5
 10
46.6986
 20
197.442
 30
0.000000
  70
    32
  0
VERTEX
  8
0
  5
A7B6
 10
46.6974
 20
197.440
 30
0.000000
  70
    32
  0
VERTEX
  8
0
  5
A7B7
 10
46.6961
 20
197.438
 30
0.000000
  70
    32
  0
VERTEX
  8
0
  5
A7B8
 10
46.6949
 20
197.435
 30
0.000000
  70
    32
  0
VERTEX
  8
0
  5
A7B9
 10
46.6937
 20
197.433
 30
0.000000
  70
    32
  0
VERTEX
  8
0
  5
A7BA
 10
46.6926
 20
197.431
 30
0.000000
  70
    32
  0
VERTEX
  8
0
  5
A7BB
 10
46.6915
 20
197.429
 30
0.000000
  70
    32
  0
VERTEX
  8
0
  5
A7BC
 10
46.6904
 20
197.426
 30
0.000000
  70
    32
  0
VERTEX
  8
0
  5
A7BD
 10
46.6893
 20
197.424
 30
0.000000
  70
    32
  0
VERTEX
  8
0
  5
A7BE
 10
46.6882
 20
197.422
 30
0.000000
  70
    32
  0
VERTEX
  8
0
  5
A7BF
 10
46.6872
 20
197.419
 30
0.000000
  70
    32
  0
VERTEX
  8
0
  5
A7C0
 10
46.6862
 20
197.417
 30
0.000000
  70
    32
  0
VERTEX
  8
0
  5
A7C1
 10
46.6853
 20
197.415
 30
0.000000
  70
    32
  0
VERTEX
  8
0
  5
A7C2
 10
46.6843
 20
197.413
 30
0.000000
  70
    32
  0
VERTEX
  8
0
  5
A7C3
 10
46.6834
 20
197.410
 30
0.000000
  70
    32
  0
VERTEX
  8
0
  5
A7C4
 10
46.6825
 20
197.408
 30
0.000000
  70
    32
  0
VERTEX
  8
0
  5
A7C5
 10
46.6817
 20
197.406
 30
0.000000
  70
    32
  0
VERTEX
  8
0
  5
A7C6
 10
46.6809
 20
197.403
 30
0.000000
  70
    32
  0
VERTEX
  8
0
  5
A7C7
 10
46.6801
 20
197.401
 30
0.000000
  70
    32
  0
VERTEX
  8
0
  5
A7C8
 10
46.6793
 20
197.399
 30
0.000000
  70
    32
  0
VERTEX
  8
0
  5
A7C9
 10
46.6786
 20
197.396
 30
0.000000
  70
    32
  0
VERTEX
  8
0
  5
A7CA
 10
46.6779
 20
197.394
 30
0.000000
  70
    32
  0
VERTEX
  8
0
  5
A7CB
 10
46.6772
 20
197.392
 30
0.000000
  70
    32
  0
VERTEX
  8
0
  5
A7CC
 10
46.6765
 20
197.390
 30
0.000000
  70
    32
  0
VERTEX
  8
0
  5
A7CD
 10
46.6759
 20
197.387
 30
0.000000
  70
    32
  0
VERTEX
  8
0
  5
A7CE
 10
46.6753
 20
197.385
 30
0.000000
  70
    32
  0
VERTEX
  8
0
  5
A7CF
 10
46.6747
 20
197.383
 30
0.000000
  70
    32
  0
VERTEX
  8
0
  5
A7D0
 10
46.6742
 20
197.380
 30
0.000000
  70
    32
  0
VERTEX
  8
0
  5
A7D1
 10
46.6737
 20
197.378
 30
0.000000
  70
    32
  0
VERTEX
  8
0
  5
A7D2
 10
46.6732
 20
197.376
 30
0.000000
  70
    32
  0
VERTEX
  8
0
  5
A7D3
 10
46.6727
 20
197.373
 30
0.000000
  70
    32
  0
VERTEX
  8
0
  5
A7D4
 10
46.6723
 20
197.371
 30
0.000000
  70
    32
  0
VERTEX
  8
0
  5
A7D5
 10
46.6719
 20
197.369
 30
0.000000
  70
    32
  0
VERTEX
  8
0
  5
A7D6
 10
46.6715
 20
197.367
 30
0.000000
  70
    32
  0
VERTEX
  8
0
  5
A7D7
 10
46.6711
 20
197.364
 30
0.000000
  70
    32
  0
VERTEX
  8
0
  5
A7D8
 10
46.6708
 20
197.362
 30
0.000000
  70
    32
  0
VERTEX
  8
0
  5
A7D9
 10
46.6705
 20
197.360
 30
0.000000
  70
    32
  0
VERTEX
  8
0
  5
A7DA
 10
46.6703
 20
197.357
 30
0.000000
  70
    32
  0
VERTEX
  8
0
  5
A7DB
 10
46.6700
 20
197.355
 30
0.000000
  70
    32
  0
VERTEX
  8
0
  5
A7DC
 10
46.6698
 20
197.353
 30
0.000000
  70
    32
  0
VERTEX
  8
0
  5
A7DD
 10
46.6696
 20
197.350
 30
0.000000
  70
    32
  0
VERTEX
  8
0
  5
A7DE
 10
46.6695
 20
197.348
 30
0.000000
  70
    32
  0
VERTEX
  8
0
  5
A7DF
 10
46.6694
 20
197.346
 30
0.000000
  70
    32
  0
VERTEX
  8
0
  5
A7E0
 10
46.6693
 20
197.343
 30
0.000000
  70
    32
  0
VERTEX
  8
0
  5
A7E1
 10
46.6692
 20
197.341
 30
0.000000
  70
    32
  0
VERTEX
  8
0
  5
A7E2
 10
46.6691
 20
197.339
 30
0.000000
  70
    32
  0
VERTEX
  8
0
  5
A7E3
 10
46.6691
 20
197.336
 30
0.000000
  70
    32
  0
SEQEND
  8
0
  5
A7E4
  0
LINE
  5
9A39
  8
0
 10
46.669126361089582
 20
175.14390740888791
 30
0.0
 11
46.669126361089347
 21
197.3364736359581
 31
0.0
  0
LINE
  5
9A3B
  8
0
 10
61.203490626041742
 20
197.9188228269436
 30
0.0
 11
57.937773979149881
 21
199.86123029622991
 31
0.0
  0
POLYLINE
  5
9A3C
  8
0
 10
61.66912636108929
 20
197.33647363595824
 30
0.0
 66
     1
 70
     8
  0
VERTEX
  8
0
  5
A7E5
 10
61.6691
 20
197.336
 30
0.000000
  70
    32
  0
VERTEX
  8
0
  5
A7E6
 10
61.6691
 20
197.341
 30
0.000000
  70
    32
  0
VERTEX
  8
0
  5
A7E7
 10
61.6690
 20
197.346
 30
0.000000
  70
    32
  0
VERTEX
  8
0
  5
A7E8
 10
61.6689
 20
197.351
 30
0.000000
  70
    32
  0
VERTEX
  8
0
  5
A7E9
 10
61.6687
 20
197.355
 30
0.000000
  70
    32
  0
VERTEX
  8
0
  5
A7EA
 10
61.6684
 20
197.360
 30
0.000000
  70
    32
  0
VERTEX
  8
0
  5
A7EB
 10
61.6681
 20
197.365
 30
0.000000
  70
    32
  0
VERTEX
  8
0
  5
A7EC
 10
61.6677
 20
197.369
 30
0.000000
  70
    32
  0
VERTEX
  8
0
  5
A7ED
 10
61.6673
 20
197.374
 30
0.000000
  70
    32
  0
VERTEX
  8
0
  5
A7EE
 10
61.6668
 20
197.379
 30
0.000000
  70
    32
  0
VERTEX
  8
0
  5
A7EF
 10
61.6662
 20
197.383
 30
0.000000
  70
    32
  0
VERTEX
  8
0
  5
A7F0
 10
61.6656
 20
197.388
 30
0.000000
  70
    32
  0
VERTEX
  8
0
  5
A7F1
 10
61.6650
 20
197.393
 30
0.000000
  70
    32
  0
VERTEX
  8
0
  5
A7F2
 10
61.6642
 20
197.398
 30
0.000000
  70
    32
  0
VERTEX
  8
0
  5
A7F3
 10
61.6635
 20
197.402
 30
0.000000
  70
    32
  0
VERTEX
  8
0
  5
A7F4
 10
61.6626
 20
197.407
 30
0.000000
  70
    32
  0
VERTEX
  8
0
  5
A7F5
 10
61.6617
 20
197.412
 30
0.000000
  70
    32
  0
VERTEX
  8
0
  5
A7F6
 10
61.6608
 20
197.416
 30
0.000000
  70
    32
  0
VERTEX
  8
0
  5
A7F7
 10
61.6598
 20
197.421
 30
0.000000
  70
    32
  0
VERTEX
  8
0
  5
A7F8
 10
61.6587
 20
197.426
 30
0.000000
  70
    32
  0
VERTEX
  8
0
  5
A7F9
 10
61.6576
 20
197.430
 30
0.000000
  70
    32
  0
VERTEX
  8
0
  5
A7FA
 10
61.6564
 20
197.435
 30
0.000000
  70
    32
  0
VERTEX
  8
0
  5
A7FB
 10
61.6552
 20
197.440
 30
0.000000
  70
    32
  0
VERTEX
  8
0
  5
A7FC
 10
61.6539
 20
197.444
 30
0.000000
  70
    32
  0
VERTEX
  8
0
  5
A7FD
 10
61.6525
 20
197.449
 30
0.000000
  70
    32
  0
VERTEX
  8
0
  5
A7FE
 10
61.6511
 20
197.454
 30
0.000000
  70
    32
  0
VERTEX
  8
0
  5
A7FF
 10
61.6496
 20
197.458
 30
0.000000
  70
    32
  0
VERTEX
  8
0
  5
A800
 10
61.6481
 20
197.463
 30
0.000000
  70
    32
  0
VERTEX
  8
0
  5
A801
 10
61.6465
 20
197.468
 30
0.000000
  70
    32
  0
VERTEX
  8
0
  5
A802
 10
61.6449
 20
197.472
 30
0.000000
  70
    32
  0
VERTEX
  8
0
  5
A803
 10
61.6432
 20
197.477
 30
0.000000
  70
    32
  0
VERTEX
  8
0
  5
A804
 10
61.6414
 20
197.482
 30
0.000000
  70
    32
  0
VERTEX
  8
0
  5
A805
 10
61.6396
 20
197.486
 30
0.000000
  70
    32
  0
VERTEX
  8
0
  5
A806
 10
61.6377
 20
197.491
 30
0.000000
  70
    32
  0
VERTEX
  8
0
  5
A807
 10
61.6358
 20
197.496
 30
0.000000
  70
    32
  0
VERTEX
  8
0
  5
A808
 10
61.6338
 20
197.500
 30
0.000000
  70
    32
  0
VERTEX
  8
0
  5
A809
 10
61.6318
 20
197.505
 30
0.000000
  70
    32
  0
VERTEX
  8
0
  5
A80A
 10
61.6297
 20
197.510
 30
0.000000
  70
    32
  0
VERTEX
  8
0
  5
A80B
 10
61.6275
 20
197.514
 30
0.000000
  70
    32
  0
VERTEX
  8
0
  5
A80C
 10
61.6253
 20
197.519
 30
0.000000
  70
    32
  0
VERTEX
  8
0
  5
A80D
 10
61.6230
 20
197.524
 30
0.000000
  70
    32
  0
VERTEX
  8
0
  5
A80E
 10
61.6207
 20
197.528
 30
0.000000
  70
    32
  0
VERTEX
  8
0
  5
A80F
 10
61.6183
 20
197.533
 30
0.000000
  70
    32
  0
VERTEX
  8
0
  5
A810
 10
61.6158
 20
197.538
 30
0.000000
  70
    32
  0
VERTEX
  8
0
  5
A811
 10
61.6133
 20
197.542
 30
0.000000
  70
    32
  0
VERTEX
  8
0
  5
A812
 10
61.6108
 20
197.547
 30
0.000000
  70
    32
  0
VERTEX
  8
0
  5
A813
 10
61.6082
 20
197.552
 30
0.000000
  70
    32
  0
VERTEX
  8
0
  5
A814
 10
61.6055
 20
197.556
 30
0.000000
  70
    32
  0
VERTEX
  8
0
  5
A815
 10
61.6028
 20
197.561
 30
0.000000
  70
    32
  0
VERTEX
  8
0
  5
A816
 10
61.6000
 20
197.566
 30
0.000000
  70
    32
  0
VERTEX
  8
0
  5
A817
 10
61.5971
 20
197.570
 30
0.000000
  70
    32
  0
VERTEX
  8
0
  5
A818
 10
61.5942
 20
197.575
 30
0.000000
  70
    32
  0
VERTEX
  8
0
  5
A819
 10
61.5913
 20
197.579
 30
0.000000
  70
    32
  0
VERTEX
  8
0
  5
A81A
 10
61.5882
 20
197.584
 30
0.000000
  70
    32
  0
VERTEX
  8
0
  5
A81B
 10
61.5852
 20
197.589
 30
0.000000
  70
    32
  0
VERTEX
  8
0
  5
A81C
 10
61.5820
 20
197.593
 30
0.000000
  70
    32
  0
VERTEX
  8
0
  5
A81D
 10
61.5789
 20
197.598
 30
0.000000
  70
    32
  0
VERTEX
  8
0
  5
A81E
 10
61.5756
 20
197.602
 30
0.000000
  70
    32
  0
VERTEX
  8
0
  5
A81F
 10
61.5723
 20
197.607
 30
0.000000
  70
    32
  0
VERTEX
  8
0
  5
A820
 10
61.5690
 20
197.612
 30
0.000000
  70
    32
  0
VERTEX
  8
0
  5
A821
 10
61.5655
 20
197.616
 30
0.000000
  70
    32
  0
VERTEX
  8
0
  5
A822
 10
61.5621
 20
197.621
 30
0.000000
  70
    32
  0
VERTEX
  8
0
  5
A823
 10
61.5586
 20
197.625
 30
0.000000
  70
    32
  0
VERTEX
  8
0
  5
A824
 10
61.5550
 20
197.630
 30
0.000000
  70
    32
  0
VERTEX
  8
0
  5
A825
 10
61.5513
 20
197.635
 30
0.000000
  70
    32
  0
VERTEX
  8
0
  5
A826
 10
61.5476
 20
197.639
 30
0.000000
  70
    32
  0
VERTEX
  8
0
  5
A827
 10
61.5439
 20
197.644
 30
0.000000
  70
    32
  0
VERTEX
  8
0
  5
A828
 10
61.5401
 20
197.648
 30
0.000000
  70
    32
  0
VERTEX
  8
0
  5
A829
 10
61.5362
 20
197.653
 30
0.000000
  70
    32
  0
VERTEX
  8
0
  5
A82A
 10
61.5323
 20
197.658
 30
0.000000
  70
    32
  0
VERTEX
  8
0
  5
A82B
 10
61.5283
 20
197.662
 30
0.000000
  70
    32
  0
VERTEX
  8
0
  5
A82C
 10
61.5243
 20
197.667
 30
0.000000
  70
    32
  0
VERTEX
  8
0
  5
A82D
 10
61.5202
 20
197.671
 30
0.000000
  70
    32
  0
VERTEX
  8
0
  5
A82E
 10
61.5161
 20
197.676
 30
0.000000
  70
    32
  0
VERTEX
  8
0
  5
A82F
 10
61.5119
 20
197.680
 30
0.000000
  70
    32
  0
VERTEX
  8
0
  5
A830
 10
61.5076
 20
197.685
 30
0.000000
  70
    32
  0
VERTEX
  8
0
  5
A831
 10
61.5033
 20
197.689
 30
0.000000
  70
    32
  0
VERTEX
  8
0
  5
A832
 10
61.4989
 20
197.694
 30
0.000000
  70
    32
  0
VERTEX
  8
0
  5
A833
 10
61.4945
 20
197.699
 30
0.000000
  70
    32
  0
VERTEX
  8
0
  5
A834
 10
61.4900
 20
197.703
 30
0.000000
  70
    32
  0
VERTEX
  8
0
  5
A835
 10
61.4855
 20
197.708
 30
0.000000
  70
    32
  0
VERTEX
  8
0
  5
A836
 10
61.4809
 20
197.712
 30
0.000000
  70
    32
  0
VERTEX
  8
0
  5
A837
 10
61.4762
 20
197.717
 30
0.000000
  70
    32
  0
VERTEX
  8
0
  5
A838
 10
61.4715
 20
197.721
 30
0.000000
  70
    32
  0
VERTEX
  8
0
  5
A839
 10
61.4668
 20
197.726
 30
0.000000
  70
    32
  0
VERTEX
  8
0
  5
A83A
 10
61.4620
 20
197.730
 30
0.000000
  70
    32
  0
VERTEX
  8
0
  5
A83B
 10
61.4571
 20
197.735
 30
0.000000
  70
    32
  0
VERTEX
  8
0
  5
A83C
 10
61.4522
 20
197.739
 30
0.000000
  70
    32
  0
VERTEX
  8
0
  5
A83D
 10
61.4472
 20
197.744
 30
0.000000
  70
    32
  0
VERTEX
  8
0
  5
A83E
 10
61.4422
 20
197.748
 30
0.000000
  70
    32
  0
VERTEX
  8
0
  5
A83F
 10
61.4371
 20
197.753
 30
0.000000
  70
    32
  0
VERTEX
  8
0
  5
A840
 10
61.4319
 20
197.757
 30
0.000000
  70
    32
  0
VERTEX
  8
0
  5
A841
 10
61.4267
 20
197.762
 30
0.000000
  70
    32
  0
VERTEX
  8
0
  5
A842
 10
61.4215
 20
197.766
 30
0.000000
  70
    32
  0
VERTEX
  8
0
  5
A843
 10
61.4162
 20
197.770
 30
0.000000
  70
    32
  0
VERTEX
  8
0
  5
A844
 10
61.4108
 20
197.775
 30
0.000000
  70
    32
  0
VERTEX
  8
0
  5
A845
 10
61.4054
 20
197.779
 30
0.000000
  70
    32
  0
VERTEX
  8
0
  5
A846
 10
61.3999
 20
197.784
 30
0.000000
  70
    32
  0
VERTEX
  8
0
  5
A847
 10
61.3944
 20
197.788
 30
0.000000
  70
    32
  0
VERTEX
  8
0
  5
A848
 10
61.3888
 20
197.793
 30
0.000000
  70
    32
  0
VERTEX
  8
0
  5
A849
 10
61.3832
 20
197.797
 30
0.000000
  70
    32
  0
VERTEX
  8
0
  5
A84A
 10
61.3775
 20
197.802
 30
0.000000
  70
    32
  0
VERTEX
  8
0
  5
A84B
 10
61.3717
 20
197.806
 30
0.000000
  70
    32
  0
VERTEX
  8
0
  5
A84C
 10
61.3659
 20
197.810
 30
0.000000
  70
    32
  0
VERTEX
  8
0
  5
A84D
 10
61.3601
 20
197.815
 30
0.000000
  70
    32
  0
VERTEX
  8
0
  5
A84E
 10
61.3542
 20
197.819
 30
0.000000
  70
    32
  0
VERTEX
  8
0
  5
A84F
 10
61.3482
 20
197.824
 30
0.000000
  70
    32
  0
VERTEX
  8
0
  5
A850
 10
61.3422
 20
197.828
 30
0.000000
  70
    32
  0
VERTEX
  8
0
  5
A851
 10
61.3361
 20
197.832
 30
0.000000
  70
    32
  0
VERTEX
  8
0
  5
A852
 10
61.3300
 20
197.837
 30
0.000000
  70
    32
  0
VERTEX
  8
0
  5
A853
 10
61.3238
 20
197.841
 30
0.000000
  70
    32
  0
VERTEX
  8
0
  5
A854
 10
61.3176
 20
197.845
 30
0.000000
  70
    32
  0
VERTEX
  8
0
  5
A855
 10
61.3113
 20
197.850
 30
0.000000
  70
    32
  0
VERTEX
  8
0
  5
A856
 10
61.3050
 20
197.854
 30
0.000000
  70
    32
  0
VERTEX
  8
0
  5
A857
 10
61.2986
 20
197.859
 30
0.000000
  70
    32
  0
VERTEX
  8
0
  5
A858
 10
61.2921
 20
197.863
 30
0.000000
  70
    32
  0
VERTEX
  8
0
  5
A859
 10
61.2856
 20
197.867
 30
0.000000
  70
    32
  0
VERTEX
  8
0
  5
A85A
 10
61.2791
 20
197.872
 30
0.000000
  70
    32
  0
VERTEX
  8
0
  5
A85B
 10
61.2725
 20
197.876
 30
0.000000
  70
    32
  0
VERTEX
  8
0
  5
A85C
 10
61.2658
 20
197.880
 30
0.000000
  70
    32
  0
VERTEX
  8
0
  5
A85D
 10
61.2591
 20
197.885
 30
0.000000
  70
    32
  0
VERTEX
  8
0
  5
A85E
 10
61.2523
 20
197.889
 30
0.000000
  70
    32
  0
VERTEX
  8
0
  5
A85F
 10
61.2455
 20
197.893
 30
0.000000
  70
    32
  0
VERTEX
  8
0
  5
A860
 10
61.2386
 20
197.897
 30
0.000000
  70
    32
  0
VERTEX
  8
0
  5
A861
 10
61.2317
 20
197.902
 30
0.000000
  70
    32
  0
VERTEX
  8
0
  5
A862
 10
61.2247
 20
197.906
 30
0.000000
  70
    32
  0
VERTEX
  8
0
  5
A863
 10
61.2177
 20
197.910
 30
0.000000
  70
    32
  0
VERTEX
  8
0
  5
A864
 10
61.2106
 20
197.915
 30
0.000000
  70
    32
  0
VERTEX
  8
0
  5
A865
 10
61.2035
 20
197.919
 30
0.000000
  70
    32
  0
SEQEND
  8
0
  5
A866
  0
POLYLINE
  5
9A3D
  8
0
 10
59.169126361089333
 20
197.33647363595821
 30
0.0
 66
     1
 70
     8
  0
VERTEX
  8
0
  5
A867
 10
59.1691
 20
197.336
 30
0.000000
  70
    32
  0
VERTEX
  8
0
  5
A868
 10
59.1691
 20
197.339
 30
0.000000
  70
    32
  0
VERTEX
  8
0
  5
A869
 10
59.1691
 20
197.341
 30
0.000000
  70
    32
  0
VERTEX
  8
0
  5
A86A
 10
59.1690
 20
197.343
 30
0.000000
  70
    32
  0
VERTEX
  8
0
  5
A86B
 10
59.1689
 20
197.346
 30
0.000000
  70
    32
  0
VERTEX
  8
0
  5
A86C
 10
59.1688
 20
197.348
 30
0.000000
  70
    32
  0
VERTEX
  8
0
  5
A86D
 10
59.1686
 20
197.350
 30
0.000000
  70
    32
  0
VERTEX
  8
0
  5
A86E
 10
59.1684
 20
197.353
 30
0.000000
  70
    32
  0
VERTEX
  8
0
  5
A86F
 10
59.1682
 20
197.355
 30
0.000000
  70
    32
  0
VERTEX
  8
0
  5
A870
 10
59.1680
 20
197.357
 30
0.000000
  70
    32
  0
VERTEX
  8
0
  5
A871
 10
59.1677
 20
197.360
 30
0.000000
  70
    32
  0
VERTEX
  8
0
  5
A872
 10
59.1674
 20
197.362
 30
0.000000
  70
    32
  0
VERTEX
  8
0
  5
A873
 10
59.1671
 20
197.364
 30
0.000000
  70
    32
  0
VERTEX
  8
0
  5
A874
 10
59.1668
 20
197.367
 30
0.000000
  70
    32
  0
VERTEX
  8
0
  5
A875
 10
59.1664
 20
197.369
 30
0.000000
  70
    32
  0
VERTEX
  8
0
  5
A876
 10
59.1660
 20
197.371
 30
0.000000
  70
    32
  0
VERTEX
  8
0
  5
A877
 10
59.1655
 20
197.373
 30
0.000000
  70
    32
  0
VERTEX
  8
0
  5
A878
 10
59.1651
 20
197.376
 30
0.000000
  70
    32
  0
VERTEX
  8
0
  5
A879
 10
59.1646
 20
197.378
 30
0.000000
  70
    32
  0
VERTEX
  8
0
  5
A87A
 10
59.1641
 20
197.380
 30
0.000000
  70
    32
  0
VERTEX
  8
0
  5
A87B
 10
59.1635
 20
197.383
 30
0.000000
  70
    32
  0
VERTEX
  8
0
  5
A87C
 10
59.1630
 20
197.385
 30
0.000000
  70
    32
  0
VERTEX
  8
0
  5
A87D
 10
59.1624
 20
197.387
 30
0.000000
  70
    32
  0
VERTEX
  8
0
  5
A87E
 10
59.1617
 20
197.390
 30
0.000000
  70
    32
  0
VERTEX
  8
0
  5
A87F
 10
59.1611
 20
197.392
 30
0.000000
  70
    32
  0
VERTEX
  8
0
  5
A880
 10
59.1604
 20
197.394
 30
0.000000
  70
    32
  0
VERTEX
  8
0
  5
A881
 10
59.1597
 20
197.396
 30
0.000000
  70
    32
  0
VERTEX
  8
0
  5
A882
 10
59.1589
 20
197.399
 30
0.000000
  70
    32
  0
VERTEX
  8
0
  5
A883
 10
59.1582
 20
197.401
 30
0.000000
  70
    32
  0
VERTEX
  8
0
  5
A884
 10
59.1574
 20
197.403
 30
0.000000
  70
    32
  0
VERTEX
  8
0
  5
A885
 10
59.1566
 20
197.406
 30
0.000000
  70
    32
  0
VERTEX
  8
0
  5
A886
 10
59.1557
 20
197.408
 30
0.000000
  70
    32
  0
VERTEX
  8
0
  5
A887
 10
59.1548
 20
197.410
 30
0.000000
  70
    32
  0
VERTEX
  8
0
  5
A888
 10
59.1539
 20
197.413
 30
0.000000
  70
    32
  0
VERTEX
  8
0
  5
A889
 10
59.1530
 20
197.415
 30
0.000000
  70
    32
  0
VERTEX
  8
0
  5
A88A
 10
59.1520
 20
197.417
 30
0.000000
  70
    32
  0
VERTEX
  8
0
  5
A88B
 10
59.1510
 20
197.419
 30
0.000000
  70
    32
  0
VERTEX
  8
0
  5
A88C
 10
59.1500
 20
197.422
 30
0.000000
  70
    32
  0
VERTEX
  8
0
  5
A88D
 10
59.1490
 20
197.424
 30
0.000000
  70
    32
  0
VERTEX
  8
0
  5
A88E
 10
59.1479
 20
197.426
 30
0.000000
  70
    32
  0
VERTEX
  8
0
  5
A88F
 10
59.1468
 20
197.429
 30
0.000000
  70
    32
  0
VERTEX
  8
0
  5
A890
 10
59.1457
 20
197.431
 30
0.000000
  70
    32
  0
VERTEX
  8
0
  5
A891
 10
59.1445
 20
197.433
 30
0.000000
  70
    32
  0
VERTEX
  8
0
  5
A892
 10
59.1433
 20
197.435
 30
0.000000
  70
    32
  0
VERTEX
  8
0
  5
A893
 10
59.1421
 20
197.438
 30
0.000000
  70
    32
  0
VERTEX
  8
0
  5
A894
 10
59.1409
 20
197.440
 30
0.000000
  70
    32
  0
VERTEX
  8
0
  5
A895
 10
59.1396
 20
197.442
 30
0.000000
  70
    32
  0
VERTEX
  8
0
  5
A896
 10
59.1383
 20
197.445
 30
0.000000
  70
    32
  0
VERTEX
  8
0
  5
A897
 10
59.1370
 20
197.447
 30
0.000000
  70
    32
  0
VERTEX
  8
0
  5
A898
 10
59.1356
 20
197.449
 30
0.000000
  70
    32
  0
VERTEX
  8
0
  5
A899
 10
59.1343
 20
197.451
 30
0.000000
  70
    32
  0
VERTEX
  8
0
  5
A89A
 10
59.1329
 20
197.454
 30
0.000000
  70
    32
  0
VERTEX
  8
0
  5
A89B
 10
59.1314
 20
197.456
 30
0.000000
  70
    32
  0
VERTEX
  8
0
  5
A89C
 10
59.1300
 20
197.458
 30
0.000000
  70
    32
  0
VERTEX
  8
0
  5
A89D
 10
59.1285
 20
197.461
 30
0.000000
  70
    32
  0
VERTEX
  8
0
  5
A89E
 10
59.1270
 20
197.463
 30
0.000000
  70
    32
  0
VERTEX
  8
0
  5
A89F
 10
59.1254
 20
197.465
 30
0.000000
  70
    32
  0
VERTEX
  8
0
  5
A8A0
 10
59.1238
 20
197.467
 30
0.000000
  70
    32
  0
VERTEX
  8
0
  5
A8A1
 10
59.1223
 20
197.470
 30
0.000000
  70
    32
  0
VERTEX
  8
0
  5
A8A2
 10
59.1206
 20
197.472
 30
0.000000
  70
    32
  0
VERTEX
  8
0
  5
A8A3
 10
59.1190
 20
197.474
 30
0.000000
  70
    32
  0
VERTEX
  8
0
  5
A8A4
 10
59.1173
 20
197.476
 30
0.000000
  70
    32
  0
VERTEX
  8
0
  5
A8A5
 10
59.1156
 20
197.479
 30
0.000000
  70
    32
  0
VERTEX
  8
0
  5
A8A6
 10
59.1139
 20
197.481
 30
0.000000
  70
    32
  0
VERTEX
  8
0
  5
A8A7
 10
59.1121
 20
197.483
 30
0.000000
  70
    32
  0
VERTEX
  8
0
  5
A8A8
 10
59.1103
 20
197.485
 30
0.000000
  70
    32
  0
VERTEX
  8
0
  5
A8A9
 10
59.1085
 20
197.488
 30
0.000000
  70
    32
  0
VERTEX
  8
0
  5
A8AA
 10
59.1066
 20
197.490
 30
0.000000
  70
    32
  0
VERTEX
  8
0
  5
A8AB
 10
59.1048
 20
197.492
 30
0.000000
  70
    32
  0
VERTEX
  8
0
  5
A8AC
 10
59.1029
 20
197.494
 30
0.000000
  70
    32
  0
VERTEX
  8
0
  5
A8AD
 10
59.1009
 20
197.497
 30
0.000000
  70
    32
  0
VERTEX
  8
0
  5
A8AE
 10
59.0990
 20
197.499
 30
0.000000
  70
    32
  0
VERTEX
  8
0
  5
A8AF
 10
59.0970
 20
197.501
 30
0.000000
  70
    32
  0
VERTEX
  8
0
  5
A8B0
 10
59.0950
 20
197.503
 30
0.000000
  70
    32
  0
VERTEX
  8
0
  5
A8B1
 10
59.0930
 20
197.506
 30
0.000000
  70
    32
  0
VERTEX
  8
0
  5
A8B2
 10
59.0909
 20
197.508
 30
0.000000
  70
    32
  0
VERTEX
  8
0
  5
A8B3
 10
59.0888
 20
197.510
 30
0.000000
  70
    32
  0
VERTEX
  8
0
  5
A8B4
 10
59.0867
 20
197.512
 30
0.000000
  70
    32
  0
VERTEX
  8
0
  5
A8B5
 10
59.0846
 20
197.515
 30
0.000000
  70
    32
  0
VERTEX
  8
0
  5
A8B6
 10
59.0824
 20
197.517
 30
0.000000
  70
    32
  0
VERTEX
  8
0
  5
A8B7
 10
59.0802
 20
197.519
 30
0.000000
  70
    32
  0
VERTEX
  8
0
  5
A8B8
 10
59.0780
 20
197.521
 30
0.000000
  70
    32
  0
VERTEX
  8
0
  5
A8B9
 10
59.0757
 20
197.524
 30
0.000000
  70
    32
  0
VERTEX
  8
0
  5
A8BA
 10
59.0734
 20
197.526
 30
0.000000
  70
    32
  0
VERTEX
  8
0
  5
A8BB
 10
59.0711
 20
197.528
 30
0.000000
  70
    32
  0
VERTEX
  8
0
  5
A8BC
 10
59.0688
 20
197.530
 30
0.000000
  70
    32
  0
VERTEX
  8
0
  5
A8BD
 10
59.0665
 20
197.532
 30
0.000000
  70
    32
  0
VERTEX
  8
0
  5
A8BE
 10
59.0641
 20
197.535
 30
0.000000
  70
    32
  0
VERTEX
  8
0
  5
A8BF
 10
59.0617
 20
197.537
 30
0.000000
  70
    32
  0
VERTEX
  8
0
  5
A8C0
 10
59.0592
 20
197.539
 30
0.000000
  70
    32
  0
VERTEX
  8
0
  5
A8C1
 10
59.0568
 20
197.541
 30
0.000000
  70
    32
  0
VERTEX
  8
0
  5
A8C2
 10
59.0543
 20
197.544
 30
0.000000
  70
    32
  0
VERTEX
  8
0
  5
A8C3
 10
59.0517
 20
197.546
 30
0.000000
  70
    32
  0
VERTEX
  8
0
  5
A8C4
 10
59.0492
 20
197.548
 30
0.000000
  70
    32
  0
VERTEX
  8
0
  5
A8C5
 10
59.0466
 20
197.550
 30
0.000000
  70
    32
  0
VERTEX
  8
0
  5
A8C6
 10
59.0440
 20
197.552
 30
0.000000
  70
    32
  0
VERTEX
  8
0
  5
A8C7
 10
59.0414
 20
197.555
 30
0.000000
  70
    32
  0
VERTEX
  8
0
  5
A8C8
 10
59.0388
 20
197.557
 30
0.000000
  70
    32
  0
VERTEX
  8
0
  5
A8C9
 10
59.0361
 20
197.559
 30
0.000000
  70
    32
  0
VERTEX
  8
0
  5
A8CA
 10
59.0334
 20
197.561
 30
0.000000
  70
    32
  0
VERTEX
  8
0
  5
A8CB
 10
59.0306
 20
197.563
 30
0.000000
  70
    32
  0
VERTEX
  8
0
  5
A8CC
 10
59.0279
 20
197.565
 30
0.000000
  70
    32
  0
VERTEX
  8
0
  5
A8CD
 10
59.0251
 20
197.568
 30
0.000000
  70
    32
  0
VERTEX
  8
0
  5
A8CE
 10
59.0223
 20
197.570
 30
0.000000
  70
    32
  0
VERTEX
  8
0
  5
A8CF
 10
59.0195
 20
197.572
 30
0.000000
  70
    32
  0
VERTEX
  8
0
  5
A8D0
 10
59.0166
 20
197.574
 30
0.000000
  70
    32
  0
VERTEX
  8
0
  5
A8D1
 10
59.0137
 20
197.576
 30
0.000000
  70
    32
  0
VERTEX
  8
0
  5
A8D2
 10
59.0108
 20
197.578
 30
0.000000
  70
    32
  0
VERTEX
  8
0
  5
A8D3
 10
59.0078
 20
197.581
 30
0.000000
  70
    32
  0
VERTEX
  8
0
  5
A8D4
 10
59.0049
 20
197.583
 30
0.000000
  70
    32
  0
VERTEX
  8
0
  5
A8D5
 10
59.0019
 20
197.585
 30
0.000000
  70
    32
  0
VERTEX
  8
0
  5
A8D6
 10
58.9989
 20
197.587
 30
0.000000
  70
    32
  0
VERTEX
  8
0
  5
A8D7
 10
58.9958
 20
197.589
 30
0.000000
  70
    32
  0
VERTEX
  8
0
  5
A8D8
 10
58.9928
 20
197.591
 30
0.000000
  70
    32
  0
VERTEX
  8
0
  5
A8D9
 10
58.9897
 20
197.594
 30
0.000000
  70
    32
  0
VERTEX
  8
0
  5
A8DA
 10
58.9865
 20
197.596
 30
0.000000
  70
    32
  0
VERTEX
  8
0
  5
A8DB
 10
58.9834
 20
197.598
 30
0.000000
  70
    32
  0
VERTEX
  8
0
  5
A8DC
 10
58.9802
 20
197.600
 30
0.000000
  70
    32
  0
VERTEX
  8
0
  5
A8DD
 10
58.9770
 20
197.602
 30
0.000000
  70
    32
  0
VERTEX
  8
0
  5
A8DE
 10
58.9738
 20
197.604
 30
0.000000
  70
    32
  0
VERTEX
  8
0
  5
A8DF
 10
58.9705
 20
197.606
 30
0.000000
  70
    32
  0
VERTEX
  8
0
  5
A8E0
 10
58.9672
 20
197.608
 30
0.000000
  70
    32
  0
VERTEX
  8
0
  5
A8E1
 10
58.9639
 20
197.611
 30
0.000000
  70
    32
  0
VERTEX
  8
0
  5
A8E2
 10
58.9606
 20
197.613
 30
0.000000
  70
    32
  0
VERTEX
  8
0
  5
A8E3
 10
58.9573
 20
197.615
 30
0.000000
  70
    32
  0
VERTEX
  8
0
  5
A8E4
 10
58.9539
 20
197.617
 30
0.000000
  70
    32
  0
VERTEX
  8
0
  5
A8E5
 10
58.9505
 20
197.619
 30
0.000000
  70
    32
  0
VERTEX
  8
0
  5
A8E6
 10
58.9470
 20
197.621
 30
0.000000
  70
    32
  0
VERTEX
  8
0
  5
A8E7
 10
58.9436
 20
197.623
 30
0.000000
  70
    32
  0
SEQEND
  8
0
  5
A8E8
  0
LINE
  5
9A3E
  8
0
 10
55.24923659031839
 20
199.86123029622991
 30
0.0
 11
58.943580620363093
 21
197.6232832060719
 31
0.0
  0
LINE
  5
9A40
  8
0
 10
59.169126361089361
 20
197.3364736359581
 30
0.0
 11
59.169126361089582
 21
175.14390740888791
 31
0.0
  0
LINE
  5
9A41
  8
0
 10
46.819126361089559
 20
178.1539074089599
 30
0.0
 11
46.669126361089347
 21
178.15390740896009
 31
0.0
  0
LINE
  5
9A42
  8
0
 10
59.169126361089361
 20
178.15390740896009
 30
0.0
 11
59.019126361089597
 21
178.15390740896009
 31
0.0
  0
LINE
  5
9A43
  8
0
 10
50.589016131860092
 20
199.86123029622979
 30
0.0
 11
52.318034879636741
 21
202.04917881324869
 31
0.0
  0
LINE
  5
9A44
  8
0
 10
53.52021784254174
 20
202.04917881324869
 30
0.0
 11
55.24923659031839
 21
199.86123029622991
 31
0.0
  0
POLYLINE
  5
9A45
  8
0
 10
50.13630849356548
 20
202.63918709627237
 30
0.0
 66
     1
 70
     8
  0
VERTEX
  8
0
  5
A8E9
 10
50.1363
 20
202.639
 30
0.000000
  70
    32
  0
VERTEX
  8
0
  5
A8EA
 10
50.1399
 20
202.644
 30
0.000000
  70
    32
  0
VERTEX
  8
0
  5
A8EB
 10
50.1434
 20
202.648
 30
0.000000
  70
    32
  0
VERTEX
  8
0
  5
A8EC
 10
50.1469
 20
202.653
 30
0.000000
  70
    32
  0
VERTEX
  8
0
  5
A8ED
 10
50.1504
 20
202.657
 30
0.000000
  70
    32
  0
VERTEX
  8
0
  5
A8EE
 10
50.1539
 20
202.662
 30
0.000000
  70
    32
  0
VERTEX
  8
0
  5
A8EF
 10
50.1573
 20
202.666
 30
0.000000
  70
    32
  0
VERTEX
  8
0
  5
A8F0
 10
50.1607
 20
202.670
 30
0.000000
  70
    32
  0
VERTEX
  8
0
  5
A8F1
 10
50.1641
 20
202.675
 30
0.000000
  70
    32
  0
VERTEX
  8
0
  5
A8F2
 10
50.1675
 20
202.680
 30
0.000000
  70
    32
  0
VERTEX
  8
0
  5
A8F3
 10
50.1708
 20
202.684
 30
0.000000
  70
    32
  0
VERTEX
  8
0
  5
A8F4
 10
50.1741
 20
202.689
 30
0.000000
  70
    32
  0
VERTEX
  8
0
  5
A8F5
 10
50.1774
 20
202.693
 30
0.000000
  70
    32
  0
VERTEX
  8
0
  5
A8F6
 10
50.1806
 20
202.698
 30
0.000000
  70
    32
  0
VERTEX
  8
0
  5
A8F7
 10
50.1838
 20
202.702
 30
0.000000
  70
    32
  0
VERTEX
  8
0
  5
A8F8
 10
50.1870
 20
202.707
 30
0.000000
  70
    32
  0
VERTEX
  8
0
  5
A8F9
 10
50.1902
 20
202.711
 30
0.000000
  70
    32
  0
VERTEX
  8
0
  5
A8FA
 10
50.1934
 20
202.716
 30
0.000000
  70
    32
  0
VERTEX
  8
0
  5
A8FB
 10
50.1965
 20
202.720
 30
0.000000
  70
    32
  0
VERTEX
  8
0
  5
A8FC
 10
50.1996
 20
202.725
 30
0.000000
  70
    32
  0
VERTEX
  8
0
  5
A8FD
 10
50.2026
 20
202.729
 30
0.000000
  70
    32
  0
VERTEX
  8
0
  5
A8FE
 10
50.2057
 20
202.734
 30
0.000000
  70
    32
  0
VERTEX
  8
0
  5
A8FF
 10
50.2087
 20
202.739
 30
0.000000
  70
    32
  0
VERTEX
  8
0
  5
A900
 10
50.2116
 20
202.743
 30
0.000000
  70
    32
  0
VERTEX
  8
0
  5
A901
 10
50.2146
 20
202.748
 30
0.000000
  70
    32
  0
VERTEX
  8
0
  5
A902
 10
50.2175
 20
202.752
 30
0.000000
  70
    32
  0
VERTEX
  8
0
  5
A903
 10
50.2204
 20
202.757
 30
0.000000
  70
    32
  0
VERTEX
  8
0
  5
A904
 10
50.2233
 20
202.762
 30
0.000000
  70
    32
  0
VERTEX
  8
0
  5
A905
 10
50.2261
 20
202.766
 30
0.000000
  70
    32
  0
VERTEX
  8
0
  5
A906
 10
50.2290
 20
202.771
 30
0.000000
  70
    32
  0
VERTEX
  8
0
  5
A907
 10
50.2318
 20
202.776
 30
0.000000
  70
    32
  0
VERTEX
  8
0
  5
A908
 10
50.2345
 20
202.780
 30
0.000000
  70
    32
  0
VERTEX
  8
0
  5
A909
 10
50.2373
 20
202.785
 30
0.000000
  70
    32
  0
VERTEX
  8
0
  5
A90A
 10
50.2400
 20
202.789
 30
0.000000
  70
    32
  0
VERTEX
  8
0
  5
A90B
 10
50.2426
 20
202.794
 30
0.000000
  70
    32
  0
VERTEX
  8
0
  5
A90C
 10
50.2453
 20
202.799
 30
0.000000
  70
    32
  0
VERTEX
  8
0
  5
A90D
 10
50.2479
 20
202.803
 30
0.000000
  70
    32
  0
VERTEX
  8
0
  5
A90E
 10
50.2505
 20
202.808
 30
0.000000
  70
    32
  0
VERTEX
  8
0
  5
A90F
 10
50.2531
 20
202.813
 30
0.000000
  70
    32
  0
VERTEX
  8
0
  5
A910
 10
50.2556
 20
202.817
 30
0.000000
  70
    32
  0
VERTEX
  8
0
  5
A911
 10
50.2582
 20
202.822
 30
0.000000
  70
    32
  0
VERTEX
  8
0
  5
A912
 10
50.2607
 20
202.827
 30
0.000000
  70
    32
  0
VERTEX
  8
0
  5
A913
 10
50.2631
 20
202.832
 30
0.000000
  70
    32
  0
VERTEX
  8
0
  5
A914
 10
50.2655
 20
202.836
 30
0.000000
  70
    32
  0
VERTEX
  8
0
  5
A915
 10
50.2680
 20
202.841
 30
0.000000
  70
    32
  0
VERTEX
  8
0
  5
A916
 10
50.2703
 20
202.846
 30
0.000000
  70
    32
  0
VERTEX
  8
0
  5
A917
 10
50.2727
 20
202.850
 30
0.000000
  70
    32
  0
VERTEX
  8
0
  5
A918
 10
50.2750
 20
202.855
 30
0.000000
  70
    32
  0
VERTEX
  8
0
  5
A919
 10
50.2773
 20
202.860
 30
0.000000
  70
    32
  0
VERTEX
  8
0
  5
A91A
 10
50.2796
 20
202.865
 30
0.000000
  70
    32
  0
VERTEX
  8
0
  5
A91B
 10
50.2818
 20
202.869
 30
0.000000
  70
    32
  0
VERTEX
  8
0
  5
A91C
 10
50.2840
 20
202.874
 30
0.000000
  70
    32
  0
VERTEX
  8
0
  5
A91D
 10
50.2862
 20
202.879
 30
0.000000
  70
    32
  0
VERTEX
  8
0
  5
A91E
 10
50.2884
 20
202.884
 30
0.000000
  70
    32
  0
VERTEX
  8
0
  5
A91F
 10
50.2905
 20
202.888
 30
0.000000
  70
    32
  0
VERTEX
  8
0
  5
A920
 10
50.2926
 20
202.893
 30
0.000000
  70
    32
  0
VERTEX
  8
0
  5
A921
 10
50.2947
 20
202.898
 30
0.000000
  70
    32
  0
VERTEX
  8
0
  5
A922
 10
50.2967
 20
202.903
 30
0.000000
  70
    32
  0
VERTEX
  8
0
  5
A923
 10
50.2987
 20
202.907
 30
0.000000
  70
    32
  0
VERTEX
  8
0
  5
A924
 10
50.3007
 20
202.912
 30
0.000000
  70
    32
  0
VERTEX
  8
0
  5
A925
 10
50.3027
 20
202.917
 30
0.000000
  70
    32
  0
VERTEX
  8
0
  5
A926
 10
50.3046
 20
202.922
 30
0.000000
  70
    32
  0
VERTEX
  8
0
  5
A927
 10
50.3065
 20
202.926
 30
0.000000
  70
    32
  0
VERTEX
  8
0
  5
A928
 10
50.3084
 20
202.931
 30
0.000000
  70
    32
  0
VERTEX
  8
0
  5
A929
 10
50.3102
 20
202.936
 30
0.000000
  70
    32
  0
VERTEX
  8
0
  5
A92A
 10
50.3120
 20
202.941
 30
0.000000
  70
    32
  0
VERTEX
  8
0
  5
A92B
 10
50.3138
 20
202.946
 30
0.000000
  70
    32
  0
VERTEX
  8
0
  5
A92C
 10
50.3156
 20
202.950
 30
0.000000
  70
    32
  0
VERTEX
  8
0
  5
A92D
 10
50.3173
 20
202.955
 30
0.000000
  70
    32
  0
VERTEX
  8
0
  5
A92E
 10
50.3190
 20
202.960
 30
0.000000
  70
    32
  0
VERTEX
  8
0
  5
A92F
 10
50.3207
 20
202.965
 30
0.000000
  70
    32
  0
VERTEX
  8
0
  5
A930
 10
50.3224
 20
202.970
 30
0.000000
  70
    32
  0
VERTEX
  8
0
  5
A931
 10
50.3240
 20
202.974
 30
0.000000
  70
    32
  0
VERTEX
  8
0
  5
A932
 10
50.3256
 20
202.979
 30
0.000000
  70
    32
  0
VERTEX
  8
0
  5
A933
 10
50.3271
 20
202.984
 30
0.000000
  70
    32
  0
VERTEX
  8
0
  5
A934
 10
50.3287
 20
202.989
 30
0.000000
  70
    32
  0
VERTEX
  8
0
  5
A935
 10
50.3302
 20
202.994
 30
0.000000
  70
    32
  0
VERTEX
  8
0
  5
A936
 10
50.3317
 20
202.999
 30
0.000000
  70
    32
  0
VERTEX
  8
0
  5
A937
 10
50.3331
 20
203.003
 30
0.000000
  70
    32
  0
VERTEX
  8
0
  5
A938
 10
50.3345
 20
203.008
 30
0.000000
  70
    32
  0
VERTEX
  8
0
  5
A939
 10
50.3359
 20
203.013
 30
0.000000
  70
    32
  0
VERTEX
  8
0
  5
A93A
 10
50.3373
 20
203.018
 30
0.000000
  70
    32
  0
VERTEX
  8
0
  5
A93B
 10
50.3386
 20
203.023
 30
0.000000
  70
    32
  0
VERTEX
  8
0
  5
A93C
 10
50.3399
 20
203.028
 30
0.000000
  70
    32
  0
VERTEX
  8
0
  5
A93D
 10
50.3412
 20
203.032
 30
0.000000
  70
    32
  0
VERTEX
  8
0
  5
A93E
 10
50.3425
 20
203.037
 30
0.000000
  70
    32
  0
VERTEX
  8
0
  5
A93F
 10
50.3437
 20
203.042
 30
0.000000
  70
    32
  0
VERTEX
  8
0
  5
A940
 10
50.3449
 20
203.047
 30
0.000000
  70
    32
  0
VERTEX
  8
0
  5
A941
 10
50.3461
 20
203.052
 30
0.000000
  70
    32
  0
VERTEX
  8
0
  5
A942
 10
50.3472
 20
203.057
 30
0.000000
  70
    32
  0
VERTEX
  8
0
  5
A943
 10
50.3483
 20
203.062
 30
0.000000
  70
    32
  0
VERTEX
  8
0
  5
A944
 10
50.3494
 20
203.066
 30
0.000000
  70
    32
  0
VERTEX
  8
0
  5
A945
 10
50.3504
 20
203.071
 30
0.000000
  70
    32
  0
VERTEX
  8
0
  5
A946
 10
50.3515
 20
203.076
 30
0.000000
  70
    32
  0
VERTEX
  8
0
  5
A947
 10
50.3525
 20
203.081
 30
0.000000
  70
    32
  0
VERTEX
  8
0
  5
A948
 10
50.3534
 20
203.086
 30
0.000000
  70
    32
  0
VERTEX
  8
0
  5
A949
 10
50.3544
 20
203.091
 30
0.000000
  70
    32
  0
VERTEX
  8
0
  5
A94A
 10
50.3553
 20
203.096
 30
0.000000
  70
    32
  0
VERTEX
  8
0
  5
A94B
 10
50.3561
 20
203.101
 30
0.000000
  70
    32
  0
VERTEX
  8
0
  5
A94C
 10
50.3570
 20
203.105
 30
0.000000
  70
    32
  0
VERTEX
  8
0
  5
A94D
 10
50.3578
 20
203.110
 30
0.000000
  70
    32
  0
VERTEX
  8
0
  5
A94E
 10
50.3586
 20
203.115
 30
0.000000
  70
    32
  0
VERTEX
  8
0
  5
A94F
 10
50.3594
 20
203.120
 30
0.000000
  70
    32
  0
VERTEX
  8
0
  5
A950
 10
50.3601
 20
203.125
 30
0.000000
  70
    32
  0
VERTEX
  8
0
  5
A951
 10
50.3608
 20
203.130
 30
0.000000
  70
    32
  0
VERTEX
  8
0
  5
A952
 10
50.3615
 20
203.135
 30
0.000000
  70
    32
  0
VERTEX
  8
0
  5
A953
 10
50.3621
 20
203.140
 30
0.000000
  70
    32
  0
VERTEX
  8
0
  5
A954
 10
50.3628
 20
203.145
 30
0.000000
  70
    32
  0
VERTEX
  8
0
  5
A955
 10
50.3634
 20
203.149
 30
0.000000
  70
    32
  0
VERTEX
  8
0
  5
A956
 10
50.3639
 20
203.154
 30
0.000000
  70
    32
  0
VERTEX
  8
0
  5
A957
 10
50.3645
 20
203.159
 30
0.000000
  70
    32
  0
VERTEX
  8
0
  5
A958
 10
50.3650
 20
203.164
 30
0.000000
  70
    32
  0
VERTEX
  8
0
  5
A959
 10
50.3654
 20
203.169
 30
0.000000
  70
    32
  0
VERTEX
  8
0
  5
A95A
 10
50.3659
 20
203.174
 30
0.000000
  70
    32
  0
VERTEX
  8
0
  5
A95B
 10
50.3663
 20
203.179
 30
0.000000
  70
    32
  0
VERTEX
  8
0
  5
A95C
 10
50.3667
 20
203.184
 30
0.000000
  70
    32
  0
VERTEX
  8
0
  5
A95D
 10
50.3670
 20
203.189
 30
0.000000
  70
    32
  0
VERTEX
  8
0
  5
A95E
 10
50.3674
 20
203.193
 30
0.000000
  70
    32
  0
VERTEX
  8
0
  5
A95F
 10
50.3677
 20
203.198
 30
0.000000
  70
    32
  0
VERTEX
  8
0
  5
A960
 10
50.3680
 20
203.203
 30
0.000000
  70
    32
  0
VERTEX
  8
0
  5
A961
 10
50.3682
 20
203.208
 30
0.000000
  70
    32
  0
VERTEX
  8
0
  5
A962
 10
50.3684
 20
203.213
 30
0.000000
  70
    32
  0
VERTEX
  8
0
  5
A963
 10
50.3686
 20
203.218
 30
0.000000
  70
    32
  0
VERTEX
  8
0
  5
A964
 10
50.3688
 20
203.223
 30
0.000000
  70
    32
  0
VERTEX
  8
0
  5
A965
 10
50.3689
 20
203.228
 30
0.000000
  70
    32
  0
VERTEX
  8
0
  5
A966
 10
50.3690
 20
203.233
 30
0.000000
  70
    32
  0
VERTEX
  8
0
  5
A967
 10
50.3691
 20
203.238
 30
0.000000
  70
    32
  0
VERTEX
  8
0
  5
A968
 10
50.3691
 20
203.243
 30
0.000000
  70
    32
  0
VERTEX
  8
0
  5
A969
 10
50.3691
 20
203.247
 30
0.000000
  70
    32
  0
SEQEND
  8
0
  5
A96A
  0
LINE
  5
9A46
  8
0
 10
50.369126361089172
 20
207.00390740896009
 30
0.0
 11
50.369126361089172
 21
203.24743188750381
 31
0.0
  0
LINE
  5
9A48
  8
0
 10
55.469126361089202
 20
203.24743188750381
 30
0.0
 11
55.469126361089202
 21
207.00390740896009
 31
0.0
  0
POLYLINE
  5
9A49
  8
0
 10
55.469126361089295
 20
203.24743188750375
 30
0.0
 66
     1
 70
     8
  0
VERTEX
  8
0
  5
A96B
 10
55.4691
 20
203.247
 30
0.000000
  70
    32
  0
VERTEX
  8
0
  5
A96C
 10
55.4691
 20
203.243
 30
0.000000
  70
    32
  0
VERTEX
  8
0
  5
A96D
 10
55.4692
 20
203.238
 30
0.000000
  70
    32
  0
VERTEX
  8
0
  5
A96E
 10
55.4693
 20
203.233
 30
0.000000
  70
    32
  0
VERTEX
  8
0
  5
A96F
 10
55.4694
 20
203.228
 30
0.000000
  70
    32
  0
VERTEX
  8
0
  5
A970
 10
55.4695
 20
203.223
 30
0.000000
  70
    32
  0
VERTEX
  8
0
  5
A971
 10
55.4696
 20
203.218
 30
0.000000
  70
    32
  0
VERTEX
  8
0
  5
A972
 10
55.4698
 20
203.213
 30
0.000000
  70
    32
  0
VERTEX
  8
0
  5
A973
 10
55.4701
 20
203.208
 30
0.000000
  70
    32
  0
VERTEX
  8
0
  5
A974
 10
55.4703
 20
203.203
 30
0.000000
  70
    32
  0
VERTEX
  8
0
  5
A975
 10
55.4706
 20
203.198
 30
0.000000
  70
    32
  0
VERTEX
  8
0
  5
A976
 10
55.4709
 20
203.193
 30
0.000000
  70
    32
  0
VERTEX
  8
0
  5
A977
 10
55.4712
 20
203.189
 30
0.000000
  70
    32
  0
VERTEX
  8
0
  5
A978
 10
55.4716
 20
203.184
 30
0.000000
  70
    32
  0
VERTEX
  8
0
  5
A979
 10
55.4720
 20
203.179
 30
0.000000
  70
    32
  0
VERTEX
  8
0
  5
A97A
 10
55.4724
 20
203.174
 30
0.000000
  70
    32
  0
VERTEX
  8
0
  5
A97B
 10
55.4728
 20
203.169
 30
0.000000
  70
    32
  0
VERTEX
  8
0
  5
A97C
 10
55.4733
 20
203.164
 30
0.000000
  70
    32
  0
VERTEX
  8
0
  5
A97D
 10
55.4738
 20
203.159
 30
0.000000
  70
    32
  0
VERTEX
  8
0
  5
A97E
 10
55.4743
 20
203.154
 30
0.000000
  70
    32
  0
VERTEX
  8
0
  5
A97F
 10
55.4749
 20
203.149
 30
0.000000
  70
    32
  0
VERTEX
  8
0
  5
A980
 10
55.4755
 20
203.145
 30
0.000000
  70
    32
  0
VERTEX
  8
0
  5
A981
 10
55.4761
 20
203.140
 30
0.000000
  70
    32
  0
VERTEX
  8
0
  5
A982
 10
55.4768
 20
203.135
 30
0.000000
  70
    32
  0
VERTEX
  8
0
  5
A983
 10
55.4774
 20
203.130
 30
0.000000
  70
    32
  0
VERTEX
  8
0
  5
A984
 10
55.4781
 20
203.125
 30
0.000000
  70
    32
  0
VERTEX
  8
0
  5
A985
 10
55.4789
 20
203.120
 30
0.000000
  70
    32
  0
VERTEX
  8
0
  5
A986
 10
55.4796
 20
203.115
 30
0.000000
  70
    32
  0
VERTEX
  8
0
  5
A987
 10
55.4804
 20
203.110
 30
0.000000
  70
    32
  0
VERTEX
  8
0
  5
A988
 10
55.4813
 20
203.105
 30
0.000000
  70
    32
  0
VERTEX
  8
0
  5
A989
 10
55.4821
 20
203.101
 30
0.000000
  70
    32
  0
VERTEX
  8
0
  5
A98A
 10
55.4830
 20
203.096
 30
0.000000
  70
    32
  0
VERTEX
  8
0
  5
A98B
 10
55.4839
 20
203.091
 30
0.000000
  70
    32
  0
VERTEX
  8
0
  5
A98C
 10
55.4848
 20
203.086
 30
0.000000
  70
    32
  0
VERTEX
  8
0
  5
A98D
 10
55.4858
 20
203.081
 30
0.000000
  70
    32
  0
VERTEX
  8
0
  5
A98E
 10
55.4868
 20
203.076
 30
0.000000
  70
    32
  0
VERTEX
  8
0
  5
A98F
 10
55.4878
 20
203.071
 30
0.000000
  70
    32
  0
VERTEX
  8
0
  5
A990
 10
55.4889
 20
203.066
 30
0.000000
  70
    32
  0
VERTEX
  8
0
  5
A991
 10
55.4899
 20
203.062
 30
0.000000
  70
    32
  0
VERTEX
  8
0
  5
A992
 10
55.4911
 20
203.057
 30
0.000000
  70
    32
  0
VERTEX
  8
0
  5
A993
 10
55.4922
 20
203.052
 30
0.000000
  70
    32
  0
VERTEX
  8
0
  5
A994
 10
55.4934
 20
203.047
 30
0.000000
  70
    32
  0
VERTEX
  8
0
  5
A995
 10
55.4945
 20
203.042
 30
0.000000
  70
    32
  0
VERTEX
  8
0
  5
A996
 10
55.4958
 20
203.037
 30
0.000000
  70
    32
  0
VERTEX
  8
0
  5
A997
 10
55.4970
 20
203.032
 30
0.000000
  70
    32
  0
VERTEX
  8
0
  5
A998
 10
55.4983
 20
203.028
 30
0.000000
  70
    32
  0
VERTEX
  8
0
  5
A999
 10
55.4996
 20
203.023
 30
0.000000
  70
    32
  0
VERTEX
  8
0
  5
A99A
 10
55.5009
 20
203.018
 30
0.000000
  70
    32
  0
VERTEX
  8
0
  5
A99B
 10
55.5023
 20
203.013
 30
0.000000
  70
    32
  0
VERTEX
  8
0
  5
A99C
 10
55.5037
 20
203.008
 30
0.000000
  70
    32
  0
VERTEX
  8
0
  5
A99D
 10
55.5051
 20
203.003
 30
0.000000
  70
    32
  0
VERTEX
  8
0
  5
A99E
 10
55.5066
 20
202.999
 30
0.000000
  70
    32
  0
VERTEX
  8
0
  5
A99F
 10
55.5081
 20
202.994
 30
0.000000
  70
    32
  0
VERTEX
  8
0
  5
A9A0
 10
55.5096
 20
202.989
 30
0.000000
  70
    32
  0
VERTEX
  8
0
  5
A9A1
 10
55.5111
 20
202.984
 30
0.000000
  70
    32
  0
VERTEX
  8
0
  5
A9A2
 10
55.5127
 20
202.979
 30
0.000000
  70
    32
  0
VERTEX
  8
0
  5
A9A3
 10
55.5143
 20
202.974
 30
0.000000
  70
    32
  0
VERTEX
  8
0
  5
A9A4
 10
55.5159
 20
202.970
 30
0.000000
  70
    32
  0
VERTEX
  8
0
  5
A9A5
 10
55.5175
 20
202.965
 30
0.000000
  70
    32
  0
VERTEX
  8
0
  5
A9A6
 10
55.5192
 20
202.960
 30
0.000000
  70
    32
  0
VERTEX
  8
0
  5
A9A7
 10
55.5209
 20
202.955
 30
0.000000
  70
    32
  0
VERTEX
  8
0
  5
A9A8
 10
55.5227
 20
202.950
 30
0.000000
  70
    32
  0
VERTEX
  8
0
  5
A9A9
 10
55.5244
 20
202.946
 30
0.000000
  70
    32
  0
VERTEX
  8
0
  5
A9AA
 10
55.5262
 20
202.941
 30
0.000000
  70
    32
  0
VERTEX
  8
0
  5
A9AB
 10
55.5280
 20
202.936
 30
0.000000
  70
    32
  0
VERTEX
  8
0
  5
A9AC
 10
55.5299
 20
202.931
 30
0.000000
  70
    32
  0
VERTEX
  8
0
  5
A9AD
 10
55.5317
 20
202.926
 30
0.000000
  70
    32
  0
VERTEX
  8
0
  5
A9AE
 10
55.5337
 20
202.922
 30
0.000000
  70
    32
  0
VERTEX
  8
0
  5
A9AF
 10
55.5356
 20
202.917
 30
0.000000
  70
    32
  0
VERTEX
  8
0
  5
A9B0
 10
55.5375
 20
202.912
 30
0.000000
  70
    32
  0
VERTEX
  8
0
  5
A9B1
 10
55.5395
 20
202.907
 30
0.000000
  70
    32
  0
VERTEX
  8
0
  5
A9B2
 10
55.5415
 20
202.903
 30
0.000000
  70
    32
  0
VERTEX
  8
0
  5
A9B3
 10
55.5436
 20
202.898
 30
0.000000
  70
    32
  0
VERTEX
  8
0
  5
A9B4
 10
55.5457
 20
202.893
 30
0.000000
  70
    32
  0
VERTEX
  8
0
  5
A9B5
 10
55.5478
 20
202.888
 30
0.000000
  70
    32
  0
VERTEX
  8
0
  5
A9B6
 10
55.5499
 20
202.884
 30
0.000000
  70
    32
  0
VERTEX
  8
0
  5
A9B7
 10
55.5520
 20
202.879
 30
0.000000
  70
    32
  0
VERTEX
  8
0
  5
A9B8
 10
55.5542
 20
202.874
 30
0.000000
  70
    32
  0
VERTEX
  8
0
  5
A9B9
 10
55.5564
 20
202.869
 30
0.000000
  70
    32
  0
VERTEX
  8
0
  5
A9BA
 10
55.5587
 20
202.865
 30
0.000000
  70
    32
  0
VERTEX
  8
0
  5
A9BB
 10
55.5610
 20
202.860
 30
0.000000
  70
    32
  0
VERTEX
  8
0
  5
A9BC
 10
55.5632
 20
202.855
 30
0.000000
  70
    32
  0
VERTEX
  8
0
  5
A9BD
 10
55.5656
 20
202.850
 30
0.000000
  70
    32
  0
VERTEX
  8
0
  5
A9BE
 10
55.5679
 20
202.846
 30
0.000000
  70
    32
  0
VERTEX
  8
0
  5
A9BF
 10
55.5703
 20
202.841
 30
0.000000
  70
    32
  0
VERTEX
  8
0
  5
A9C0
 10
55.5727
 20
202.836
 30
0.000000
  70
    32
  0
VERTEX
  8
0
  5
A9C1
 10
55.5751
 20
202.832
 30
0.000000
  70
    32
  0
VERTEX
  8
0
  5
A9C2
 10
55.5776
 20
202.827
 30
0.000000
  70
    32
  0
VERTEX
  8
0
  5
A9C3
 10
55.5801
 20
202.822
 30
0.000000
  70
    32
  0
VERTEX
  8
0
  5
A9C4
 10
55.5826
 20
202.817
 30
0.000000
  70
    32
  0
VERTEX
  8
0
  5
A9C5
 10
55.5852
 20
202.813
 30
0.000000
  70
    32
  0
VERTEX
  8
0
  5
A9C6
 10
55.5877
 20
202.808
 30
0.000000
  70
    32
  0
VERTEX
  8
0
  5
A9C7
 10
55.5903
 20
202.803
 30
0.000000
  70
    32
  0
VERTEX
  8
0
  5
A9C8
 10
55.5929
 20
202.799
 30
0.000000
  70
    32
  0
VERTEX
  8
0
  5
A9C9
 10
55.5956
 20
202.794
 30
0.000000
  70
    32
  0
VERTEX
  8
0
  5
A9CA
 10
55.5983
 20
202.789
 30
0.000000
  70
    32
  0
VERTEX
  8
0
  5
A9CB
 10
55.6010
 20
202.785
 30
0.000000
  70
    32
  0
VERTEX
  8
0
  5
A9CC
 10
55.6037
 20
202.780
 30
0.000000
  70
    32
  0
VERTEX
  8
0
  5
A9CD
 10
55.6065
 20
202.776
 30
0.000000
  70
    32
  0
VERTEX
  8
0
  5
A9CE
 10
55.6093
 20
202.771
 30
0.000000
  70
    32
  0
VERTEX
  8
0
  5
A9CF
 10
55.6121
 20
202.766
 30
0.000000
  70
    32
  0
VERTEX
  8
0
  5
A9D0
 10
55.6150
 20
202.762
 30
0.000000
  70
    32
  0
VERTEX
  8
0
  5
A9D1
 10
55.6178
 20
202.757
 30
0.000000
  70
    32
  0
VERTEX
  8
0
  5
A9D2
 10
55.6207
 20
202.752
 30
0.000000
  70
    32
  0
VERTEX
  8
0
  5
A9D3
 10
55.6237
 20
202.748
 30
0.000000
  70
    32
  0
VERTEX
  8
0
  5
A9D4
 10
55.6266
 20
202.743
 30
0.000000
  70
    32
  0
VERTEX
  8
0
  5
A9D5
 10
55.6296
 20
202.739
 30
0.000000
  70
    32
  0
VERTEX
  8
0
  5
A9D6
 10
55.6326
 20
202.734
 30
0.000000
  70
    32
  0
VERTEX
  8
0
  5
A9D7
 10
55.6356
 20
202.729
 30
0.000000
  70
    32
  0
VERTEX
  8
0
  5
A9D8
 10
55.6387
 20
202.725
 30
0.000000
  70
    32
  0
VERTEX
  8
0
  5
A9D9
 10
55.6418
 20
202.720
 30
0.000000
  70
    32
  0
VERTEX
  8
0
  5
A9DA
 10
55.6449
 20
202.716
 30
0.000000
  70
    32
  0
VERTEX
  8
0
  5
A9DB
 10
55.6480
 20
202.711
 30
0.000000
  70
    32
  0
VERTEX
  8
0
  5
A9DC
 10
55.6512
 20
202.707
 30
0.000000
  70
    32
  0
VERTEX
  8
0
  5
A9DD
 10
55.6544
 20
202.702
 30
0.000000
  70
    32
  0
VERTEX
  8
0
  5
A9DE
 10
55.6576
 20
202.698
 30
0.000000
  70
    32
  0
VERTEX
  8
0
  5
A9DF
 10
55.6609
 20
202.693
 30
0.000000
  70
    32
  0
VERTEX
  8
0
  5
A9E0
 10
55.6642
 20
202.689
 30
0.000000
  70
    32
  0
VERTEX
  8
0
  5
A9E1
 10
55.6675
 20
202.684
 30
0.000000
  70
    32
  0
VERTEX
  8
0
  5
A9E2
 10
55.6708
 20
202.680
 30
0.000000
  70
    32
  0
VERTEX
  8
0
  5
A9E3
 10
55.6741
 20
202.675
 30
0.000000
  70
    32
  0
VERTEX
  8
0
  5
A9E4
 10
55.6775
 20
202.670
 30
0.000000
  70
    32
  0
VERTEX
  8
0
  5
A9E5
 10
55.6809
 20
202.666
 30
0.000000
  70
    32
  0
VERTEX
  8
0
  5
A9E6
 10
55.6844
 20
202.662
 30
0.000000
  70
    32
  0
VERTEX
  8
0
  5
A9E7
 10
55.6878
 20
202.657
 30
0.000000
  70
    32
  0
VERTEX
  8
0
  5
A9E8
 10
55.6913
 20
202.653
 30
0.000000
  70
    32
  0
VERTEX
  8
0
  5
A9E9
 10
55.6948
 20
202.648
 30
0.000000
  70
    32
  0
VERTEX
  8
0
  5
A9EA
 10
55.6984
 20
202.644
 30
0.000000
  70
    32
  0
VERTEX
  8
0
  5
A9EB
 10
55.7019
 20
202.639
 30
0.000000
  70
    32
  0
SEQEND
  8
0
  5
A9EC
  0
POLYLINE
  5
9A4A
  8
0
 10
53.069126361089282
 20
203.24743188750369
 30
0.0
 66
     1
 70
     8
  0
VERTEX
  8
0
  5
A9ED
 10
53.0691
 20
203.247
 30
0.000000
  70
    32
  0
VERTEX
  8
0
  5
A9EE
 10
53.0692
 20
203.238
 30
0.000000
  70
    32
  0
VERTEX
  8
0
  5
A9EF
 10
53.0692
 20
203.228
 30
0.000000
  70
    32
  0
VERTEX
  8
0
  5
A9F0
 10
53.0694
 20
203.218
 30
0.000000
  70
    32
  0
VERTEX
  8
0
  5
A9F1
 10
53.0696
 20
203.209
 30
0.000000
  70
    32
  0
VERTEX
  8
0
  5
A9F2
 10
53.0698
 20
203.199
 30
0.000000
  70
    32
  0
VERTEX
  8
0
  5
A9F3
 10
53.0701
 20
203.190
 30
0.000000
  70
    32
  0
VERTEX
  8
0
  5
A9F4
 10
53.0705
 20
203.180
 30
0.000000
  70
    32
  0
VERTEX
  8
0
  5
A9F5
 10
53.0709
 20
203.170
 30
0.000000
  70
    32
  0
VERTEX
  8
0
  5
A9F6
 10
53.0714
 20
203.161
 30
0.000000
  70
    32
  0
VERTEX
  8
0
  5
A9F7
 10
53.0719
 20
203.151
 30
0.000000
  70
    32
  0
VERTEX
  8
0
  5
A9F8
 10
53.0725
 20
203.141
 30
0.000000
  70
    32
  0
VERTEX
  8
0
  5
A9F9
 10
53.0732
 20
203.132
 30
0.000000
  70
    32
  0
VERTEX
  8
0
  5
A9FA
 10
53.0739
 20
203.122
 30
0.000000
  70
    32
  0
VERTEX
  8
0
  5
A9FB
 10
53.0746
 20
203.112
 30
0.000000
  70
    32
  0
VERTEX
  8
0
  5
A9FC
 10
53.0754
 20
203.103
 30
0.000000
  70
    32
  0
VERTEX
  8
0
  5
A9FD
 10
53.0763
 20
203.093
 30
0.000000
  70
    32
  0
VERTEX
  8
0
  5
A9FE
 10
53.0772
 20
203.083
 30
0.000000
  70
    32
  0
VERTEX
  8
0
  5
A9FF
 10
53.0782
 20
203.074
 30
0.000000
  70
    32
  0
VERTEX
  8
0
  5
AA00
 10
53.0792
 20
203.064
 30
0.000000
  70
    32
  0
VERTEX
  8
0
  5
AA01
 10
53.0803
 20
203.055
 30
0.000000
  70
    32
  0
VERTEX
  8
0
  5
AA02
 10
53.0815
 20
203.045
 30
0.000000
  70
    32
  0
VERTEX
  8
0
  5
AA03
 10
53.0827
 20
203.035
 30
0.000000
  70
    32
  0
VERTEX
  8
0
  5
AA04
 10
53.0839
 20
203.026
 30
0.000000
  70
    32
  0
VERTEX
  8
0
  5
AA05
 10
53.0852
 20
203.016
 30
0.000000
  70
    32
  0
VERTEX
  8
0
  5
AA06
 10
53.0866
 20
203.006
 30
0.000000
  70
    32
  0
VERTEX
  8
0
  5
AA07
 10
53.0880
 20
202.997
 30
0.000000
  70
    32
  0
VERTEX
  8
0
  5
AA08
 10
53.0895
 20
202.987
 30
0.000000
  70
    32
  0
VERTEX
  8
0
  5
AA09
 10
53.0910
 20
202.978
 30
0.000000
  70
    32
  0
VERTEX
  8
0
  5
AA0A
 10
53.0926
 20
202.968
 30
0.000000
  70
    32
  0
VERTEX
  8
0
  5
AA0B
 10
53.0943
 20
202.958
 30
0.000000
  70
    32
  0
VERTEX
  8
0
  5
AA0C
 10
53.0960
 20
202.949
 30
0.000000
  70
    32
  0
VERTEX
  8
0
  5
AA0D
 10
53.0977
 20
202.939
 30
0.000000
  70
    32
  0
VERTEX
  8
0
  5
AA0E
 10
53.0995
 20
202.930
 30
0.000000
  70
    32
  0
VERTEX
  8
0
  5
AA0F
 10
53.1014
 20
202.920
 30
0.000000
  70
    32
  0
VERTEX
  8
0
  5
AA10
 10
53.1033
 20
202.910
 30
0.000000
  70
    32
  0
VERTEX
  8
0
  5
AA11
 10
53.1053
 20
202.901
 30
0.000000
  70
    32
  0
VERTEX
  8
0
  5
AA12
 10
53.1074
 20
202.891
 30
0.000000
  70
    32
  0
VERTEX
  8
0
  5
AA13
 10
53.1094
 20
202.882
 30
0.000000
  70
    32
  0
VERTEX
  8
0
  5
AA14
 10
53.1116
 20
202.872
 30
0.000000
  70
    32
  0
VERTEX
  8
0
  5
AA15
 10
53.1138
 20
202.862
 30
0.000000
  70
    32
  0
VERTEX
  8
0
  5
AA16
 10
53.1160
 20
202.853
 30
0.000000
  70
    32
  0
VERTEX
  8
0
  5
AA17
 10
53.1184
 20
202.843
 30
0.000000
  70
    32
  0
VERTEX
  8
0
  5
AA18
 10
53.1207
 20
202.834
 30
0.000000
  70
    32
  0
VERTEX
  8
0
  5
AA19
 10
53.1232
 20
202.824
 30
0.000000
  70
    32
  0
VERTEX
  8
0
  5
AA1A
 10
53.1256
 20
202.815
 30
0.000000
  70
    32
  0
VERTEX
  8
0
  5
AA1B
 10
53.1282
 20
202.805
 30
0.000000
  70
    32
  0
VERTEX
  8
0
  5
AA1C
 10
53.1308
 20
202.796
 30
0.000000
  70
    32
  0
VERTEX
  8
0
  5
AA1D
 10
53.1334
 20
202.786
 30
0.000000
  70
    32
  0
VERTEX
  8
0
  5
AA1E
 10
53.1361
 20
202.777
 30
0.000000
  70
    32
  0
VERTEX
  8
0
  5
AA1F
 10
53.1389
 20
202.767
 30
0.000000
  70
    32
  0
VERTEX
  8
0
  5
AA20
 10
53.1417
 20
202.757
 30
0.000000
  70
    32
  0
VERTEX
  8
0
  5
AA21
 10
53.1445
 20
202.748
 30
0.000000
  70
    32
  0
VERTEX
  8
0
  5
AA22
 10
53.1475
 20
202.738
 30
0.000000
  70
    32
  0
VERTEX
  8
0
  5
AA23
 10
53.1504
 20
202.729
 30
0.000000
  70
    32
  0
VERTEX
  8
0
  5
AA24
 10
53.1535
 20
202.719
 30
0.000000
  70
    32
  0
VERTEX
  8
0
  5
AA25
 10
53.1565
 20
202.710
 30
0.000000
  70
    32
  0
VERTEX
  8
0
  5
AA26
 10
53.1597
 20
202.701
 30
0.000000
  70
    32
  0
VERTEX
  8
0
  5
AA27
 10
53.1629
 20
202.691
 30
0.000000
  70
    32
  0
VERTEX
  8
0
  5
AA28
 10
53.1661
 20
202.682
 30
0.000000
  70
    32
  0
VERTEX
  8
0
  5
AA29
 10
53.1694
 20
202.672
 30
0.000000
  70
    32
  0
VERTEX
  8
0
  5
AA2A
 10
53.1728
 20
202.663
 30
0.000000
  70
    32
  0
VERTEX
  8
0
  5
AA2B
 10
53.1762
 20
202.653
 30
0.000000
  70
    32
  0
VERTEX
  8
0
  5
AA2C
 10
53.1797
 20
202.644
 30
0.000000
  70
    32
  0
VERTEX
  8
0
  5
AA2D
 10
53.1832
 20
202.634
 30
0.000000
  70
    32
  0
VERTEX
  8
0
  5
AA2E
 10
53.1868
 20
202.625
 30
0.000000
  70
    32
  0
VERTEX
  8
0
  5
AA2F
 10
53.1904
 20
202.615
 30
0.000000
  70
    32
  0
VERTEX
  8
0
  5
AA30
 10
53.1941
 20
202.606
 30
0.000000
  70
    32
  0
VERTEX
  8
0
  5
AA31
 10
53.1978
 20
202.597
 30
0.000000
  70
    32
  0
VERTEX
  8
0
  5
AA32
 10
53.2016
 20
202.587
 30
0.000000
  70
    32
  0
VERTEX
  8
0
  5
AA33
 10
53.2055
 20
202.578
 30
0.000000
  70
    32
  0
VERTEX
  8
0
  5
AA34
 10
53.2094
 20
202.568
 30
0.000000
  70
    32
  0
VERTEX
  8
0
  5
AA35
 10
53.2134
 20
202.559
 30
0.000000
  70
    32
  0
VERTEX
  8
0
  5
AA36
 10
53.2174
 20
202.550
 30
0.000000
  70
    32
  0
VERTEX
  8
0
  5
AA37
 10
53.2214
 20
202.540
 30
0.000000
  70
    32
  0
VERTEX
  8
0
  5
AA38
 10
53.2256
 20
202.531
 30
0.000000
  70
    32
  0
VERTEX
  8
0
  5
AA39
 10
53.2297
 20
202.522
 30
0.000000
  70
    32
  0
VERTEX
  8
0
  5
AA3A
 10
53.2340
 20
202.512
 30
0.000000
  70
    32
  0
VERTEX
  8
0
  5
AA3B
 10
53.2383
 20
202.503
 30
0.000000
  70
    32
  0
VERTEX
  8
0
  5
AA3C
 10
53.2426
 20
202.494
 30
0.000000
  70
    32
  0
VERTEX
  8
0
  5
AA3D
 10
53.2470
 20
202.484
 30
0.000000
  70
    32
  0
VERTEX
  8
0
  5
AA3E
 10
53.2514
 20
202.475
 30
0.000000
  70
    32
  0
VERTEX
  8
0
  5
AA3F
 10
53.2559
 20
202.466
 30
0.000000
  70
    32
  0
VERTEX
  8
0
  5
AA40
 10
53.2605
 20
202.456
 30
0.000000
  70
    32
  0
VERTEX
  8
0
  5
AA41
 10
53.2651
 20
202.447
 30
0.000000
  70
    32
  0
VERTEX
  8
0
  5
AA42
 10
53.2698
 20
202.438
 30
0.000000
  70
    32
  0
VERTEX
  8
0
  5
AA43
 10
53.2745
 20
202.429
 30
0.000000
  70
    32
  0
VERTEX
  8
0
  5
AA44
 10
53.2792
 20
202.419
 30
0.000000
  70
    32
  0
VERTEX
  8
0
  5
AA45
 10
53.2841
 20
202.410
 30
0.000000
  70
    32
  0
VERTEX
  8
0
  5
AA46
 10
53.2889
 20
202.401
 30
0.000000
  70
    32
  0
VERTEX
  8
0
  5
AA47
 10
53.2939
 20
202.392
 30
0.000000
  70
    32
  0
VERTEX
  8
0
  5
AA48
 10
53.2989
 20
202.382
 30
0.000000
  70
    32
  0
VERTEX
  8
0
  5
AA49
 10
53.3039
 20
202.373
 30
0.000000
  70
    32
  0
VERTEX
  8
0
  5
AA4A
 10
53.3090
 20
202.364
 30
0.000000
  70
    32
  0
VERTEX
  8
0
  5
AA4B
 10
53.3141
 20
202.355
 30
0.000000
  70
    32
  0
VERTEX
  8
0
  5
AA4C
 10
53.3193
 20
202.346
 30
0.000000
  70
    32
  0
VERTEX
  8
0
  5
AA4D
 10
53.3246
 20
202.337
 30
0.000000
  70
    32
  0
VERTEX
  8
0
  5
AA4E
 10
53.3299
 20
202.327
 30
0.000000
  70
    32
  0
VERTEX
  8
0
  5
AA4F
 10
53.3352
 20
202.318
 30
0.000000
  70
    32
  0
VERTEX
  8
0
  5
AA50
 10
53.3406
 20
202.309
 30
0.000000
  70
    32
  0
VERTEX
  8
0
  5
AA51
 10
53.3461
 20
202.300
 30
0.000000
  70
    32
  0
VERTEX
  8
0
  5
AA52
 10
53.3516
 20
202.291
 30
0.000000
  70
    32
  0
VERTEX
  8
0
  5
AA53
 10
53.3572
 20
202.282
 30
0.000000
  70
    32
  0
VERTEX
  8
0
  5
AA54
 10
53.3628
 20
202.273
 30
0.000000
  70
    32
  0
VERTEX
  8
0
  5
AA55
 10
53.3685
 20
202.264
 30
0.000000
  70
    32
  0
VERTEX
  8
0
  5
AA56
 10
53.3742
 20
202.255
 30
0.000000
  70
    32
  0
VERTEX
  8
0
  5
AA57
 10
53.3800
 20
202.245
 30
0.000000
  70
    32
  0
VERTEX
  8
0
  5
AA58
 10
53.3858
 20
202.236
 30
0.000000
  70
    32
  0
VERTEX
  8
0
  5
AA59
 10
53.3917
 20
202.227
 30
0.000000
  70
    32
  0
VERTEX
  8
0
  5
AA5A
 10
53.3976
 20
202.218
 30
0.000000
  70
    32
  0
VERTEX
  8
0
  5
AA5B
 10
53.4036
 20
202.209
 30
0.000000
  70
    32
  0
VERTEX
  8
0
  5
AA5C
 10
53.4096
 20
202.200
 30
0.000000
  70
    32
  0
VERTEX
  8
0
  5
AA5D
 10
53.4157
 20
202.191
 30
0.000000
  70
    32
  0
VERTEX
  8
0
  5
AA5E
 10
53.4219
 20
202.182
 30
0.000000
  70
    32
  0
VERTEX
  8
0
  5
AA5F
 10
53.4281
 20
202.173
 30
0.000000
  70
    32
  0
VERTEX
  8
0
  5
AA60
 10
53.4343
 20
202.164
 30
0.000000
  70
    32
  0
VERTEX
  8
0
  5
AA61
 10
53.4406
 20
202.156
 30
0.000000
  70
    32
  0
VERTEX
  8
0
  5
AA62
 10
53.4470
 20
202.147
 30
0.000000
  70
    32
  0
VERTEX
  8
0
  5
AA63
 10
53.4534
 20
202.138
 30
0.000000
  70
    32
  0
VERTEX
  8
0
  5
AA64
 10
53.4598
 20
202.129
 30
0.000000
  70
    32
  0
VERTEX
  8
0
  5
AA65
 10
53.4663
 20
202.120
 30
0.000000
  70
    32
  0
VERTEX
  8
0
  5
AA66
 10
53.4729
 20
202.111
 30
0.000000
  70
    32
  0
VERTEX
  8
0
  5
AA67
 10
53.4795
 20
202.102
 30
0.000000
  70
    32
  0
VERTEX
  8
0
  5
AA68
 10
53.4862
 20
202.093
 30
0.000000
  70
    32
  0
VERTEX
  8
0
  5
AA69
 10
53.4929
 20
202.084
 30
0.000000
  70
    32
  0
VERTEX
  8
0
  5
AA6A
 10
53.4996
 20
202.076
 30
0.000000
  70
    32
  0
VERTEX
  8
0
  5
AA6B
 10
53.5064
 20
202.067
 30
0.000000
  70
    32
  0
VERTEX
  8
0
  5
AA6C
 10
53.5133
 20
202.058
 30
0.000000
  70
    32
  0
VERTEX
  8
0
  5
AA6D
 10
53.5202
 20
202.049
 30
0.000000
  70
    32
  0
SEQEND
  8
0
  5
AA6E
  0
LINE
  5
9A4B
  8
0
 10
52.769126361089263
 20
203.24743188750381
 30
0.0
 11
53.069126361089218
 21
203.24743188750381
 31
0.0
  0
POLYLINE
  5
9A4C
  8
0
 10
52.318034879636841
 20
202.04917881324872
 30
0.0
 66
     1
 70
     8
  0
VERTEX
  8
0
  5
AA6F
 10
52.3180
 20
202.049
 30
0.000000
  70
    32
  0
VERTEX
  8
0
  5
AA70
 10
52.3249
 20
202.058
 30
0.000000
  70
    32
  0
VERTEX
  8
0
  5
AA71
 10
52.3318
 20
202.067
 30
0.000000
  70
    32
  0
VERTEX
  8
0
  5
AA72
 10
52.3386
 20
202.076
 30
0.000000
  70
    32
  0
VERTEX
  8
0
  5
AA73
 10
52.3454
 20
202.084
 30
0.000000
  70
    32
  0
VERTEX
  8
0
  5
AA74
 10
52.3521
 20
202.093
 30
0.000000
  70
    32
  0
VERTEX
  8
0
  5
AA75
 10
52.3588
 20
202.102
 30
0.000000
  70
    32
  0
VERTEX
  8
0
  5
AA76
 10
52.3654
 20
202.111
 30
0.000000
  70
    32
  0
VERTEX
  8
0
  5
AA77
 10
52.3719
 20
202.120
 30
0.000000
  70
    32
  0
VERTEX
  8
0
  5
AA78
 10
52.3784
 20
202.129
 30
0.000000
  70
    32
  0
VERTEX
  8
0
  5
AA79
 10
52.3849
 20
202.138
 30
0.000000
  70
    32
  0
VERTEX
  8
0
  5
AA7A
 10
52.3913
 20
202.147
 30
0.000000
  70
    32
  0
VERTEX
  8
0
  5
AA7B
 10
52.3976
 20
202.156
 30
0.000000
  70
    32
  0
VERTEX
  8
0
  5
AA7C
 10
52.4039
 20
202.164
 30
0.000000
  70
    32
  0
VERTEX
  8
0
  5
AA7D
 10
52.4102
 20
202.173
 30
0.000000
  70
    32
  0
VERTEX
  8
0
  5
AA7E
 10
52.4164
 20
202.182
 30
0.000000
  70
    32
  0
VERTEX
  8
0
  5
AA7F
 10
52.4225
 20
202.191
 30
0.000000
  70
    32
  0
VERTEX
  8
0
  5
AA80
 10
52.4286
 20
202.200
 30
0.000000
  70
    32
  0
VERTEX
  8
0
  5
AA81
 10
52.4346
 20
202.209
 30
0.000000
  70
    32
  0
VERTEX
  8
0
  5
AA82
 10
52.4406
 20
202.218
 30
0.000000
  70
    32
  0
VERTEX
  8
0
  5
AA83
 10
52.4466
 20
202.227
 30
0.000000
  70
    32
  0
VERTEX
  8
0
  5
AA84
 10
52.4525
 20
202.236
 30
0.000000
  70
    32
  0
VERTEX
  8
0
  5
AA85
 10
52.4583
 20
202.245
 30
0.000000
  70
    32
  0
VERTEX
  8
0
  5
AA86
 10
52.4641
 20
202.255
 30
0.000000
  70
    32
  0
VERTEX
  8
0
  5
AA87
 10
52.4698
 20
202.264
 30
0.000000
  70
    32
  0
VERTEX
  8
0
  5
AA88
 10
52.4755
 20
202.273
 30
0.000000
  70
    32
  0
VERTEX
  8
0
  5
AA89
 10
52.4811
 20
202.282
 30
0.000000
  70
    32
  0
VERTEX
  8
0
  5
AA8A
 10
52.4866
 20
202.291
 30
0.000000
  70
    32
  0
VERTEX
  8
0
  5
AA8B
 10
52.4922
 20
202.300
 30
0.000000
  70
    32
  0
VERTEX
  8
0
  5
AA8C
 10
52.4976
 20
202.309
 30
0.000000
  70
    32
  0
VERTEX
  8
0
  5
AA8D
 10
52.5030
 20
202.318
 30
0.000000
  70
    32
  0
VERTEX
  8
0
  5
AA8E
 10
52.5084
 20
202.327
 30
0.000000
  70
    32
  0
VERTEX
  8
0
  5
AA8F
 10
52.5137
 20
202.337
 30
0.000000
  70
    32
  0
VERTEX
  8
0
  5
AA90
 10
52.5189
 20
202.346
 30
0.000000
  70
    32
  0
VERTEX
  8
0
  5
AA91
 10
52.5241
 20
202.355
 30
0.000000
  70
    32
  0
VERTEX
  8
0
  5
AA92
 10
52.5293
 20
202.364
 30
0.000000
  70
    32
  0
VERTEX
  8
0
  5
AA93
 10
52.5344
 20
202.373
 30
0.000000
  70
    32
  0
VERTEX
  8
0
  5
AA94
 10
52.5394
 20
202.382
 30
0.000000
  70
    32
  0
VERTEX
  8
0
  5
AA95
 10
52.5444
 20
202.392
 30
0.000000
  70
    32
  0
VERTEX
  8
0
  5
AA96
 10
52.5493
 20
202.401
 30
0.000000
  70
    32
  0
VERTEX
  8
0
  5
AA97
 10
52.5542
 20
202.410
 30
0.000000
  70
    32
  0
VERTEX
  8
0
  5
AA98
 10
52.5590
 20
202.419
 30
0.000000
  70
    32
  0
VERTEX
  8
0
  5
AA99
 10
52.5638
 20
202.429
 30
0.000000
  70
    32
  0
VERTEX
  8
0
  5
AA9A
 10
52.5685
 20
202.438
 30
0.000000
  70
    32
  0
VERTEX
  8
0
  5
AA9B
 10
52.5732
 20
202.447
 30
0.000000
  70
    32
  0
VERTEX
  8
0
  5
AA9C
 10
52.5778
 20
202.456
 30
0.000000
  70
    32
  0
VERTEX
  8
0
  5
AA9D
 10
52.5823
 20
202.466
 30
0.000000
  70
    32
  0
VERTEX
  8
0
  5
AA9E
 10
52.5868
 20
202.475
 30
0.000000
  70
    32
  0
VERTEX
  8
0
  5
AA9F
 10
52.5913
 20
202.484
 30
0.000000
  70
    32
  0
VERTEX
  8
0
  5
AAA0
 10
52.5957
 20
202.494
 30
0.000000
  70
    32
  0
VERTEX
  8
0
  5
AAA1
 10
52.6000
 20
202.503
 30
0.000000
  70
    32
  0
VERTEX
  8
0
  5
AAA2
 10
52.6043
 20
202.512
 30
0.000000
  70
    32
  0
VERTEX
  8
0
  5
AAA3
 10
52.6085
 20
202.522
 30
0.000000
  70
    32
  0
VERTEX
  8
0
  5
AAA4
 10
52.6127
 20
202.531
 30
0.000000
  70
    32
  0
VERTEX
  8
0
  5
AAA5
 10
52.6168
 20
202.540
 30
0.000000
  70
    32
  0
VERTEX
  8
0
  5
AAA6
 10
52.6209
 20
202.550
 30
0.000000
  70
    32
  0
VERTEX
  8
0
  5
AAA7
 10
52.6249
 20
202.559
 30
0.000000
  70
    32
  0
VERTEX
  8
0
  5
AAA8
 10
52.6289
 20
202.568
 30
0.000000
  70
    32
  0
VERTEX
  8
0
  5
AAA9
 10
52.6328
 20
202.578
 30
0.000000
  70
    32
  0
VERTEX
  8
0
  5
AAAA
 10
52.6366
 20
202.587
 30
0.000000
  70
    32
  0
VERTEX
  8
0
  5
AAAB
 10
52.6404
 20
202.597
 30
0.000000
  70
    32
  0
VERTEX
  8
0
  5
AAAC
 10
52.6442
 20
202.606
 30
0.000000
  70
    32
  0
VERTEX
  8
0
  5
AAAD
 10
52.6478
 20
202.615
 30
0.000000
  70
    32
  0
VERTEX
  8
0
  5
AAAE
 10
52.6515
 20
202.625
 30
0.000000
  70
    32
  0
VERTEX
  8
0
  5
AAAF
 10
52.6551
 20
202.634
 30
0.000000
  70
    32
  0
VERTEX
  8
0
  5
AAB0
 10
52.6586
 20
202.644
 30
0.000000
  70
    32
  0
VERTEX
  8
0
  5
AAB1
 10
52.6620
 20
202.653
 30
0.000000
  70
    32
  0
VERTEX
  8
0
  5
AAB2
 10
52.6655
 20
202.663
 30
0.000000
  70
    32
  0
VERTEX
  8
0
  5
AAB3
 10
52.6688
 20
202.672
 30
0.000000
  70
    32
  0
VERTEX
  8
0
  5
AAB4
 10
52.6721
 20
202.682
 30
0.000000
  70
    32
  0
VERTEX
  8
0
  5
AAB5
 10
52.6754
 20
202.691
 30
0.000000
  70
    32
  0
VERTEX
  8
0
  5
AAB6
 10
52.6786
 20
202.701
 30
0.000000
  70
    32
  0
VERTEX
  8
0
  5
AAB7
 10
52.6817
 20
202.710
 30
0.000000
  70
    32
  0
VERTEX
  8
0
  5
AAB8
 10
52.6848
 20
202.719
 30
0.000000
  70
    32
  0
VERTEX
  8
0
  5
AAB9
 10
52.6878
 20
202.729
 30
0.000000
  70
    32
  0
VERTEX
  8
0
  5
AABA
 10
52.6908
 20
202.738
 30
0.000000
  70
    32
  0
VERTEX
  8
0
  5
AABB
 10
52.6937
 20
202.748
 30
0.000000
  70
    32
  0
VERTEX
  8
0
  5
AABC
 10
52.6966
 20
202.757
 30
0.000000
  70
    32
  0
VERTEX
  8
0
  5
AABD
 10
52.6994
 20
202.767
 30
0.000000
  70
    32
  0
VERTEX
  8
0
  5
AABE
 10
52.7022
 20
202.777
 30
0.000000
  70
    32
  0
VERTEX
  8
0
  5
AABF
 10
52.7049
 20
202.786
 30
0.000000
  70
    32
  0
VERTEX
  8
0
  5
AAC0
 10
52.7075
 20
202.796
 30
0.000000
  70
    32
  0
VERTEX
  8
0
  5
AAC1
 10
52.7101
 20
202.805
 30
0.000000
  70
    32
  0
VERTEX
  8
0
  5
AAC2
 10
52.7126
 20
202.815
 30
0.000000
  70
    32
  0
VERTEX
  8
0
  5
AAC3
 10
52.7151
 20
202.824
 30
0.000000
  70
    32
  0
VERTEX
  8
0
  5
AAC4
 10
52.7175
 20
202.834
 30
0.000000
  70
    32
  0
VERTEX
  8
0
  5
AAC5
 10
52.7199
 20
202.843
 30
0.000000
  70
    32
  0
VERTEX
  8
0
  5
AAC6
 10
52.7222
 20
202.853
 30
0.000000
  70
    32
  0
VERTEX
  8
0
  5
AAC7
 10
52.7245
 20
202.862
 30
0.000000
  70
    32
  0
VERTEX
  8
0
  5
AAC8
 10
52.7267
 20
202.872
 30
0.000000
  70
    32
  0
VERTEX
  8
0
  5
AAC9
 10
52.7288
 20
202.882
 30
0.000000
  70
    32
  0
VERTEX
  8
0
  5
AACA
 10
52.7309
 20
202.891
 30
0.000000
  70
    32
  0
VERTEX
  8
0
  5
AACB
 10
52.7329
 20
202.901
 30
0.000000
  70
    32
  0
VERTEX
  8
0
  5
AACC
 10
52.7349
 20
202.910
 30
0.000000
  70
    32
  0
VERTEX
  8
0
  5
AACD
 10
52.7368
 20
202.920
 30
0.000000
  70
    32
  0
VERTEX
  8
0
  5
AACE
 10
52.7387
 20
202.930
 30
0.000000
  70
    32
  0
VERTEX
  8
0
  5
AACF
 10
52.7405
 20
202.939
 30
0.000000
  70
    32
  0
VERTEX
  8
0
  5
AAD0
 10
52.7423
 20
202.949
 30
0.000000
  70
    32
  0
VERTEX
  8
0
  5
AAD1
 10
52.7440
 20
202.958
 30
0.000000
  70
    32
  0
VERTEX
  8
0
  5
AAD2
 10
52.7456
 20
202.968
 30
0.000000
  70
    32
  0
VERTEX
  8
0
  5
AAD3
 10
52.7472
 20
202.978
 30
0.000000
  70
    32
  0
VERTEX
  8
0
  5
AAD4
 10
52.7488
 20
202.987
 30
0.000000
  70
    32
  0
VERTEX
  8
0
  5
AAD5
 10
52.7502
 20
202.997
 30
0.000000
  70
    32
  0
VERTEX
  8
0
  5
AAD6
 10
52.7517
 20
203.006
 30
0.000000
  70
    32
  0
VERTEX
  8
0
  5
AAD7
 10
52.7530
 20
203.016
 30
0.000000
  70
    32
  0
VERTEX
  8
0
  5
AAD8
 10
52.7543
 20
203.026
 30
0.000000
  70
    32
  0
VERTEX
  8
0
  5
AAD9
 10
52.7556
 20
203.035
 30
0.000000
  70
    32
  0
VERTEX
  8
0
  5
AADA
 10
52.7568
 20
203.045
 30
0.000000
  70
    32
  0
VERTEX
  8
0
  5
AADB
 10
52.7579
 20
203.055
 30
0.000000
  70
    32
  0
VERTEX
  8
0
  5
AADC
 10
52.7590
 20
203.064
 30
0.000000
  70
    32
  0
VERTEX
  8
0
  5
AADD
 10
52.7601
 20
203.074
 30
0.000000
  70
    32
  0
VERTEX
  8
0
  5
AADE
 10
52.7610
 20
203.083
 30
0.000000
  70
    32
  0
VERTEX
  8
0
  5
AADF
 10
52.7620
 20
203.093
 30
0.000000
  70
    32
  0
VERTEX
  8
0
  5
AAE0
 10
52.7628
 20
203.103
 30
0.000000
  70
    32
  0
VERTEX
  8
0
  5
AAE1
 10
52.7636
 20
203.112
 30
0.000000
  70
    32
  0
VERTEX
  8
0
  5
AAE2
 10
52.7644
 20
203.122
 30
0.000000
  70
    32
  0
VERTEX
  8
0
  5
AAE3
 10
52.7651
 20
203.132
 30
0.000000
  70
    32
  0
VERTEX
  8
0
  5
AAE4
 10
52.7657
 20
203.141
 30
0.000000
  70
    32
  0
VERTEX
  8
0
  5
AAE5
 10
52.7663
 20
203.151
 30
0.000000
  70
    32
  0
VERTEX
  8
0
  5
AAE6
 10
52.7669
 20
203.161
 30
0.000000
  70
    32
  0
VERTEX
  8
0
  5
AAE7
 10
52.7673
 20
203.170
 30
0.000000
  70
    32
  0
VERTEX
  8
0
  5
AAE8
 10
52.7678
 20
203.180
 30
0.000000
  70
    32
  0
VERTEX
  8
0
  5
AAE9
 10
52.7681
 20
203.190
 30
0.000000
  70
    32
  0
VERTEX
  8
0
  5
AAEA
 10
52.7684
 20
203.199
 30
0.000000
  70
    32
  0
VERTEX
  8
0
  5
AAEB
 10
52.7687
 20
203.209
 30
0.000000
  70
    32
  0
VERTEX
  8
0
  5
AAEC
 10
52.7689
 20
203.218
 30
0.000000
  70
    32
  0
VERTEX
  8
0
  5
AAED
 10
52.7690
 20
203.228
 30
0.000000
  70
    32
  0
VERTEX
  8
0
  5
AAEE
 10
52.7691
 20
203.238
 30
0.000000
  70
    32
  0
VERTEX
  8
0
  5
AAEF
 10
52.7691
 20
203.247
 30
0.000000
  70
    32
  0
SEQEND
  8
0
  5
AAF0
  0
LINE
  5
9A4D
  8
0
 10
57.937773979149881
 20
199.86123029622991
 30
0.0
 11
55.701944228613051
 21
202.63918709627239
 31
0.0
  0
LINE
  5
9A4E
  8
0
 10
50.136308493565423
 20
202.63918709627231
 30
0.0
 11
47.900478743028593
 21
199.86123029622979
 31
0.0
  0
LINE
  5
9A4F
  8
0
 10
52.769126361089263
 20
186.94390740902779
 30
0.0
 11
52.769126361089263
 21
203.24743188750381
 31
0.0
  0
LINE
  5
9A50
  8
0
 10
53.069126361089218
 20
203.24743188750381
 30
0.0
 11
53.069126361089332
 21
186.94390740902779
 31
0.0
  0
LINE
  5
9A51
  8
0
 10
55.469126361089202
 20
207.00390740896009
 30
0.0
 11
50.369126361089172
 21
207.00390740896009
 31
0.0
  0
POLYLINE
  5
9A54
  8
0
 66
     1
 10
0.0
 20
0.0
 30
0.0
 70
   128
  0
VERTEX
  5
A635
  8
0
 10
55.41912636109015
 20
169.4439074089257
 30
0.0
  0
VERTEX
  5
A636
  8
0
 10
54.169126361086278
 20
169.5617821258669
 30
0.0
  0
VERTEX
  5
A637
  8
0
 10
52.919126361083102
 20
169.89048939631911
 30
0.0
  0
SEQEND
  5
A638
  8
0
  0
LINE
  5
9A55
  8
0
 10
52.919126361089582
 20
169.89048939631911
 30
0.0
 11
52.919126398598728
 21
172.19732543407559
 31
0.0
  0
POLYLINE
  5
9A56
  8
0
 66
     1
 10
0.0
 20
0.0
 30
0.0
 70
   128
  0
VERTEX
  5
A639
  8
0
 10
52.919126436108002
 20
172.1973254465787
 30
0.0
  0
VERTEX
  5
A63A
  8
0
 10
54.143947051176667
 20
172.5213338197251
 30
0.0
  0
VERTEX
  5
A63B
  8
0
 10
55.419126361089582
 20
172.6439074089632
 30
0.0
  0
SEQEND
  5
A63C
  8
0
  0
POLYLINE
  5
9A57
  8
0
 66
     1
 10
0.0
 20
0.0
 30
0.0
 70
   128
  0
VERTEX
  5
A63D
  8
0
 10
55.419126361089582
 20
172.6439074089632
 30
0.0
  0
VERTEX
  5
A63E
  8
0
 10
56.669126323570083
 20
172.52603269896051
 30
0.0
  0
VERTEX
  5
A63F
  8
0
 10
57.919126286050698
 20
172.1973254465855
 30
0.0
  0
SEQEND
  5
A640
  8
0
  0
POLYLINE
  5
9A59
  8
0
 66
     1
 10
0.0
 20
0.0
 30
0.0
 70
   128
  0
VERTEX
  5
A641
  8
0
 10
57.919126361096062
 20
169.8904893963192
 30
0.0
  0
VERTEX
  5
A642
  8
0
 10
56.694305710354847
 20
169.5664810055757
 30
0.0
  0
VERTEX
  5
A643
  8
0
 10
55.419126361089361
 20
169.44390740892641
 30
0.0
  0
SEQEND
  5
A644
  8
0
  0
POLYLINE
  5
9A5A
  8
0
 66
     1
 10
0.0
 20
0.0
 30
0.0
 70
   128
  0
VERTEX
  5
A645
  8
0
 10
50.419126361089013
 20
169.4439074089257
 30
0.0
  0
VERTEX
  5
A646
  8
0
 10
49.169126361086278
 20
169.5617821258669
 30
0.0
  0
VERTEX
  5
A647
  8
0
 10
47.919126361082988
 20
169.89048939631911
 30
0.0
  0
SEQEND
  5
A648
  8
0
  0
POLYLINE
  5
9A5C
  8
0
 66
     1
 10
0.0
 20
0.0
 30
0.0
 70
   128
  0
VERTEX
  5
A649
  8
0
 10
47.919126436109018
 20
172.19732544657899
 30
0.0
  0
VERTEX
  5
A64A
  8
0
 10
49.143947051177122
 20
172.52133381972521
 30
0.0
  0
VERTEX
  5
A64B
  8
0
 10
50.419126361089582
 20
172.6439074089632
 30
0.0
  0
SEQEND
  5
A64C
  8
0
  0
POLYLINE
  5
9A5D
  8
0
 66
     1
 10
0.0
 20
0.0
 30
0.0
 70
   128
  0
VERTEX
  5
A64D
  8
0
 10
50.419126361089582
 20
172.6439074089632
 30
0.0
  0
VERTEX
  5
A64E
  8
0
 10
51.669126372690869
 20
172.52603268987809
 30
0.0
  0
VERTEX
  5
A64F
  8
0
 10
52.919126384292163
 20
172.19732541383831
 30
0.0
  0
SEQEND
  5
A650
  8
0
  0
POLYLINE
  5
9A5E
  8
0
 66
     1
 10
0.0
 20
0.0
 30
0.0
 70
   128
  0
VERTEX
  5
A651
  8
0
 10
52.919126361096183
 20
169.89048939631911
 30
0.0
  0
VERTEX
  5
A652
  8
0
 10
51.694305710354847
 20
169.56648100557561
 30
0.0
  0
VERTEX
  5
A653
  8
0
 10
50.419126361089461
 20
169.44390740892641
 30
0.0
  0
SEQEND
  5
A654
  8
0
  0
LINE
  5
9A62
  8
0
 10
47.919126361063427
 20
169.44390740894141
 30
0.0
 11
57.919126361090598
 21
169.44390740894141
 31
0.0
  0
LINE
  5
9A66
  8
0
 10
47.919126361089582
 20
172.64390740896451
 30
0.0
 11
57.919126361087301
 21
172.64390740896451
 31
0.0
  0
LINE
  5
9A67
  8
0
 10
47.919126361089582
 20
172.6439074089632
 30
0.0
 11
47.919126361089582
 21
169.44390740894141
 31
0.0
  0
LINE
  5
9A69
  8
0
 10
47.919126361089582
 20
151.44390740896
 30
0.0
 11
57.919126361089532
 21
151.44390740896
 31
0.0
  0
LINE
  5
9A6A
  8
0
 10
52.919126361089688
 20
148.15116683058841
 30
0.0
 11
52.919126361089582
 21
151.44390740896
 31
0.0
  0
POLYLINE
  5
9A6B
  8
0
 66
     1
 10
0.0
 20
0.0
 30
0.0
 70
   128
  0
VERTEX
  5
A655
  8
0
 10
52.919126361098449
 20
148.15116683061589
 30
0.0
  0
VERTEX
  5
A656
  8
0
 10
51.674746697685293
 20
147.9990965506783
 30
0.0
  0
VERTEX
  5
A657
  8
0
 10
50.419126361089582
 20
147.94390740897029
 30
0.0
  0
SEQEND
  5
A658
  8
0
  0
POLYLINE
  5
9A6C
  8
0
 66
     1
 10
0.0
 20
0.0
 30
0.0
 70
   128
  0
VERTEX
  5
A659
  8
0
 10
50.419126361089582
 20
147.94390740897029
 30
0.0
  0
VERTEX
  5
A65A
  8
0
 10
49.169126361090598
 20
147.99861325548719
 30
0.0
  0
VERTEX
  5
A65B
  8
0
 10
47.919126361091621
 20
148.1511668306143
 30
0.0
  0
SEQEND
  5
A65C
  8
0
  0
LINE
  5
9A6D
  8
0
 10
47.919126361089582
 20
151.44390740896
 30
0.0
 11
47.919126361090662
 21
147.94390740896711
 31
0.0
  0
LINE
  5
9A6F
  8
0
 10
57.919126361088608
 20
147.94390740896711
 30
0.0
 11
57.919126361089582
 21
151.44390740896009
 31
0.0
  0
POLYLINE
  5
9A70
  8
0
 66
     1
 10
0.0
 20
0.0
 30
0.0
 70
   128
  0
VERTEX
  5
A65D
  8
0
 10
57.919126361087649
 20
148.1511668306143
 30
0.0
  0
VERTEX
  5
A65E
  8
0
 10
56.674746697679829
 20
147.99909655067779
 30
0.0
  0
VERTEX
  5
A65F
  8
0
 10
55.419126361089688
 20
147.94390740897029
 30
0.0
  0
SEQEND
  5
A660
  8
0
  0
POLYLINE
  5
9A71
  8
0
 66
     1
 10
0.0
 20
0.0
 30
0.0
 70
   128
  0
VERTEX
  5
A661
  8
0
 10
55.419126361089688
 20
147.94390740897029
 30
0.0
  0
VERTEX
  5
A662
  8
0
 10
54.169126361085262
 20
147.9986132554877
 30
0.0
  0
VERTEX
  5
A663
  8
0
 10
52.919126361080828
 20
148.15116683061589
 30
0.0
  0
SEQEND
  5
A664
  8
0
  0
LINE
  5
9A74
  8
0
 10
48.46912636108965
 20
151.94390740896
 30
0.0
 11
57.369126361089627
 21
151.94390740896
 31
0.0
  0
LINE
  5
9A78
  8
0
 10
47.919126361101398
 20
147.94390740896711
 30
0.0
 11
57.919126361089582
 21
147.94390740896711
 31
0.0
  0
LINE
  5
9A79
  8
0
 10
55.919126361089468
 20
186.33040740896021
 30
0.0
 11
49.919126361089461
 21
186.33040740896001
 31
0.0
  0
LINE
  5
9A7B
  8
0
 10
55.305626361016202
 20
186.94390740902779
 30
0.0
 11
50.532626361162841
 21
186.94390740902779
 31
0.0
  0
LINE
  5
9A88
  8
0
 10
227.96912637984431
 20
43.603907408969519
 30
0.0
 11
227.96912637984431
 21
45.603907408969597
 31
0.0
  0
LINE
  5
9A89
  8
0
 10
227.96912637984431
 20
50.70390740896957
 30
0.0
 11
227.96912637984431
 21
52.703907408969542
 31
0.0
  0
ARC
  5
9A94
  8
0
 10
158.41912637984419
 20
48.153907408969623
 30
0.0
 40
6.4613248654116404
 50
148.34446101399189
 51
211.65553898600811
  0
ARC
  5
9A95
  8
0
 10
158.41912637984419
 20
48.153907408969623
 30
0.0
 40
6.4613248654116564
 50
331.83323908455498
 51
28.166760915445039
  0
ARC
  5
9A96
  8
0
 10
158.41912637984419
 20
48.153907408969623
 30
0.0
 40
6.7499999999999991
 50
144.5690553126627
 51
215.4309446873373
  0
ARC
  5
9A97
  8
0
 10
158.41912637984419
 20
48.153907408969623
 30
0.0
 40
6.7499999999999982
 50
333.137440942642
 51
26.86255905736094
  0
LINE
  5
9A98
  8
0
 10
196.9191263798443
 20
39.482695861501128
 30
0.0
 11
196.9191263798443
 21
56.825118956438132
 31
0.0
  0
POLYLINE
  5
9A99
  8
0
 66
     1
 10
0.0
 20
0.0
 30
0.0
 70
   128
  0
VERTEX
  5
A665
  8
0
 10
197.08176414011029
 20
39.403907408969559
 30
0.0
  0
VERTEX
  5
A666
  8
0
 10
196.92923942864579
 20
39.447529108229531
 30
0.0
  0
VERTEX
  5
A667
  8
0
 10
196.91912637984419
 20
39.482695861501128
 30
0.0
  0
SEQEND
  5
A668
  8
0
  0
ARC
  5
9A9C
  8
0
 10
190.4191263798443
 20
48.153907408969623
 30
0.0
 40
3.0499999999999998
 50
270.0
 51
90.0
  0
LINE
  5
9A9D
  8
0
 10
162.4317107507122
 20
51.20390740896962
 30
0.0
 11
190.4191263798443
 21
51.20390740896962
 31
0.0
  0
LINE
  5
9A9E
  8
0
 10
190.4191263798443
 20
45.103907408969597
 30
0.0
 11
162.43171075071211
 21
45.103907408969597
 31
0.0
  0
LINE
  5
9A9F
  8
0
 10
152.91912637984419
 20
39.403907408969559
 30
0.0
 11
152.9191263798443
 21
47.680186850598517
 31
0.0
  0
LINE
  5
9AA0
  8
0
 10
152.9191263798443
 20
48.627627967340942
 30
0.0
 11
152.9191263798441
 21
56.903907408969559
 31
0.0
  0
POLYLINE
  5
9AA4
  8
0
 66
     1
 10
0.0
 20
0.0
 30
0.0
 70
   128
  0
VERTEX
  5
A669
  8
0
 10
196.91912637984419
 20
56.825118956438047
 30
0.0
  0
VERTEX
  5
A66A
  8
0
 10
197.0108089265735
 20
56.899325641315642
 30
0.0
  0
VERTEX
  5
A66B
  8
0
 10
197.08176414011029
 20
56.903907408969559
 30
0.0
  0
SEQEND
  5
A66C
  8
0
  0
LINE
  5
9AA6
  8
0
 10
214.27507479056129
 20
48.740810532905037
 30
0.0
 11
214.24369117490869
 21
48.754998890422108
 31
0.0
  0
LINE
  5
9AA7
  8
0
 10
213.7080238289164
 20
48.999396609891299
 30
0.0
 11
214.24369117490869
 21
48.754998890422108
 31
0.0
  0
LINE
  5
9AA9
  8
0
 10
215.26561549799229
 20
50.936725276493434
 30
0.0
 11
213.7080238289164
 21
51.66050469824696
 31
0.0
  0
ARC
  5
9AAA
  8
0
 10
216.31912637984419
 20
53.203907408969343
 30
0.0
 40
2.4999999999997291
 50
245.07671806159479
 51
270.0
  0
ARC
  5
9AAC
  8
0
 10
216.31912637984419
 20
43.103907408969718
 30
0.0
 40
2.4999999999998721
 50
90.0
 51
114.9232819384052
  0
LINE
  5
9AAD
  8
0
 10
213.7080238289164
 20
44.6473101196922
 30
0.0
 11
215.26561549799229
 21
45.371089541445798
 31
0.0
  0
LINE
  5
9AAF
  8
0
 10
214.24369117490869
 20
47.552815927517109
 30
0.0
 11
213.7080238289164
 21
47.308418208047861
 31
0.0
  0
LINE
  5
9AB0
  8
0
 10
214.24369117490869
 20
47.552815927517059
 30
0.0
 11
214.27507479056129
 21
47.56700428503413
 31
0.0
  0
LINE
  5
9AB1
  8
0
 10
214.27507479056129
 20
48.740810532905037
 30
0.0
 11
214.27507479056129
 21
47.56700428503413
 31
0.0
  0
LINE
  5
9AB2
  8
0
 10
233.4670724773425
 20
50.703907408969627
 30
0.0
 11
216.31912637984431
 21
50.703907408969627
 31
0.0
  0
LINE
  5
9AB3
  8
0
 10
216.31912637984431
 20
45.603907408969597
 30
0.0
 11
233.41707247737759
 21
45.603907408969569
 31
0.0
  0
LINE
  5
9AC1
  8
0
 10
213.7080238289164
 20
47.308418208047861
 30
0.0
 11
212.70802382891631
 21
46.852169154791817
 31
0.0
  0
LINE
  5
9AC2
  8
0
 10
212.70802382891631
 20
44.182631580301369
 30
0.0
 11
213.7080238289164
 21
44.6473101196922
 31
0.0
  0
LINE
  5
9AC4
  8
0
 10
212.70802382891631
 20
49.455645663147287
 30
0.0
 11
213.7080238289164
 21
48.999396609891299
 31
0.0
  0
LINE
  5
9AC5
  8
0
 10
213.7080238289164
 20
51.66050469824696
 30
0.0
 11
212.70802382891631
 21
52.125183237637799
 31
0.0
  0
ARC
  5
9AC6
  8
0
 10
201.31912637984431
 20
44.403907408969317
 30
0.0
 40
4.9999999999997904
 50
270.0
 51
294.92328193840518
  0
ARC
  5
9AC7
  8
0
 10
201.31912637984431
 20
44.403907408969268
 30
0.0
 40
2.49999999999969
 50
270.0
 51
294.52479798774141
  0
LINE
  5
9AC8
  8
0
 10
152.91912637984419
 20
39.403907408969559
 30
0.0
 11
201.31912637984431
 21
39.403907408969559
 31
0.0
  0
LINE
  5
9AC9
  8
0
 10
212.70802382891631
 20
46.852169154791817
 30
0.0
 11
211.41912637984441
 21
46.264110913908702
 31
0.0
  0
LINE
  5
9ACA
  8
0
 10
201.31912637984431
 20
41.903907408969559
 30
0.0
 11
196.9191263798443
 21
41.90390740896958
 31
0.0
  0
LINE
  5
9ACB
  8
0
 10
203.4261481435484
 20
39.869543144017172
 30
0.0
 11
209.6699560757699
 21
42.770906694198878
 31
0.0
  0
ARC
  5
9ACC
  8
0
 10
201.31912637984431
 20
51.903907408969793
 30
0.0
 40
4.9999999999998437
 50
65.076718061594804
 51
90.0
  0
ARC
  5
9ACD
  8
0
 10
201.31912637984439
 20
51.903907408969957
 30
0.0
 40
2.4999999999996438
 50
65.475202012258634
 51
90.0
  0
LINE
  5
9ACE
  8
0
 10
201.31912637984431
 20
56.903907408969559
 30
0.0
 11
152.91912637984419
 21
56.903907408969559
 31
0.0
  0
LINE
  5
9ACF
  8
0
 10
202.35684398231211
 20
54.178361668243348
 30
0.0
 11
208.91912637984461
 21
51.184326537170499
 31
0.0
  0
LINE
  5
9AD0
  8
0
 10
196.91912637984419
 20
54.40390740896953
 30
0.0
 11
201.31912637984439
 21
54.403907408969559
 31
0.0
  0
LINE
  5
9AD1
  8
0
 10
212.70802382891631
 20
52.125183237637799
 30
0.0
 11
212.0538347978277
 21
52.429170841089586
 31
0.0
  0
LINE
  5
9AE2
  8
0
 10
155.53237503389491
 20
53.153907408967733
 30
0.0
 11
152.6456236879479
 21
48.153907408969701
 31
0.0
  0
LINE
  5
9AE5
  8
0
 10
161.30587772579011
 20
53.153907408969793
 30
0.0
 11
155.5323750338961
 21
53.153907408969758
 31
0.0
  0
LINE
  5
9AE6
  8
0
 10
161.30587772579361
 20
43.153907408971783
 30
0.0
 11
164.1926290717405
 21
48.153907408969722
 31
0.0
  0
LINE
  5
9AE9
  8
0
 10
155.53237503389849
 20
43.153907408969793
 30
0.0
 11
161.3058777257925
 21
43.153907408969793
 31
0.0
  0
LINE
  5
9AEF
  8
0
 10
152.64562368794279
 20
48.153907408978597
 30
0.0
 11
155.5323750338961
 21
43.153907408969808
 31
0.0
  0
LINE
  5
9AF1
  8
0
 10
164.19262907173939
 20
48.153907408971548
 30
0.0
 11
161.30587772579261
 21
53.153907408969758
 31
0.0
  0
LINE
  5
9B02
  8
0
 10
435.2191263798444
 20
151.94390740896409
 30
0.0
 11
435.2191263798444
 21
151.44390740896409
 31
0.0
  0
LINE
  5
9B03
  8
0
 10
444.11912637984449
 20
151.44390740896401
 30
0.0
 11
444.11912637984449
 21
151.94390740896401
 31
0.0
  0
LINE
  5
9B05
  8
0
 10
436.6691263798445
 20
155.15390740895899
 30
0.0
 11
436.66912637984439
 21
151.94390740896401
 31
0.0
  0
LINE
  5
9B06
  8
0
 10
442.66912637984439
 20
151.94390740896401
 30
0.0
 11
442.66912637984439
 21
155.15390740895899
 31
0.0
  0
LINE
  5
9B2A
  8
0
 10
437.11912637984437
 20
173.65390740896399
 30
0.0
 11
437.1691263798445
 21
173.65390740896399
 31
0.0
  0
LINE
  5
9B2B
  8
0
 10
437.11912637984432
 20
174.52448599770261
 30
0.0
 11
437.11912637984437
 21
173.65390740896399
 31
0.0
  0
LINE
  5
9B2C
  8
0
 10
442.2191263798444
 20
173.65390740896399
 30
0.0
 11
442.2191263798444
 21
174.47448599773759
 31
0.0
  0
ARC
  5
9B2E
  8
0
 10
435.8800112530476
 20
173.66008031185751
 30
0.0
 40
1.2563769279542849
 50
9.5086576141936536
 51
32.825381125460233
  0
ARC
  5
9B2F
  8
0
 10
443.37198670379018
 20
173.69694904169859
 30
0.0
 40
1.1654264299313091
 50
147.42105016667
 51
171.57855609688909
  0
LINE
  5
9B3B
  8
0
 10
448.15515143990581
 20
178.1539074089639
 30
0.0
 11
448.41912637984439
 21
178.1539074089641
 31
0.0
  0
LINE
  5
9B3E
  8
0
 10
431.18310131978501
 20
178.15390740896399
 30
0.0
 11
430.91912637984439
 21
178.1539074089641
 31
0.0
  0
POLYLINE
  5
9B3F
  8
0
 66
     1
 10
0.0
 20
0.0
 30
0.0
 70
   128
  0
VERTEX
  5
A66D
  8
0
 10
448.41912637984439
 20
176.94390740896401
 30
0.0
  0
VERTEX
  5
A66E
  8
0
 10
448.37550468058453
 20
176.35478030770901
 30
0.0
  0
VERTEX
  5
A66F
  8
0
 10
448.34033792731287
 20
176.1539074089641
 30
0.0
  0
SEQEND
  5
A670
  8
0
  0
LINE
  5
9B41
  8
0
 10
448.41912637984439
 20
176.94390740896401
 30
0.0
 11
448.41912637984427
 21
182.49295984054621
 31
0.0
  0
POLYLINE
  5
9B43
  8
0
 66
     1
 10
0.0
 20
0.0
 30
0.0
 70
   128
  0
VERTEX
  5
A671
  8
0
 10
430.9979148323759
 20
176.1539074089641
 30
0.0
  0
VERTEX
  5
A672
  8
0
 10
430.9237081474983
 20
176.7525095285248
 30
0.0
  0
VERTEX
  5
A673
  8
0
 10
430.91912637984439
 20
176.94390740896409
 30
0.0
  0
SEQEND
  5
A674
  8
0
  0
LINE
  5
9B45
  8
0
 10
430.91912637984439
 20
176.94390740896409
 30
0.0
 11
430.91912637984439
 21
182.49295984054621
 31
0.0
  0
ARC
  5
9B4A
  8
0
 10
434.91912637984439
 20
176.94390740896401
 30
0.0
 40
3.9999999999999849
 50
191.39080377545639
 51
234.9003678046071
  0
ARC
  5
9B4B
  8
0
 10
444.41912637984439
 20
176.94390740896401
 30
0.0
 40
3.9999999999999938
 50
305.09963219539651
 51
348.6091962245435
  0
LINE
  5
9B63
  8
0
 10
435.1191263798446
 20
151.44390740896409
 30
0.0
 11
444.21912637984269
 21
151.44390740896401
 31
0.0
  0
LINE
  5
9B64
  8
0
 10
439.66912637984439
 20
148.1511668306353
 30
0.0
 11
439.66912637984439
 21
151.44390740896401
 31
0.0
  0
POLYLINE
  5
9B65
  8
0
 66
     1
 10
0.0
 20
0.0
 30
0.0
 70
   128
  0
VERTEX
  5
A675
  8
0
 10
439.66912637984262
 20
148.15116683061831
 30
0.0
  0
VERTEX
  5
A676
  8
0
 10
438.42474671643481
 20
147.9990965506818
 30
0.0
  0
VERTEX
  5
A677
  8
0
 10
437.16912637984439
 20
147.94390740897421
 30
0.0
  0
SEQEND
  5
A678
  8
0
  0
POLYLINE
  5
9B66
  8
0
 66
     1
 10
0.0
 20
0.0
 30
0.0
 70
   128
  0
VERTEX
  5
A679
  8
0
 10
437.16912637984439
 20
147.94390740897421
 30
0.0
  0
VERTEX
  5
A67A
  8
0
 10
435.91912637984552
 20
147.99861325549119
 30
0.0
  0
VERTEX
  5
A67B
  8
0
 10
434.66912637984638
 20
148.15116683061831
 30
0.0
  0
SEQEND
  5
A67C
  8
0
  0
LINE
  5
9B67
  8
0
 10
434.66912637984541
 20
147.943907408971
 30
0.0
 11
434.66912637984541
 21
148.1539074089591
 31
0.0
  0
LINE
  5
9B69
  8
0
 10
444.66912637984342
 20
147.943907408971
 30
0.0
 11
444.66912637984342
 21
148.1539074089591
 31
0.0
  0
POLYLINE
  5
9B6A
  8
0
 66
     1
 10
0.0
 20
0.0
 30
0.0
 70
   128
  0
VERTEX
  5
A67D
  8
0
 10
444.66912637984251
 20
148.15116683061831
 30
0.0
  0
VERTEX
  5
A67E
  8
0
 10
443.4247467164347
 20
147.99909655068171
 30
0.0
  0
VERTEX
  5
A67F
  8
0
 10
442.16912637984439
 20
147.94390740897421
 30
0.0
  0
SEQEND
  5
A680
  8
0
  0
POLYLINE
  5
9B6B
  8
0
 66
     1
 10
0.0
 20
0.0
 30
0.0
 70
   128
  0
VERTEX
  5
A681
  8
0
 10
442.16912637984439
 20
147.94390740897421
 30
0.0
  0
VERTEX
  5
A682
  8
0
 10
440.91912637984541
 20
147.99861325549119
 30
0.0
  0
VERTEX
  5
A683
  8
0
 10
439.6691263798462
 20
148.15116683061831
 30
0.0
  0
SEQEND
  5
A684
  8
0
  0
LINE
  5
9B6D
  8
0
 10
435.2191263798444
 20
151.94390740896409
 30
0.0
 11
444.11912637984449
 21
151.94390740896401
 31
0.0
  0
LINE
  5
9B71
  8
0
 10
434.66912637985621
 20
147.94390740897111
 30
0.0
 11
444.66912637984439
 21
147.94390740897111
 31
0.0
  0
ARC
  5
9B80
  8
0
 10
304.27868742170131
 20
120.8733239457014
 30
0.0
 40
90.321427356543367
 50
89.752322623931377
 51
100.9195041212982
  0
ARC
  5
9B81
  8
0
 10
305.05960398597313
 20
120.8737377382097
 30
0.0
 40
90.321013734976901
 50
79.080470227614427
 51
90.247703027154316
  0
ARC
  5
9B83
  8
0
 10
305.01773566883782
 20
250.10856719560971
 30
0.0
 40
67.615558464756305
 50
269.70459565959078
 51
284.69422302346658
  0
ARC
  5
9B84
  8
0
 10
304.320845273668
 20
250.11116524550189
 30
0.0
 40
67.618154788949695
 50
255.30606640637981
 51
270.29511491056343
  0
LINE
  5
9B86
  8
0
 10
305.37314216675622
 20
200.74390740895919
 30
0.0
 11
303.96511059293238
 21
200.74390740895919
 31
0.0
  0
LINE
  5
9B87
  8
0
 10
305.37314216675622
 20
194.24390740895919
 30
0.0
 11
305.37314216675622
 21
200.74390740895919
 31
0.0
  0
LINE
  5
9B88
  8
0
 10
303.96511059293238
 20
200.74390740895919
 30
0.0
 11
303.96511059293238
 21
194.24390740895919
 31
0.0
  0
LINE
  5
9B89
  8
0
 10
303.96511059293238
 20
194.24390740895919
 30
0.0
 11
305.37314216675622
 21
194.24390740895919
 31
0.0
  0
LINE
  5
9B8A
  8
0
 10
310.37185914966261
 20
194.24390740895919
 30
0.0
 11
310.37185914966261
 21
200.74390740895919
 31
0.0
  0
LINE
  5
9B8B
  8
0
 10
308.96945798623477
 20
200.74390740895919
 30
0.0
 11
308.96945798623477
 21
194.24390740895919
 31
0.0
  0
LINE
  5
9B8C
  8
0
 10
308.96945798623477
 20
200.74390740895919
 30
0.0
 11
310.37185914966261
 21
200.74390740895919
 31
0.0
  0
LINE
  5
9B8D
  8
0
 10
308.96945798623477
 20
194.24390740895919
 30
0.0
 11
310.37185914966261
 21
194.24390740895919
 31
0.0
  0
LINE
  5
9B8E
  8
0
 10
300.36879477345428
 20
194.24390740895919
 30
0.0
 11
300.36879477345428
 21
200.74390740895919
 31
0.0
  0
LINE
  5
9B8F
  8
0
 10
298.96639361002622
 20
200.74390740895919
 30
0.0
 11
298.96639361002622
 21
194.24390740895919
 31
0.0
  0
LINE
  5
9B90
  8
0
 10
298.96639361002622
 20
200.74390740895919
 30
0.0
 11
300.36879477345428
 21
200.74390740895919
 31
0.0
  0
LINE
  5
9B91
  8
0
 10
298.96639361002622
 20
194.24390740895919
 30
0.0
 11
300.36879477345428
 21
194.24390740895919
 31
0.0
  0
LINE
  5
9B9E
  8
0
 10
295.35656486272768
 20
194.24390740895919
 30
0.0
 11
295.35656486272768
 21
200.7439074089591
 31
0.0
  0
LINE
  5
9B9F
  8
0
 10
293.97120217309202
 20
200.74390740895919
 30
0.0
 11
293.97120217309202
 21
194.24390740895919
 31
0.0
  0
LINE
  5
9BA0
  8
0
 10
293.97120217309202
 20
200.74390740895919
 30
0.0
 11
295.35656486272768
 21
200.7439074089591
 31
0.0
  0
LINE
  5
9BA1
  8
0
 10
293.97120217309202
 20
194.24390740895919
 30
0.0
 11
295.35656486272768
 21
194.24390740895919
 31
0.0
  0
LINE
  5
9BA2
  8
0
 10
315.36705058659709
 20
194.24390740895919
 30
0.0
 11
315.36705058659709
 21
200.7439074089591
 31
0.0
  0
LINE
  5
9BA3
  8
0
 10
313.98168789696138
 20
200.74390740895919
 30
0.0
 11
313.98168789696138
 21
194.24390740895919
 31
0.0
  0
LINE
  5
9BA4
  8
0
 10
313.98168789696138
 20
200.74390740895919
 30
0.0
 11
315.36705058659709
 21
200.7439074089591
 31
0.0
  0
LINE
  5
9BA5
  8
0
 10
313.98168789696138
 20
194.24390740895919
 30
0.0
 11
315.36705058659709
 21
194.24390740895919
 31
0.0
  0
ARC
  5
9BAF
  8
0
 10
317.8048674886254
 20
210.56902334353239
 30
0.0
 40
26.230153096281811
 50
279.5776014099647
 51
310.90345711961282
  0
ARC
  5
9BB0
  8
0
 10
315.1655927239263
 20
168.8582822265455
 30
0.0
 40
41.299296395904449
 50
61.32920847537288
 51
80.236601170665992
  0
ARC
  5
9BB1
  8
0
 10
291.53338527106308
 20
210.56902334353279
 30
0.0
 40
26.230153096282042
 50
229.09654288039539
 51
260.42239859002859
  0
ARC
  5
9BB3
  8
0
 10
294.17121958499177
 20
168.86241466727989
 30
0.0
 40
41.294979542318437
 50
99.762401499748421
 51
118.6717888542122
  0
ARC
  5
9BB4
  8
0
 10
280.58486155358378
 20
199.74070288821201
 30
0.0
 40
10.94135179701302
 50
216.3903143248146
 51
235.31314065479569
  0
LINE
  5
9BB5
  8
0
 10
271.77713789466139
 20
201.0939074089591
 30
0.0
 11
271.77713789464309
 21
193.24938691271529
 31
0.0
  0
LINE
  5
9BB6
  8
0
 10
270.48471150919357
 20
201.0939074089591
 30
0.0
 11
271.77713789466139
 21
201.0939074089591
 31
0.0
  0
LINE
  5
9BB7
  8
0
 10
270.48471150919357
 20
200.89390740895911
 30
0.0
 11
270.48471150919357
 21
201.0939074089591
 31
0.0
  0
ARC
  5
9BB8
  8
0
 10
277.33277002371159
 20
198.01109919717331
 30
0.0
 40
7.6820581488530291
 50
112.7807094858106
 51
157.959302286487
  0
ARC
  5
9BB9
  8
0
 10
328.7541557004381
 20
199.74013495655561
 30
0.0
 40
10.940449738703199
 50
304.6852598453541
 51
356.0889257712119
  0
ARC
  5
9BBA
  8
0
 10
331.87335973268461
 20
197.85352482830709
 30
0.0
 40
7.878734038361074
 50
8.3223308800560467
 51
66.77711455548706
  0
LINE
  5
9BBD
  8
0
 10
264.33327996434127
 20
187.89390740895911
 30
0.0
 11
278.36563423159492
 21
187.89390740895911
 31
0.0
  0
ARC
  5
9BBE
  8
0
 10
264.33327996434127
 20
177.8939074089588
 30
0.0
 40
10.000000000000171
 50
90.0
 51
130.00000000000361
  0
LINE
  5
9BBF
  8
0
 10
245.54003345249339
 20
175.17857408556671
 30
0.0
 11
257.9054038674758
 21
185.5543518401488
 31
0.0
  0
ARC
  5
9BC0
  8
0
 10
240.71912637984451
 20
180.923907408959
 30
0.0
 40
7.5000000000000266
 50
218.83091833222781
 51
310.00000000000358
  0
LINE
  5
9BC1
  8
0
 10
219.51612834451569
 20
195.3047375071782
 30
0.0
 11
234.87662848484939
 21
176.22122537133669
 31
0.0
  0
ARC
  5
9BC2
  8
0
 10
224.96912637984451
 20
199.69390740895901
 30
0.0
 40
7.0000000000000373
 50
71.37999999999866
 51
218.83091833222781
  0
LINE
  5
9BC3
  8
0
 10
241.77759997355429
 20
201.41733726427961
 30
0.0
 11
227.20415724396111
 21
206.32750651023471
 31
0.0
  0
ARC
  5
9BC4
  8
0
 10
244.97050120800691
 20
210.89390740895919
 30
0.0
 40
10.000000000000099
 50
251.3799999999986
 51
270.0
  0
LINE
  5
9BC5
  8
0
 10
271.77713789466088
 20
200.89390740895911
 30
0.0
 11
244.97050120800691
 21
200.89390740895911
 31
0.0
  0
LINE
  5
9BC6
  8
0
 10
240.96912637984451
 20
202.89390740895911
 30
0.0
 11
240.96912637984431
 21
201.68973289856169
 31
0.0
  0
LINE
  5
9BC7
  8
0
 10
240.96912637984451
 20
202.89390740895911
 30
0.0
 11
245.96912637984451
 21
202.89390740895911
 31
0.0
  0
LINE
  5
9BC8
  8
0
 10
245.96912637984451
 20
202.89390740895911
 30
0.0
 11
245.96912637984451
 21
200.89390740895911
 31
0.0
  0
LINE
  5
9BC9
  8
0
 10
217.96925673408299
 20
318.2447514731868
 30
0.0
 11
217.96925673408299
 21
315.79475147318669
 31
0.0
  0
LINE
  5
9BCA
  8
0
 10
217.96925673408299
 20
306.59475147318659
 30
0.0
 11
217.96925673408299
 21
304.14475147318677
 31
0.0
  0
ARC
  5
9BCD
  8
0
 10
304.66925673408258
 20
276.36227726921197
 30
0.0
 40
55.832474203974868
 50
90.0
 51
108.2665224209137
  0
ARC
  5
9BCE
  8
0
 10
304.66925673408309
 20
346.0272256771637
 30
0.0
 40
55.832474203977029
 50
251.7334775790863
 51
270.0
  0
ARC
  5
9BD0
  8
0
 10
304.66925673408292
 20
276.3622772692114
 30
0.0
 40
55.832474203975487
 50
71.733477579086227
 51
90.0
  0
ARC
  5
9BD1
  8
0
 10
304.66925673408292
 20
346.02722567716393
 30
0.0
 40
55.832474203977142
 50
270.0
 51
288.26652242091382
  0
ARC
  5
9BD2
  8
0
 10
297.0212146345491
 20
323.94715551127308
 30
0.0
 40
32.469661673445401
 50
225.7356438482386
 51
252.33684308761619
  0
ARC
  5
9BD4
  8
0
 10
297.02121463454858
 20
298.44234743510071
 30
0.0
 40
32.469661673444911
 50
107.6631569123833
 51
134.26435615176129
  0
ARC
  5
9BD6
  8
0
 10
312.31544111231511
 20
323.95025171344258
 30
0.0
 40
32.473175591873449
 50
287.66462258712278
 51
314.26289047702278
  0
ARC
  5
9BD7
  8
0
 10
312.31544111231477
 20
298.43925123293042
 30
0.0
 40
32.473175591874131
 50
45.737109522977192
 51
72.335377412877179
  0
ARC
  5
9BD8
  8
0
 10
260.95354550826869
 20
311.19475147318678
 30
0.0
 40
9.0030496803872122
 50
349.59741683429343
 51
10.402583165708201
  0
ARC
  5
9BD9
  8
0
 10
284.85134862574961
 20
310.71168493946891
 30
0.0
 40
15.18981241676982
 50
133.69273158889129
 51
172.02028158114419
  0
ARC
  5
9BDA
  8
0
 10
284.85134862574859
 20
311.67781800690398
 30
0.0
 40
15.18981241676874
 50
187.97971841885411
 51
226.30726841110871
  0
ARC
  5
9BDB
  8
0
 10
317.39627637041821
 20
307.5450758625384
 30
0.0
 40
22.570019635418419
 50
9.3058501688633584
 51
38.82350660832207
  0
ARC
  5
9BDC
  8
0
 10
317.39627637041758
 20
314.84442708383563
 30
0.0
 40
22.57001963541946
 50
321.17649339167798
 51
350.69414983113501
  0
ARC
  5
9BDD
  8
0
 10
303.76968100636208
 20
290.0019730768455
 30
0.0
 40
0.2000000000001677
 50
12.095498113877699
 51
89.080102963851743
  0
ARC
  5
9BDE
  8
0
 10
305.56883246180382
 20
290.0019730768455
 30
0.0
 40
0.2000000000002471
 50
90.919897036135239
 51
167.90450188609381
  0
ARC
  5
9BDF
  8
0
 10
304.66925673408292
 20
290.19475147318678
 30
0.0
 40
0.7200000000000829
 50
192.0954981138847
 51
347.9045018861184
  0
ARC
  5
9BE0
  8
0
 10
305.56883246180382
 20
332.38752986952812
 30
0.0
 40
0.2000000000001915
 50
192.09549811390929
 51
269.0801029638518
  0
ARC
  5
9BE1
  8
0
 10
303.76968100636208
 20
332.38752986952812
 30
0.0
 40
0.2000000000002471
 50
270.91989703615479
 51
347.90450188609537
  0
ARC
  5
9BE2
  8
0
 10
304.66925673408292
 20
332.19475147318678
 30
0.0
 40
0.7200000000000829
 50
12.09549811388316
 51
167.9045018861168
  0
ARC
  5
9BE3
  8
0
 10
300.55995899014903
 20
332.24386491193201
 30
0.0
 40
0.2000000000028689
 50
197.22111670347491
 51
274.20581814638467
  0
ARC
  5
9BE4
  8
0
 10
298.76800194798852
 20
332.08312935681658
 30
0.0
 40
0.2000000000002366
 50
276.04551562555309
 51
353.03012047548867
  0
ARC
  5
9BE5
  8
0
 10
299.68120322285858
 20
331.97148961668779
 30
0.0
 40
0.7200000000000264
 50
17.221116703322949
 51
173.03012047552019
  0
ARC
  5
9BE6
  8
0
 10
310.57051152017721
 20
290.30637358955693
 30
0.0
 40
0.2000000000001733
 50
96.045515625533554
 51
173.030120475502
  0
ARC
  5
9BE7
  8
0
 10
309.6573102453072
 20
290.41801332968572
 30
0.0
 40
0.7200000000000264
 50
197.22111670332291
 51
353.03012047551658
  0
ARC
  5
9BE8
  8
0
 10
298.76800194798852
 20
290.30637358955693
 30
0.0
 40
0.2000000000002297
 50
6.9698795244963216
 51
83.954484374433719
  0
ARC
  5
9BE9
  8
0
 10
300.5599589901467
 20
290.14563803444321
 30
0.0
 40
0.200000000000209
 50
85.794278446732861
 51
162.77888329668011
  0
ARC
  5
9BEA
  8
0
 10
299.68120322285858
 20
290.41801332968572
 30
0.0
 40
0.7200000000001428
 50
186.96987952448501
 51
342.77888329670952
  0
ARC
  5
9BEB
  8
0
 10
310.57051152017721
 20
332.08312935681681
 30
0.0
 40
0.2000000000002283
 50
186.96987952453071
 51
263.95448437447288
  0
ARC
  5
9BEC
  8
0
 10
309.6573102453072
 20
331.97148961668779
 30
0.0
 40
0.7200000000000884
 50
6.969879524485008
 51
162.77888329670699
  0
ARC
  5
9BED
  8
0
 10
315.56708221011451
 20
331.3247696191155
 30
0.0
 40
0.2000000000012365
 50
181.8003902700695
 51
258.78499511978021
  0
ARC
  5
9BEE
  8
0
 10
313.79689655113452
 20
331.64631073991029
 30
0.0
 40
0.2000000000000394
 50
260.6247891921052
 51
337.60940173789851
  0
ARC
  5
9BEF
  8
0
 10
314.64753637143582
 20
331.2958654572804
 30
0.0
 40
0.7200000000002178
 50
1.8003902699179239
 51
157.6093919044057
  0
ARC
  5
9BF0
  8
0
 10
293.77143125805202
 20
291.06473332725812
 30
0.0
 40
0.2000000000011796
 50
1.8003902700678709
 51
78.784995119833241
  0
ARC
  5
9BF1
  8
0
 10
294.69097709673042
 20
291.093637489093
 30
0.0
 40
0.7200000000000579
 50
181.8003902699146
 51
337.60939404213491
  0
ARC
  5
9BF2
  8
0
 10
293.77143125805202
 20
331.3247696191155
 30
0.0
 40
0.2000000000011796
 50
281.21500488017318
 51
358.19960972993221
  0
ARC
  5
9BF3
  8
0
 10
294.69097709673042
 20
331.2958654572804
 30
0.0
 40
0.720000000000101
 50
22.39060595787695
 51
178.1996097300804
  0
ARC
  5
9BF4
  8
0
 10
313.79689655113452
 20
290.74319220646328
 30
0.0
 40
0.2000000000000203
 50
22.390605957932301
 51
99.375210807960656
  0
ARC
  5
9BF5
  8
0
 10
315.56708221011451
 20
291.06473332725812
 30
0.0
 40
0.2000000000011783
 50
101.2150048802993
 51
178.1996097299305
  0
ARC
  5
9BF6
  8
0
 10
314.64753637143582
 20
291.093637489093
 30
0.0
 40
0.7200000000003866
 50
202.39060595786219
 51
358.19960973008699
  0
LINE
  5
9C03
  8
0
 10
240.96925673408299
 20
306.59475147318659
 30
0.0
 11
240.96925673408299
 21
315.79475147318669
 31
0.0
  0
LINE
  5
9C05
  8
0
 10
245.96925673408299
 20
315.79475147318669
 30
0.0
 11
245.96925673408299
 21
306.59475147318659
 31
0.0
  0
LINE
  5
9C08
  8
0
 10
271.66499134580067
 20
318.2447514731868
 30
0.0
 11
212.91912637984461
 21
318.2447514731868
 31
0.0
  0
LINE
  5
9C09
  8
0
 10
217.96925673408319
 20
315.79475147318669
 30
0.0
 11
270.54653199443919
 21
315.79475147318669
 31
0.0
  0
LINE
  5
9C0B
  8
0
 10
271.66499134580067
 20
304.14475147318677
 30
0.0
 11
212.91912637984461
 21
304.14475147318677
 31
0.0
  0
LINE
  5
9C0C
  8
0
 10
270.54653199443919
 20
306.59475147318659
 30
0.0
 11
217.9692567340829
 21
306.59475147318659
 31
0.0
  0
ARC
  5
9C13
  8
0
 10
304.66912637984478
 20
13.32143320498869
 30
0.0
 40
55.832474203975508
 50
71.733477579086227
 51
90.0
  0
ARC
  5
9C14
  8
0
 10
304.66912637984501
 20
82.986381612939113
 30
0.0
 40
55.83247420397506
 50
270.0
 51
288.26652242091382
  0
ARC
  5
9C16
  8
0
 10
304.66912637984501
 20
13.32143320498699
 30
0.0
 40
55.83247420397727
 50
90.0
 51
108.2665224209137
  0
ARC
  5
9C17
  8
0
 10
304.66912637984478
 20
82.986381612941486
 30
0.0
 40
55.832474203977412
 50
251.7334775790863
 51
270.0
  0
ARC
  5
9C18
  8
0
 10
312.31886864103762
 20
35.404336973642778
 30
0.0
 40
32.46644580097886
 50
45.734302204294572
 51
72.338184731559224
  0
ARC
  5
9C1A
  8
0
 10
312.31886864103689
 20
60.903477844287067
 30
0.0
 40
32.466445800980651
 50
287.66181526844071
 51
314.26569779570542
  0
LINE
  5
9C1D
  8
0
 10
278.52127454216452
 20
43.553907408964157
 30
0.0
 11
278.52127454216452
 21
41.103907408964233
 31
0.0
  0
LINE
  5
9C21
  8
0
 10
278.52127454216452
 20
55.203907408964142
 30
0.0
 11
278.52127454216452
 21
52.753907408964068
 31
0.0
  0
ARC
  5
9C24
  8
0
 10
297.0193841186524
 20
35.404336973642224
 30
0.0
 40
32.466445800979578
 50
107.6618152684408
 51
134.26569779570539
  0
ARC
  5
9C25
  8
0
 10
297.0193841186524
 20
60.903477844286272
 30
0.0
 40
32.466445800979628
 50
225.73430220429461
 51
252.33818473155929
  0
ARC
  5
9C26
  8
0
 10
317.39529742719287
 20
44.503852833759417
 30
0.0
 40
22.570918337852259
 50
9.3064511696668646
 51
38.822905607529741
  0
ARC
  5
9C27
  8
0
 10
317.3952974271931
 20
51.803961984168829
 30
0.0
 40
22.57091833785201
 50
321.17709439247022
 51
350.69354883033469
  0
ARC
  5
9C28
  8
0
 10
284.85040151678731
 20
47.671259612416058
 30
0.0
 40
15.18894544328376
 50
133.6915950292601
 51
149.3962945057838
  0
ARC
  5
9C2A
  8
0
 10
284.85040151678731
 20
48.636555205512309
 30
0.0
 40
15.18894544328375
 50
210.603705494222
 51
226.3084049707399
  0
ARC
  5
9C2C
  8
0
 10
266.46842444108478
 20
48.153907408964081
 30
0.0
 40
4.4448937802282638
 50
322.58454102459808
 51
37.41545897540194
  0
LINE
  5
9C2D
  8
0
 10
270.48471150919409
 20
43.703907408964128
 30
0.0
 11
269.99878450650567
 21
45.453233691908842
 31
0.0
  0
LINE
  5
9C2E
  8
0
 10
270.48471150919409
 20
52.603907408964012
 30
0.0
 11
269.99878450650567
 21
50.854581126019411
 31
0.0
  0
ARC
  5
9C31
  8
0
 10
260.95341515403152
 20
48.153907408964081
 30
0.0
 40
9.003049680386157
 50
349.59741683429178
 51
10.402583165708201
  0
ARC
  5
9C32
  8
0
 10
284.45370648901081
 20
48.568706570153267
 30
0.0
 40
14.786677800212431
 50
187.9315824151885
 51
192.16253707587461
  0
ARC
  5
9C33
  8
0
 10
284.48441083131269
 20
47.735019632258961
 30
0.0
 40
14.817652602317979
 50
167.846877179811
 51
172.0691422317764
  0
ARC
  5
9C34
  8
0
 10
305.56870210756568
 20
26.961129012622791
 30
0.0
 40
0.2000000000001945
 50
90.919897036135239
 51
167.90450188608679
  0
ARC
  5
9C35
  8
0
 10
304.66912637984478
 20
27.153907408964191
 30
0.0
 40
0.7200000000000273
 50
192.0954981138847
 51
347.90450188611692
  0
ARC
  5
9C36
  8
0
 10
303.76955065212411
 20
26.961129012622791
 30
0.0
 40
0.2000000000003057
 50
12.09549811390613
 51
89.080102963851743
  0
ARC
  5
9C37
  8
0
 10
303.76955065212411
 20
69.346685805305356
 30
0.0
 40
0.2000000000001796
 50
270.91989703615479
 51
347.9045018861072
  0
ARC
  5
9C38
  8
0
 10
304.66912637984478
 20
69.153907408964187
 30
0.0
 40
0.720000000000077
 50
12.09549811388316
 51
167.9045018861184
  0
ARC
  5
9C39
  8
0
 10
305.56870210756568
 20
69.346685805305469
 30
0.0
 40
0.200000000000253
 50
192.09549811391469
 51
269.0801029638647
  0
ARC
  5
9C3A
  8
0
 10
300.55982863591089
 20
27.10479397021891
 30
0.0
 40
0.2000000000028689
 50
85.794181853602268
 51
162.77888329652509
  0
ARC
  5
9C3B
  8
0
 10
299.6810728686205
 20
27.377169265463071
 30
0.0
 40
0.7200000000000264
 50
186.96987952448339
 51
342.7788832966786
  0
ARC
  5
9C3C
  8
0
 10
298.7678715937505
 20
27.265529525334269
 30
0.0
 40
0.2000000000001784
 50
6.9698795245112652
 51
83.954484374466446
  0
ARC
  5
9C3D
  8
0
 10
308.77842412377868
 20
69.203020847709354
 30
0.0
 40
0.2000000000029232
 50
265.79418185361533
 51
342.77888329652978
  0
ARC
  5
9C3E
  8
0
 10
309.65717989106912
 20
68.930645552465194
 30
0.0
 40
0.7200000000000264
 50
6.9698795244813789
 51
162.77888329667701
  0
ARC
  5
9C3F
  8
0
 10
310.57038116593912
 20
69.042285292593974
 30
0.0
 40
0.2000000000001767
 50
186.9698795245076
 51
263.95448437448613
  0
ARC
  5
9C40
  8
0
 10
310.57038116593912
 20
27.265529525334159
 30
0.0
 40
0.2000000000002434
 50
96.045515625533554
 51
173.03012047547091
  0
ARC
  5
9C41
  8
0
 10
309.65717989106912
 20
27.377169265463071
 30
0.0
 40
0.7200000000000799
 50
197.22111670329051
 51
353.03012047551499
  0
ARC
  5
9C42
  8
0
 10
308.77842412378089
 20
27.104793970220609
 30
0.0
 40
0.2000000000002515
 50
17.22111670331109
 51
94.205721553273634
  0
ARC
  5
9C43
  8
0
 10
298.7678715937505
 20
69.042285292593974
 30
0.0
 40
0.2000000000001777
 50
276.04551562554673
 51
353.03012047549402
  0
ARC
  5
9C44
  8
0
 10
299.6810728686205
 20
68.930645552465194
 30
0.0
 40
0.7200000000000799
 50
17.221116703290502
 51
173.0301204755186
  0
ARC
  5
9C45
  8
0
 10
300.55982863590862
 20
69.203020847707648
 30
0.0
 40
0.2000000000002473
 50
197.22111670330639
 51
274.20572155326721
  0
ARC
  5
9C46
  8
0
 10
315.56695185587631
 20
28.023889263035471
 30
0.0
 40
0.200000000001137
 50
101.21500488021969
 51
178.1996097299386
  0
ARC
  5
9C47
  8
0
 10
314.64740601719768
 20
28.052793424870401
 30
0.0
 40
0.7200000000002748
 50
202.39060809558981
 51
358.1996097300821
  0
ARC
  5
9C48
  8
0
 10
313.7967661968965
 20
27.70234814224068
 30
0.0
 40
0.1999999999999973
 50
22.390598262111681
 51
99.375210807901226
  0
ARC
  5
9C49
  8
0
 10
295.54148656279381
 20
27.70234814224068
 30
0.0
 40
0.2000000000000131
 50
80.624789192131715
 51
157.60939404213329
  0
ARC
  5
9C4A
  8
0
 10
294.69084674249228
 20
28.052793424870401
 30
0.0
 40
0.7200000000000904
 50
181.80039026991949
 51
337.60939404212758
  0
ARC
  5
9C4B
  8
0
 10
293.77130090381388
 20
28.023889263035471
 30
0.0
 40
0.2000000000011219
 50
1.800390270061361
 51
78.784995119839948
  0
ARC
  5
9C4C
  8
0
 10
293.77130090381388
 20
68.283925554892789
 30
0.0
 40
0.2000000000011219
 50
281.21500488015329
 51
358.19960972994028
  0
ARC
  5
9C4D
  8
0
 10
294.69084674249228
 20
68.255021393057859
 30
0.0
 40
0.7200000000000904
 50
22.390605957872431
 51
178.1996097300804
  0
ARC
  5
9C4E
  8
0
 10
295.54148656279381
 20
68.605466675687694
 30
0.0
 40
0.200000000000024
 50
202.390605957877
 51
279.37521080786149
  0
ARC
  5
9C4F
  8
0
 10
313.7967661968965
 20
68.605466675687694
 30
0.0
 40
0.2000000000000484
 50
260.62478919203937
 51
337.60939404207647
  0
ARC
  5
9C50
  8
0
 10
314.64740601719768
 20
68.255021393057859
 30
0.0
 40
0.7200000000002748
 50
1.8003902699179239
 51
157.60939404213329
  0
ARC
  5
9C51
  8
0
 10
315.56695185587631
 20
68.283925554892789
 30
0.0
 40
0.2000000000011787
 50
181.8003902700614
 51
258.78499511971381
  0
LINE
  5
9C52
  8
0
 10
271.77713789465611
 20
40.90390740897373
 30
0.0
 11
271.66088746765672
 21
41.103907408964233
 31
0.0
  0
LINE
  5
9C53
  8
0
 10
270.53709459437073
 20
43.553907408964157
 30
0.0
 11
270.48471150919409
 21
43.703907408964128
 31
0.0
  0
LINE
  5
9C54
  8
0
 10
270.48471150919409
 20
52.603907408964012
 30
0.0
 11
270.5370945943709
 21
52.753907408964089
 31
0.0
  0
LINE
  5
9C55
  8
0
 10
271.66088746765701
 20
55.203907408964142
 30
0.0
 11
271.77713789466179
 21
55.403907408964074
 31
0.0
  0
LINE
  5
9C70
  8
0
 10
278.52127454216452
 20
43.553907408964157
 30
0.0
 11
262.91912637984461
 21
43.553907408964129
 31
0.0
  0
LINE
  5
9C71
  8
0
 10
262.91912637984461
 20
41.103907408964233
 30
0.0
 11
278.52127454216452
 21
41.103907408964233
 31
0.0
  0
LINE
  5
9C72
  8
0
 10
262.91912637984473
 20
55.20390740896417
 30
0.0
 11
278.52127454216452
 21
55.203907408964142
 31
0.0
  0
LINE
  5
9C73
  8
0
 10
262.91912637984473
 20
52.75390740896416
 30
0.0
 11
278.52127454216452
 21
52.753907408964089
 31
0.0
  0
LINE
  5
9C74
  8
0
 10
245.96912637984511
 20
52.703907408969542
 30
0.0
 11
245.96912637984511
 21
50.653907409154179
 31
0.0
  0
LINE
  5
9C7A
  8
0
 10
73.919126379844315
 20
200.74387602630659
 30
0.0
 11
73.919126379844315
 21
211.19475147318661
 31
0.0
  0
LINE
  5
9C7B
  8
0
 10
73.919126379844315
 20
182.49295984054689
 30
0.0
 11
73.919126379844315
 21
194.24387602630659
 31
0.0
  0
LINE
  5
9C7C
  8
0
 10
31.919126379844329
 20
194.2438760263064
 30
0.0
 11
31.919126379844339
 21
182.4929598405468
 31
0.0
  0
LINE
  5
9C7D
  8
0
 10
31.919126379844101
 20
211.19475145408899
 30
0.0
 11
31.919126379844101
 21
200.7438760263064
 31
0.0
  0
LINE
  5
9C7E
  8
0
 10
73.919126379844315
 20
211.19475147318661
 30
0.0
 11
31.919126379844101
 21
211.19475147318661
 31
0.0
  0
LINE
  5
9C7F
  8
0
 10
31.919126379844339
 20
182.4929598405468
 30
0.0
 11
44.169126361089582
 21
182.49295984054689
 31
0.0
  0
LINE
  5
9C81
  8
0
 10
61.669126361089582
 20
182.492959840547
 30
0.0
 11
73.919126379844315
 21
182.49295984054689
 31
0.0
  0
LINE
  5
9C82
  8
0
 10
32.098012395750629
 20
200.7438760263064
 30
0.0
 11
32.098012395750629
 21
194.2438760263064
 31
0.0
  0
LINE
  5
9C83
  8
0
 10
73.740240363938014
 20
194.24387602630659
 30
0.0
 11
73.740240363938014
 21
200.74387602630651
 31
0.0
  0
LINE
  5
9C84
  8
0
 10
31.422388236343291
 20
200.7438760263064
 30
0.0
 11
31.422388236343291
 21
194.2438760263064
 31
0.0
  0
LINE
  5
9C85
  8
0
 10
74.415864523345363
 20
194.24387602630659
 30
0.0
 11
74.415864523345363
 21
200.74387602630659
 31
0.0
  0
LINE
  5
9C86
  8
0
 10
31.199126379844301
 20
200.7438760263064
 30
0.0
 11
31.199126379844301
 21
194.2438760263064
 31
0.0
  0
LINE
  5
9C87
  8
0
 10
74.639126379844356
 20
194.24387602630659
 30
0.0
 11
74.639126379844356
 21
200.74387602630659
 31
0.0
  0
LINE
  5
9C88
  8
0
 10
48.319126379844647
 20
206.69387602630641
 30
0.0
 11
45.869126361089123
 21
206.6938760263065
 31
0.0
  0
LINE
  5
9C89
  8
0
 10
59.969126379844511
 20
206.69387602630641
 30
0.0
 11
57.519126379844458
 21
206.69387602630641
 31
0.0
  0
ARC
  5
9C8E
  8
0
 10
-5.7228342870469069
 20
256.55217168134931
 30
0.0
 40
81.537599632770991
 50
306.18728073302623
 51
307.72621595631352
  0
ARC
  5
9C90
  8
0
 10
29.583415965763152
 20
177.88070442632889
 30
0.0
 40
30.08840591264314
 50
59.08293895601598
 51
64.748027177513094
  0
ARC
  5
9C91
  8
0
 10
111.5610870467662
 20
256.55217168138893
 30
0.0
 40
81.537599632820843
 50
232.2737840103616
 51
233.8127192669738
  0
ARC
  5
9C94
  8
0
 10
76.254836793933464
 20
177.88070442631511
 30
0.0
 40
30.088405912658981
 50
115.25197282248691
 51
120.9170610439803
  0
POLYLINE
  5
9C9E
  8
0
 66
     1
 10
0.0
 20
0.0
 30
0.0
 70
   128
  0
VERTEX
  5
A685
  8
0
 10
42.419126379843867
 20
205.0938760263065
 30
0.0
  0
VERTEX
  5
A686
  8
0
 10
40.75707903418288
 20
206.04143011739129
 30
0.0
  0
VERTEX
  5
A687
  8
0
 10
39.228790182419061
 20
206.93463754310869
 30
0.0
  0
VERTEX
  5
A688
  8
0
 10
37.811150032233627
 20
207.77410748512261
 30
0.0
  0
VERTEX
  5
A689
  8
0
 10
36.557617033643048
 20
208.51633142482561
 30
0.0
  0
VERTEX
  5
A68A
  8
0
 10
35.567947383269029
 20
209.09241684470121
 30
0.0
  0
VERTEX
  5
A68B
  8
0
 10
34.732592900371174
 20
209.55938595247639
 30
0.0
  0
SEQEND
  5
A68C
  8
0
  0
ARC
  5
9C9F
  8
0
 10
4.7666141965637499
 20
230.75411519141289
 30
0.0
 40
54.941158631404143
 50
303.05333475054442
 51
313.26111842419488
  0
ARC
  5
9CA1
  8
0
 10
101.0716385631285
 20
230.7541151914179
 30
0.0
 40
54.941158631410097
 50
226.7388815758051
 51
236.94666524945561
  0
POLYLINE
  5
9CA2
  8
0
 66
     1
 10
0.0
 20
0.0
 30
0.0
 70
   128
  0
VERTEX
  5
A68D
  8
0
 10
63.419126379845238
 20
205.0938760263069
 30
0.0
  0
VERTEX
  5
A68E
  8
0
 10
65.081173725506005
 20
206.04143011739171
 30
0.0
  0
VERTEX
  5
A68F
  8
0
 10
66.609462577270051
 20
206.93463754310909
 30
0.0
  0
VERTEX
  5
A690
  8
0
 10
68.027102727455244
 20
207.7741074851229
 30
0.0
  0
VERTEX
  5
A691
  8
0
 10
69.28063572604583
 20
208.51633142482589
 30
0.0
  0
VERTEX
  5
A692
  8
0
 10
70.270305376419401
 20
209.09241684470129
 30
0.0
  0
VERTEX
  5
A693
  8
0
 10
71.105659859317029
 20
209.55938595247639
 30
0.0
  0
SEQEND
  5
A694
  8
0
  0
LINE
  5
9CAF
  8
0
 10
72.852963674825332
 20
194.24387602630659
 30
0.0
 11
72.852963674825332
 21
200.74387602630659
 31
0.0
  0
ARC
  5
9CB0
  8
0
 10
129.22091619815791
 20
112.8414342235623
 30
0.0
 40
112.8350353656422
 50
119.3483676448016
 51
121.0005431953347
  0
ARC
  5
9CB1
  8
0
 10
148.001108699658
 20
279.62740963301229
 30
0.0
 40
122.16086531607159
 50
230.9896638674434
 51
232.66820447212439
  0
LINE
  5
9CB2
  8
0
 10
32.985289084863318
 20
200.7438760263064
 30
0.0
 11
32.985289084863318
 21
194.2438760263064
 31
0.0
  0
ARC
  5
9CB3
  8
0
 10
-39.070886380632381
 20
275.74047956238741
 30
0.0
 40
117.1943299940216
 50
307.2825525171869
 51
309.03190065755467
  0
ARC
  5
9CB6
  8
0
 10
-19.1381167889358
 20
120.06978631644959
 30
0.0
 40
104.4530602971781
 50
58.953012968084991
 51
60.737891196079133
  0
LINE
  5
9CB8
  8
0
 10
32.795391747358508
 20
194.2438760263064
 30
0.0
 11
32.795391747358508
 21
200.7438760263064
 31
0.0
  0
LINE
  5
9CBC
  8
0
 10
73.04286101233015
 20
200.74387602630659
 30
0.0
 11
73.04286101233015
 21
194.24387602630659
 31
0.0
  0
LINE
  5
9CC2
  8
0
 10
32.05501800493812
 20
194.2438760263064
 30
0.0
 11
32.05501800493812
 21
200.7438760263064
 31
0.0
  0
LINE
  5
9CC6
  8
0
 10
73.783234754750524
 20
200.74387602630659
 30
0.0
 11
73.783234754750524
 21
194.24387602630659
 31
0.0
  0
LINE
  5
9CCB
  8
0
 10
31.199126379844301
 20
200.7438760263064
 30
0.0
 11
32.985289084863268
 21
200.7438760263064
 31
0.0
  0
LINE
  5
9CCC
  8
0
 10
31.199126379844301
 20
194.2438760263064
 30
0.0
 11
32.985289084863268
 21
194.2438760263064
 31
0.0
  0
LINE
  5
9CCD
  8
0
 10
72.852963674825332
 20
194.24387602630651
 30
0.0
 11
74.639126379844356
 21
194.24387602630659
 31
0.0
  0
LINE
  5
9CCE
  8
0
 10
74.639126379844356
 20
200.74387602630659
 30
0.0
 11
72.852963674825332
 21
200.74387602630659
 31
0.0
  0
LINE
  5
9CD0
  8
0
 10
48.319126379844562
 20
200.3813884385192
 30
0.0
 11
48.319126379844647
 21
206.69387602630641
 31
0.0
  0
LINE
  5
9CD4
  8
0
 10
57.519126379844458
 20
206.69387602630641
 30
0.0
 11
57.519126379844558
 21
200.38138839191339
 31
0.0
  0
LINE
  5
9CE2
  8
0
 10
418.66912637984439
 20
194.2438760263064
 30
0.0
 11
418.6691263798445
 21
182.49295984054629
 31
0.0
  0
LINE
  5
9CE3
  8
0
 10
418.66912637984439
 20
211.19475147318661
 30
0.0
 11
418.66912637984439
 21
200.74387602630651
 31
0.0
  0
LINE
  5
9CE4
  8
0
 10
460.66912637984461
 20
200.7438760263062
 30
0.0
 11
460.66912637984461
 21
211.19475147318661
 31
0.0
  0
LINE
  5
9CE5
  8
0
 10
460.66912637984439
 20
182.49295984054621
 30
0.0
 11
460.66912637984439
 21
194.2438760263062
 31
0.0
  0
LINE
  5
9CE6
  8
0
 10
418.6691263798445
 20
182.49295984054629
 30
0.0
 11
460.66912637984439
 21
182.49295984054621
 31
0.0
  0
LINE
  5
9CE7
  8
0
 10
460.66912637984461
 20
211.19475147318639
 30
0.0
 11
418.66912637984439
 21
211.1947514731867
 31
0.0
  0
LINE
  5
9CE8
  8
0
 10
460.49024036393809
 20
194.2438760263062
 30
0.0
 11
460.49024036393809
 21
200.7438760263062
 31
0.0
  0
LINE
  5
9CE9
  8
0
 10
418.8480123957504
 20
200.74387602630631
 30
0.0
 11
418.8480123957504
 21
194.2438760263064
 31
0.0
  0
LINE
  5
9CEA
  8
0
 10
461.16586452334542
 20
194.2438760263062
 30
0.0
 11
461.16586452334542
 21
200.7438760263062
 31
0.0
  0
LINE
  5
9CEB
  8
0
 10
418.17238823634329
 20
200.74387602630651
 30
0.0
 11
418.17238823634329
 21
194.2438760263064
 31
0.0
  0
LINE
  5
9CEC
  8
0
 10
461.38912637984453
 20
194.2438760263062
 30
0.0
 11
461.38912637984453
 21
200.7438760263062
 31
0.0
  0
LINE
  5
9CED
  8
0
 10
417.94912637984442
 20
200.74387602630651
 30
0.0
 11
417.94912637984442
 21
194.2438760263064
 31
0.0
  0
LINE
  5
9CEE
  8
0
 10
444.26912637984458
 20
173.42387602630629
 30
0.0
 11
446.71912637984462
 21
173.42387602630629
 31
0.0
  0
LINE
  5
9CEF
  8
0
 10
432.61912637984437
 20
173.42387602630629
 30
0.0
 11
435.06912637984448
 21
173.42387602630629
 31
0.0
  0
ARC
  5
9CF0
  8
0
 10
460.67219247382837
 20
174.92794258584331
 30
0.0
 40
31.942102900545478
 50
109.1969112861638
 51
131.11218454966749
  0
ARC
  5
9CF1
  8
0
 10
418.66606028586273
 20
174.92794258585059
 30
0.0
 40
31.942102900537929
 50
48.887815450323238
 51
70.803088713836189
  0
POLYLINE
  5
9CF4
  8
0
 66
     1
 10
0.0
 20
0.0
 30
0.0
 70
   128
  0
VERTEX
  5
A695
  8
0
 10
439.6691263798462
 20
198.99387602630779
 30
0.0
  0
VERTEX
  5
A696
  8
0
 10
440.1488240379291
 20
198.1968618141477
 30
0.0
  0
VERTEX
  5
A697
  8
0
 10
440.78903631429222
 20
197.46990558103721
 30
0.0
  0
VERTEX
  5
A698
  8
0
 10
441.96473231645302
 20
196.3854219152889
 30
0.0
  0
VERTEX
  5
A699
  8
0
 10
443.19856717439239
 20
195.39328528709811
 30
0.0
  0
VERTEX
  5
A69A
  8
0
 10
444.47244986427887
 20
194.4367057702047
 30
0.0
  0
VERTEX
  5
A69B
  8
0
 10
445.74719076732811
 20
193.53147032997549
 30
0.0
  0
VERTEX
  5
A69C
  8
0
 10
447.97814358665647
 20
192.05176286680259
 30
0.0
  0
VERTEX
  5
A69D
  8
0
 10
449.08583632284018
 20
191.3699163421297
 30
0.0
  0
VERTEX
  5
A69E
  8
0
 10
450.16912637984473
 20
190.74387602630631
 30
0.0
  0
SEQEND
  5
A69F
  8
0
  0
POLYLINE
  5
9CF5
  8
0
 66
     1
 10
0.0
 20
0.0
 30
0.0
 70
   128
  0
VERTEX
  5
A6A0
  8
0
 10
439.66912637984188
 20
198.9938760263079
 30
0.0
  0
VERTEX
  5
A6A1
  8
0
 10
439.18942872175933
 20
198.19686181414809
 30
0.0
  0
VERTEX
  5
A6A2
  8
0
 10
438.54921644539633
 20
197.46990558103781
 30
0.0
  0
VERTEX
  5
A6A3
  8
0
 10
437.37352044323649
 20
196.38542191528981
 30
0.0
  0
VERTEX
  5
A6A4
  8
0
 10
436.13968558529763
 20
195.3932852870995
 30
0.0
  0
VERTEX
  5
A6A5
  8
0
 10
434.865802895412
 20
194.43670577020629
 30
0.0
  0
VERTEX
  5
A6A6
  8
0
 10
433.59106199236322
 20
193.53147032997751
 30
0.0
  0
VERTEX
  5
A6A7
  8
0
 10
431.36010917303338
 20
192.05176286680361
 30
0.0
  0
VERTEX
  5
A6A8
  8
0
 10
430.2524164368491
 20
191.36991634213041
 30
0.0
  0
VERTEX
  5
A6A9
  8
0
 10
429.1691263798441
 20
190.74387602630651
 30
0.0
  0
SEQEND
  5
A6AA
  8
0
  0
ARC
  5
9CF8
  8
0
 10
394.94824204198301
 20
226.38658884269651
 30
0.0
 40
49.41125278493675
 50
302.48034685912768
 51
313.83410631561452
  0
POLYLINE
  5
9CFA
  8
0
 66
     1
 10
0.0
 20
0.0
 30
0.0
 70
   128
  0
VERTEX
  5
A6AB
  8
0
 10
421.482592900371
 20
209.55938595247659
 30
0.0
  0
VERTEX
  5
A6AC
  8
0
 10
422.36873138088993
 20
209.06321709428849
 30
0.0
  0
VERTEX
  5
A6AD
  8
0
 10
423.43449460022498
 20
208.44157661891811
 30
0.0
  0
VERTEX
  5
A6AE
  8
0
 10
424.71029819802362
 20
207.68557123164359
 30
0.0
  0
VERTEX
  5
A6AF
  8
0
 10
426.14966090970421
 20
206.83398837146319
 30
0.0
  0
VERTEX
  5
A6B0
  8
0
 10
427.59652638560573
 20
205.98977717840251
 30
0.0
  0
VERTEX
  5
A6B1
  8
0
 10
429.16912637984439
 20
205.09387602630611
 30
0.0
  0
SEQEND
  5
A6B2
  8
0
  0
POLYLINE
  5
9CFB
  8
0
 66
     1
 10
0.0
 20
0.0
 30
0.0
 70
   128
  0
VERTEX
  5
A6B3
  8
0
 10
457.855659859318
 20
209.5593859524765
 30
0.0
  0
VERTEX
  5
A6B4
  8
0
 10
456.9695213787989
 20
209.0632170942884
 30
0.0
  0
VERTEX
  5
A6B5
  8
0
 10
455.90375815946402
 20
208.44157661891799
 30
0.0
  0
VERTEX
  5
A6B6
  8
0
 10
454.62795456166521
 20
207.68557123164351
 30
0.0
  0
VERTEX
  5
A6B7
  8
0
 10
453.1885918499845
 20
206.83398837146311
 30
0.0
  0
VERTEX
  5
A6B8
  8
0
 10
451.74172637408338
 20
205.98977717840239
 30
0.0
  0
VERTEX
  5
A6B9
  8
0
 10
450.16912637984439
 20
205.09387602630611
 30
0.0
  0
SEQEND
  5
A6BA
  8
0
  0
ARC
  5
9CFD
  8
0
 10
484.39001071770809
 20
226.38658884269921
 30
0.0
 40
49.41125278494038
 50
226.16589368439469
 51
237.51965314087229
  0
LINE
  5
9D00
  8
0
 10
419.73528908486338
 20
200.74387602630631
 30
0.0
 11
419.73528908486321
 21
194.24387602630631
 31
0.0
  0
ARC
  5
9D01
  8
0
 10
365.81992167934811
 20
117.0605314944372
 30
0.0
 40
107.95541229373011
 50
58.961898643608379
 51
60.688747156412973
  0
ARC
  5
9D02
  8
0
 10
365.007816401855
 20
253.64783594444111
 30
0.0
 40
89.121209033571887
 50
307.02187904792959
 51
309.32252408928139
  0
LINE
  5
9D03
  8
0
 10
459.60296367482539
 20
194.2438760263062
 30
0.0
 11
459.60296367482539
 21
200.7438760263062
 31
0.0
  0
ARC
  5
9D04
  8
0
 10
511.83002887454762
 20
250.5034301332191
 30
0.0
 40
85.10427365234743
 50
230.6382462298869
 51
233.04730059537371
  0
ARC
  5
9D05
  8
0
 10
509.4282771008692
 20
124.0255192183181
 30
0.0
 40
99.878812606279695
 50
119.2212333605093
 51
121.0878624753195
  0
LINE
  5
9D06
  8
0
 10
459.60296367482539
 20
194.2438760263062
 30
0.0
 11
461.38912637984453
 21
194.2438760263062
 31
0.0
  0
LINE
  5
9D07
  8
0
 10
459.60296367482539
 20
200.7438760263062
 30
0.0
 11
461.38912637984453
 21
200.7438760263062
 31
0.0
  0
LINE
  5
9D08
  8
0
 10
459.79286101233021
 20
200.7438760263062
 30
0.0
 11
459.79286101233021
 21
194.2438760263062
 31
0.0
  0
LINE
  5
9D09
  8
0
 10
417.94912637984442
 20
194.24387602630739
 30
0.0
 11
419.73528908486321
 21
194.24387602630631
 31
0.0
  0
LINE
  5
9D0A
  8
0
 10
419.54539174735862
 20
194.2438760263064
 30
0.0
 11
419.54539174735862
 21
200.74387602630631
 31
0.0
  0
LINE
  5
9D0B
  8
0
 10
417.94912637984442
 20
200.74387602630631
 30
0.0
 11
419.73528908486338
 21
200.74387602630631
 31
0.0
  0
LINE
  5
9D12
  8
0
 10
460.53323475475059
 20
200.7438760263062
 30
0.0
 11
460.53323475475059
 21
194.2438760263062
 31
0.0
  0
LINE
  5
9D14
  8
0
 10
418.80501800493818
 20
194.2438760263064
 30
0.0
 11
418.80501800493818
 21
200.74387602630651
 31
0.0
  0
LINE
  5
9D1F
  8
0
 10
444.26912637984458
 20
182.49295984054669
 30
0.0
 11
444.26912637984458
 21
173.4238760263062
 31
0.0
  0
LINE
  5
9D23
  8
0
 10
435.06912637984442
 20
173.4238760263062
 30
0.0
 11
435.06912637984448
 21
182.49295984054669
 31
0.0
  0
CIRCLE
  5
9D28
  8
0
 10
220.9191263798445
 20
182.15390740895899
 30
0.0
 40
4.0000000000017764
  0
CIRCLE
  5
9D29
  8
0
 10
255.9191263798445
 20
166.15390740895899
 30
0.0
 40
4.0000000000017621
  0
LINE
  5
9D32
  8
0
 10
213.41912637984461
 20
150.65390740895899
 30
0.0
 11
252.41912637984461
 21
150.65390740895899
 31
0.0
  0
LINE
  5
9D33
  8
0
 10
252.41912637984461
 20
148.1539074089591
 30
0.0
 11
213.41912637984461
 21
148.1539074089591
 31
0.0
  0
LINE
  5
9D34
  8
0
 10
214.91912637984461
 20
183.15390740895899
 30
0.0
 11
214.91912637984461
 21
176.6539074089591
 31
0.0
  0
ARC
  5
9D35
  8
0
 10
220.9191263798445
 20
183.15390740895899
 30
0.0
 40
6.0
 50
41.000000000000441
 51
180.0
  0
LINE
  5
9D36
  8
0
 10
230.18325512051291
 20
181.64226490550089
 30
0.0
 11
225.44738386118109
 21
187.09026158290209
 31
0.0
  0
ARC
  5
9D37
  8
0
 10
227.91912637984461
 20
179.67408781852939
 30
0.0
 40
3.000000000000028
 50
0.0
 51
41.000000000000441
  0
LINE
  5
9D38
  8
0
 10
230.9191263798445
 20
179.67408781852939
 30
0.0
 11
230.9191263798445
 21
179.15390740895899
 31
0.0
  0
ARC
  5
9D39
  8
0
 10
237.91912637984461
 20
179.15390740895899
 30
0.0
 40
7.0
 50
180.0
 51
273.25145653100361
  0
LINE
  5
9D3A
  8
0
 10
255.5220992043981
 20
173.14263901218689
 30
0.0
 11
238.31615355529109
 21
172.16517580573111
 31
0.0
  0
ARC
  5
9D3B
  8
0
 10
255.9191263798445
 20
166.15390740895899
 30
0.0
 40
6.9999999999999982
 50
309.97000000000139
 51
93.251456531000315
  0
LINE
  5
9D3C
  8
0
 10
253.13435353652369
 20
154.68584987826881
 30
0.0
 11
260.41583133146781
 21
160.78924110265001
 31
0.0
  0
ARC
  5
9D3D
  8
0
 10
254.4191263798445
 20
153.15308807646619
 30
0.0
 40
2.0
 50
129.96999999999781
 51
180.0
  0
ARC
  5
9D3E
  8
0
 10
211.91912637984461
 20
153.65390740895899
 30
0.0
 40
1.500000000000014
 50
0.0
 51
48.189685104220374
  0
LINE
  5
9D40
  8
0
 10
213.41912637984461
 20
175.15390740895899
 30
0.0
 11
212.91912637984461
 21
175.15390740895899
 31
0.0
  0
ARC
  5
9D41
  8
0
 10
213.41912637984461
 20
176.6539074089591
 30
0.0
 40
1.5
 50
270.0
 51
0.0
  0
LINE
  5
9D42
  8
0
 10
213.41912637984461
 20
153.65390740895899
 30
0.0
 11
213.41912637984461
 21
148.1539074089591
 31
0.0
  0
LINE
  5
9D43
  8
0
 10
252.41912637984461
 20
148.1539074089591
 30
0.0
 11
252.41912637984461
 21
153.15308807646619
 31
0.0
  0
LINE
  5
9D44
  8
0
 10
208.91912637984461
 20
155.15390740895899
 30
0.0
 11
211.91912637984461
 21
155.15390740895899
 31
0.0
  0
LINE
  5
9D45
  8
0
 10
208.91912637984461
 20
155.15390740895899
 30
0.0
 11
208.91912637984461
 21
175.15390740895899
 31
0.0
  0
ARC
  5
9D46
  8
0
 10
211.91912637984461
 20
153.65390740895921
 30
0.0
 40
1.4999999999998681
 50
48.189685104219279
 51
90.0
  0
LINE
  5
9D47
  8
0
 10
208.91912637984461
 20
175.15390740895899
 30
0.0
 11
212.91912637984461
 21
175.15390740895899
 31
0.0
  0
LINE
  5
9D48
  8
0
 10
251.51596771228239
 20
180.19297831889531
 30
0.0
 11
260.79735482273747
 21
171.1741551378019
 31
0.0
  0
LINE
  5
9D49
  8
0
 10
239.24298849617551
 20
172.59781454044489
 30
0.0
 11
237.7719643597313
 21
174.02722443616679
 31
0.0
  0
LINE
  5
9D6B
  8
0
 10
239.61243729364969
 20
172.2388171902393
 30
0.0
 11
239.24298849617551
 21
172.59781454044489
 31
0.0
  0
LINE
  5
9D7A
  8
0
 10
262.91912637984461
 20
308.69475147318673
 30
0.0
 11
262.91912637984461
 21
313.69475147318673
 31
0.0
  0
ARC
  5
9D7B
  8
0
 10
220.9191263798445
 20
362.64475147319808
 30
0.0
 40
60.000000000011909
 50
266.17744627072261
 51
270.0
  0
ARC
  5
9D7C
  8
0
 10
220.9191263798445
 20
362.64475147319808
 30
0.0
 40
60.000000000011909
 50
270.0
 51
271.93409985390548
  0
ARC
  5
9D7D
  8
0
 10
220.9191263798445
 20
259.74475147316713
 30
0.0
 40
60.0000000000217
 50
91.910213171708165
 51
93.822553729290476
  0
LINE
  5
9D7F
  8
0
 10
216.9191263798445
 20
319.61126966156968
 30
0.0
 11
216.9191263798445
 21
318.24475147318662
 31
0.0
  0
LINE
  5
9D81
  8
0
 10
216.9191263798445
 20
304.1447514731866
 30
0.0
 11
216.9191263798445
 21
302.7782332848036
 31
0.0
  0
LINE
  5
9D83
  8
0
 10
217.91912637984461
 20
315.74475147318662
 30
0.0
 11
217.91912637984461
 21
313.74475147318662
 31
0.0
  0
LINE
  5
9D86
  8
0
 10
233.26707247737491
 20
315.59475147321899
 30
0.0
 11
233.26707247737491
 21
313.89475147318649
 31
0.0
  0
LINE
  5
9D88
  8
0
 10
233.4670724773265
 20
315.79475147316867
 30
0.0
 11
233.2670724773952
 21
315.59475147321899
 31
0.0
  0
LINE
  5
9D89
  8
0
 10
233.2670724773663
 20
313.89475147318649
 30
0.0
 11
233.41707247737719
 21
313.74475147318668
 31
0.0
  0
ARC
  5
9D8B
  8
0
 10
255.9191263798445
 20
362.6447514731982
 30
0.0
 40
60.000000000011909
 50
266.17744627072261
 51
270.0
  0
ARC
  5
9D8C
  8
0
 10
255.9191263798445
 20
362.6447514731982
 30
0.0
 40
60.000000000011909
 50
270.0
 51
273.82255372927739
  0
ARC
  5
9D8D
  8
0
 10
255.9191263798445
 20
259.74475147316718
 30
0.0
 40
60.0000000000217
 50
91.910213171708165
 51
93.822553729290476
  0
ARC
  5
9D8E
  8
0
 10
255.9191263798445
 20
259.74475147316718
 30
0.0
 40
60.0000000000217
 50
86.177446270709524
 51
88.089786828291835
  0
LINE
  5
9D8F
  8
0
 10
251.9191263798445
 20
319.61126966156968
 30
0.0
 11
251.9191263798445
 21
318.24475147318662
 31
0.0
  0
LINE
  5
9D90
  8
0
 10
259.91912637984461
 20
318.24475147318662
 30
0.0
 11
259.91912637984461
 21
319.61126966156968
 31
0.0
  0
LINE
  5
9D91
  8
0
 10
251.9191263798445
 20
304.14475147318672
 30
0.0
 11
251.9191263798445
 21
302.77823328480372
 31
0.0
  0
LINE
  5
9D92
  8
0
 10
259.91912637984461
 20
302.77823328480372
 30
0.0
 11
259.91912637984461
 21
304.14475147318672
 31
0.0
  0
LINE
  5
9D93
  8
0
 10
252.91912637984461
 20
306.69475147319491
 30
0.0
 11
252.91912637984461
 21
306.6447514731866
 31
0.0
  0
LINE
  5
9D94
  8
0
 10
258.91912637984461
 20
306.64475147318672
 30
0.0
 11
258.91912637984461
 21
306.69475147319491
 31
0.0
  0
LINE
  5
9D95
  8
0
 10
262.91912637984461
 20
315.74475147318662
 30
0.0
 11
262.91912637984461
 21
315.79475147318669
 31
0.0
  0
LINE
  5
9D96
  8
0
 10
262.91912637984461
 20
306.59475147318659
 30
0.0
 11
262.91912637984461
 21
306.64475147318672
 31
0.0
  0
LINE
  5
9D97
  8
0
 10
261.91912637984461
 20
313.89475147318672
 30
0.0
 11
261.91912637984461
 21
315.59475147321899
 31
0.0
  0
LINE
  5
9D98
  8
0
 10
249.9191263798445
 20
315.59475147321899
 30
0.0
 11
249.9191263798445
 21
313.89475147318672
 31
0.0
  0
LINE
  5
9D99
  8
0
 10
249.9191263798165
 20
313.89475147318672
 30
0.0
 11
250.1191263798537
 21
313.69475147318781
 31
0.0
  0
LINE
  5
9D9A
  8
0
 10
261.71912637983542
 20
313.69475147318781
 30
0.0
 11
261.91912637987258
 21
313.89475147318672
 31
0.0
  0
LINE
  5
9D9B
  8
0
 10
261.9191263797785
 20
315.59475147321899
 30
0.0
 11
261.76912637981741
 21
315.74475147318662
 31
0.0
  0
LINE
  5
9D9C
  8
0
 10
250.0691263798717
 20
315.74475147318662
 30
0.0
 11
249.91912637991061
 21
315.59475147321899
 31
0.0
  0
LINE
  5
9D9F
  8
0
 10
233.26707247737491
 20
308.44475147318661
 30
0.0
 11
233.26707247737491
 21
306.94475147311653
 31
0.0
  0
LINE
  5
9DA1
  8
0
 10
233.2670724773854
 20
306.94475147311653
 30
0.0
 11
233.51707247736181
 21
306.69475147312249
 31
0.0
  0
LINE
  5
9DA3
  8
0
 10
233.4670724773427
 20
308.6447514731866
 30
0.0
 11
233.26707247729689
 21
308.44475147318661
 31
0.0
  0
LINE
  5
9DA5
  8
0
 10
249.9191263798445
 20
308.44475147318673
 30
0.0
 11
249.9191263798445
 21
306.94475147323033
 31
0.0
  0
LINE
  5
9DA6
  8
0
 10
261.91912637984461
 20
306.94475147323033
 30
0.0
 11
261.91912637984461
 21
308.44475147318673
 31
0.0
  0
LINE
  5
9DA7
  8
0
 10
249.9191263797704
 20
306.94475147323033
 30
0.0
 11
250.1691263798397
 21
306.69475147319491
 31
0.0
  0
LINE
  5
9DA8
  8
0
 10
261.66912637984939
 20
306.69475147319491
 30
0.0
 11
261.91912637991868
 21
306.94475147323033
 31
0.0
  0
LINE
  5
9DA9
  8
0
 10
261.91912637979499
 20
308.44475147318673
 30
0.0
 11
261.66912637981881
 21
308.6947514731321
 31
0.0
  0
LINE
  5
9DAA
  8
0
 10
250.16912637987039
 20
308.6947514731321
 30
0.0
 11
249.9191263798941
 21
308.44475147318673
 31
0.0
  0
ARC
  5
9DAB
  8
0
 10
240.7191263798446
 20
362.64475147319803
 30
0.0
 40
60.000000000011909
 50
266.17744627072261
 51
270.0
  0
ARC
  5
9DAC
  8
0
 10
240.71912637984451
 20
362.64475147319803
 30
0.0
 40
60.000000000011909
 50
270.0
 51
273.82255372927739
  0
ARC
  5
9DAD
  8
0
 10
240.7191263798446
 20
259.74475147316713
 30
0.0
 40
60.0000000000217
 50
91.910213171708165
 51
93.822553729290476
  0
ARC
  5
9DAE
  8
0
 10
240.71912637984451
 20
259.74475147316713
 30
0.0
 40
60.0000000000217
 50
86.177446270709524
 51
88.089786828291835
  0
LINE
  5
9DAF
  8
0
 10
236.7191263798446
 20
319.61126966156962
 30
0.0
 11
236.7191263798446
 21
318.24475147318662
 31
0.0
  0
LINE
  5
9DB0
  8
0
 10
244.71912637984451
 20
318.24475147318662
 30
0.0
 11
244.71912637984451
 21
319.61126966156962
 31
0.0
  0
LINE
  5
9DB1
  8
0
 10
236.7191263798446
 20
304.14475147318649
 30
0.0
 11
236.7191263798446
 21
302.77823328480349
 31
0.0
  0
LINE
  5
9DB2
  8
0
 10
244.71912637984451
 20
302.77823328480349
 30
0.0
 11
244.71912637984451
 21
304.14475147318649
 31
0.0
  0
LINE
  5
9DBE
  8
0
 10
262.91912637984461
 20
313.69475147318673
 30
0.0
 11
245.96925673408299
 21
313.69475147318673
 31
0.0
  0
LINE
  5
9DC4
  8
0
 10
233.4670724773265
 20
315.79475147316867
 30
0.0
 11
245.0670724774233
 21
315.79475147316867
 31
0.0
  0
LINE
  5
9DC5
  8
0
 10
251.91912637984271
 20
302.77823328480372
 30
0.0
 11
259.91912637984638
 21
302.77823328480372
 31
0.0
  0
LINE
  5
9DC6
  8
0
 10
257.9191263798445
 20
319.71140887544868
 30
0.0
 11
253.9191263798445
 21
319.71140887544868
 31
0.0
  0
LINE
  5
9DC7
  8
0
 10
259.91912637984461
 20
319.61126966156968
 30
0.0
 11
251.9191263798445
 21
319.61126966156968
 31
0.0
  0
LINE
  5
9DCF
  8
0
 10
221.9691263798444
 20
306.64475147318672
 30
0.0
 11
212.91912637984461
 21
306.64475147318672
 31
0.0
  0
LINE
  5
9DDC
  8
0
 10
227.96912637984431
 20
315.74475147318668
 30
0.0
 11
233.417072477349
 21
315.74475147318668
 31
0.0
  0
ARC
  5
9DE7
  8
0
 10
212.91912637984461
 20
314.24475147318662
 30
0.0
 40
1.5
 50
90.0
 51
125.2300674407691
  0
LINE
  5
9DE8
  8
0
 10
211.41912637984461
 20
309.30495497812592
 30
0.0
 11
211.41912637984461
 21
313.08454796824731
 31
0.0
  0
ARC
  5
9DE9
  8
0
 10
212.91912637984461
 20
308.1447514731866
 30
0.0
 40
1.5
 50
234.76993255923361
 51
270.0
  0
ARC
  5
9DEA
  8
0
 10
212.91912637984461
 20
308.1447514731866
 30
0.0
 40
4.0
 50
215.67946911049839
 51
270.0
  0
LINE
  5
9DEB
  8
0
 10
208.91912637984461
 20
314.2251706013875
 30
0.0
 11
208.91912637984461
 21
308.1447514731866
 31
0.0
  0
ARC
  5
9DEC
  8
0
 10
212.91912637984461
 20
314.24475147318662
 30
0.0
 40
4.0
 50
90.0
 51
144.320530889503
  0
LINE
  5
9DF7
  8
0
 10
245.96925673408299
 20
315.74475147318662
 30
0.0
 11
262.91912637984461
 21
315.74475147318668
 31
0.0
  0
LINE
  5
9DFA
  8
0
 10
262.91912637984439
 20
306.64475147318672
 30
0.0
 11
245.96925673408299
 21
306.6447514731866
 31
0.0
  0
LINE
  5
9E04
  8
0
 10
248.41912637984461
 20
330.69475147318673
 30
0.0
 11
217.41912637984461
 21
330.69475147318673
 31
0.0
  0
ARC
  5
9E05
  8
0
 10
248.41912637984461
 20
326.69475147318673
 30
0.0
 40
4.0
 50
0.0
 51
90.0
  0
ARC
  5
9E06
  8
0
 10
217.41912637984461
 20
326.69475147318673
 30
0.0
 40
4.0
 50
90.0
 51
180.0
  0
LINE
  5
9E07
  8
0
 10
252.41912637984461
 20
326.69475147318673
 30
0.0
 11
252.41912637984461
 21
319.64258115006447
 31
0.0
  0
LINE
  5
9E08
  8
0
 10
213.41912637984461
 20
318.2447514731868
 30
0.0
 11
213.41912637984461
 21
326.69475147318673
 31
0.0
  0
LINE
  5
9E11
  8
0
 10
217.41912637984461
 20
291.69475147318673
 30
0.0
 11
248.41912637984461
 21
291.69475147318673
 31
0.0
  0
ARC
  5
9E12
  8
0
 10
217.41912637984461
 20
295.69475147318673
 30
0.0
 40
4.0
 50
180.0
 51
270.0
  0
ARC
  5
9E13
  8
0
 10
248.41912637984461
 20
295.69475147318673
 30
0.0
 40
4.0
 50
270.0
 51
0.0
  0
LINE
  5
9E14
  8
0
 10
252.41912637984461
 20
302.74692179631057
 30
0.0
 11
252.41912637984461
 21
295.69475147318673
 31
0.0
  0
LINE
  5
9E15
  8
0
 10
213.41912637984461
 20
295.69475147318673
 30
0.0
 11
213.41912637984461
 21
304.14475147318672
 31
0.0
  0
LINE
  5
9E1E
  8
0
 10
239.2773966191175
 20
308.69475147318673
 30
0.0
 11
240.96925673408299
 21
308.69475147318673
 31
0.0
  0
LINE
  5
9E25
  8
0
 10
240.96925673408299
 20
306.69475147312249
 30
0.0
 11
233.51707247736181
 21
306.69475147312249
 31
0.0
  0
LINE
  5
9E28
  8
0
 10
261.66912637984939
 20
306.69475147319491
 30
0.0
 11
250.1691263798397
 21
306.69475147319491
 31
0.0
  0
LINE
  5
9E29
  8
0
 10
244.717547286127
 20
302.77823328480349
 30
0.0
 11
244.71912637984809
 21
302.77823328480349
 31
0.0
  0
LINE
  5
9E2A
  8
0
 10
236.71912637984099
 20
302.77823328480349
 30
0.0
 11
244.717547286127
 21
302.77823328480349
 31
0.0
  0
LINE
  5
9E2B
  8
0
 10
242.7191263798446
 20
319.71140887544851
 30
0.0
 11
238.71912637984451
 21
319.71140887544851
 31
0.0
  0
LINE
  5
9E2C
  8
0
 10
244.71912637984451
 20
319.61126966156962
 30
0.0
 11
236.7191263798446
 21
319.61126966156962
 31
0.0
  0
LINE
  5
9E91
  8
0
 10
223.91912637984461
 20
43.603907408969519
 30
0.0
 11
223.9191263798447
 21
45.603907408969597
 31
0.0
  0
LINE
  5
9E92
  8
0
 10
217.91912637984461
 20
52.703907408969542
 30
0.0
 11
217.9191263798447
 21
50.703907408969627
 31
0.0
  0
LINE
  5
9E93
  8
0
 10
233.2670724773952
 20
43.753907408937039
 30
0.0
 11
233.4170724773488
 21
43.603907408969519
 31
0.0
  0
LINE
  5
9E94
  8
0
 10
245.11707247740091
 20
43.603907408969519
 30
0.0
 11
245.2670724773545
 21
43.753907408937039
 31
0.0
  0
LINE
  5
9E95
  8
0
 10
233.26707247737491
 20
45.453907408969357
 30
0.0
 11
233.26707247737491
 21
43.753907408937039
 31
0.0
  0
LINE
  5
9E96
  8
0
 10
245.26707247737491
 20
43.753907408937039
 30
0.0
 11
245.26707247737491
 21
45.453907408969357
 31
0.0
  0
LINE
  5
9E97
  8
0
 10
245.26707247738349
 20
45.453907408969357
 30
0.0
 11
245.06707247732399
 21
45.653907409014039
 31
0.0
  0
LINE
  5
9E98
  8
0
 10
233.46707247742569
 20
45.653907409014039
 30
0.0
 11
233.2670724773663
 21
45.453907408969357
 31
0.0
  0
ARC
  5
9E99
  8
0
 10
255.9191263798445
 20
-3.2960925910420542
 30
0.0
 40
60.000000000011909
 50
86.177446270722626
 51
93.344152204455824
  0
ARC
  5
9E9A
  8
0
 10
255.9191263798445
 20
99.60390740898896
 30
0.0
 40
60.0000000000217
 50
271.9102131717114
 51
273.82255372929052
  0
ARC
  5
9E9B
  8
0
 10
255.9191263798445
 20
99.60390740898896
 30
0.0
 40
60.000000000021693
 50
266.6558477955474
 51
268.08978682829178
  0
LINE
  5
9E9C
  8
0
 10
259.91912637984461
 20
39.737389220586408
 30
0.0
 11
259.91912637984461
 21
41.103907408969462
 31
0.0
  0
LINE
  5
9E9D
  8
0
 10
259.91912637984461
 20
55.203907408969421
 30
0.0
 11
259.91912637984461
 21
56.570425597352482
 31
0.0
  0
LINE
  5
9E9E
  8
0
 10
258.91912637984461
 20
52.653907408961231
 30
0.0
 11
258.91912637984461
 21
52.703907408969492
 31
0.0
  0
LINE
  5
9E9F
  8
0
 10
252.91912637984461
 20
52.703907408969492
 30
0.0
 11
252.91912637984461
 21
52.653907408961231
 31
0.0
  0
LINE
  5
9EA0
  8
0
 10
262.91912637984461
 20
41.103907408969462
 30
0.0
 11
262.91912637984461
 21
43.603907408969462
 31
0.0
  0
LINE
  5
9EA1
  8
0
 10
262.91912637984461
 20
52.703907408969492
 30
0.0
 11
262.91912637984461
 21
55.203907408969421
 31
0.0
  0
LINE
  5
9EA2
  8
0
 10
249.9191263798445
 20
45.453907408969428
 30
0.0
 11
249.9191263798445
 21
43.753907408937089
 31
0.0
  0
LINE
  5
9EA3
  8
0
 10
261.91912637984461
 20
43.753907408937089
 30
0.0
 11
261.91912637984461
 21
45.453907408969428
 31
0.0
  0
LINE
  5
9EA4
  8
0
 10
261.91912637987258
 20
45.453907408969428
 30
0.0
 11
261.71912637983542
 21
45.65390740896833
 31
0.0
  0
LINE
  5
9EA5
  8
0
 10
250.1191263798537
 20
45.65390740896833
 30
0.0
 11
249.9191263798165
 21
45.453907408969428
 31
0.0
  0
LINE
  5
9EA6
  8
0
 10
249.91912637991061
 20
43.753907408937089
 30
0.0
 11
250.0691263798717
 21
43.603907408969519
 31
0.0
  0
LINE
  5
9EA7
  8
0
 10
261.76912637981741
 20
43.603907408969462
 30
0.0
 11
261.9191263797785
 21
43.753907408937089
 31
0.0
  0
LINE
  5
9EA8
  8
0
 10
262.91912637984461
 20
45.653907408969467
 30
0.0
 11
262.91912637984461
 21
50.653907408969481
 31
0.0
  0
LINE
  5
9EA9
  8
0
 10
233.6317548672711
 20
50.65390740896941
 30
0.0
 11
233.6317548672711
 21
45.65390740896941
 31
0.0
  0
LINE
  5
9EAA
  8
0
 10
245.26707247737491
 20
50.903907408969417
 30
0.0
 11
245.26707247737491
 21
52.403907409039441
 31
0.0
  0
LINE
  5
9EAB
  8
0
 10
233.26707247737491
 20
52.403907409039441
 30
0.0
 11
233.26707247737491
 21
50.903907408969417
 31
0.0
  0
LINE
  5
9EAC
  8
0
 10
245.26707247736439
 20
52.403907409039441
 30
0.0
 11
245.01707247741149
 21
52.653907409033529
 31
0.0
  0
LINE
  5
9EAD
  8
0
 10
233.26707247729689
 20
50.903907408969417
 30
0.0
 11
233.5170724773898
 21
50.653907408933769
 31
0.0
  0
LINE
  5
9EAE
  8
0
 10
245.01707247735999
 20
50.653907408933769
 30
0.0
 11
245.2670724774529
 21
50.903907408969417
 31
0.0
  0
LINE
  5
9EAF
  8
0
 10
233.51707247736181
 20
52.653907409033529
 30
0.0
 11
233.2670724773854
 21
52.403907409039441
 31
0.0
  0
LINE
  5
9EB0
  8
0
 10
261.91912637984461
 20
50.903907408969467
 30
0.0
 11
261.91912637984461
 21
52.403907408925818
 31
0.0
  0
LINE
  5
9EB1
  8
0
 10
249.9191263798445
 20
52.403907408925818
 30
0.0
 11
249.9191263798445
 21
50.903907408969467
 31
0.0
  0
LINE
  5
9EB2
  8
0
 10
261.91912637991868
 20
52.403907408925818
 30
0.0
 11
261.66912637984939
 21
52.653907408961231
 31
0.0
  0
LINE
  5
9EB3
  8
0
 10
250.1691263798397
 20
52.653907408961231
 30
0.0
 11
249.9191263797704
 21
52.403907408925818
 31
0.0
  0
LINE
  5
9EB4
  8
0
 10
249.9191263798941
 20
50.903907408969467
 30
0.0
 11
250.16912637987039
 21
50.65390740902405
 31
0.0
  0
LINE
  5
9EB5
  8
0
 10
261.66912637981881
 20
50.65390740902405
 30
0.0
 11
261.91912637979499
 21
50.903907408969467
 31
0.0
  0
LINE
  5
9EB6
  8
0
 10
242.2670724773748
 20
52.653907409033529
 30
0.0
 11
242.2670724773748
 21
52.703907408969542
 31
0.0
  0
LINE
  5
9EB7
  8
0
 10
236.26707247737491
 20
52.703907408969542
 30
0.0
 11
236.26707247737491
 21
52.653907409033529
 31
0.0
  0
LINE
  5
9EBF
  8
0
 10
233.46707247742569
 20
45.653907409014039
 30
0.0
 11
262.91912637984461
 21
45.65390740901406
 31
0.0
  0
LINE
  5
9EC3
  8
0
 10
259.91912637984638
 20
56.570425597352482
 30
0.0
 11
252.41912637984461
 21
56.570425597352482
 31
0.0
  0
LINE
  5
9EC5
  8
0
 10
253.9191263798445
 20
39.637250006707461
 30
0.0
 11
257.9191263798449
 21
39.637250006707461
 31
0.0
  0
LINE
  5
9EC6
  8
0
 10
252.41912637984461
 20
39.737389220586408
 30
0.0
 11
259.91912637984461
 21
39.737389220586408
 31
0.0
  0
LINE
  5
9EC7
  8
0
 10
217.16912637984461
 20
34.15390740896953
 30
0.0
 11
217.16912637984461
 21
35.853907408969647
 31
0.0
  0
ARC
  5
9EC8
  8
0
 10
219.91912637984461
 20
34.15390740896953
 30
0.0
 40
2.75
 50
180.0
 51
0.0
  0
LINE
  5
9EC9
  8
0
 10
222.6691263798445
 20
35.853907408969647
 30
0.0
 11
222.6691263798445
 21
34.15390740896953
 31
0.0
  0
ARC
  5
9ECA
  8
0
 10
219.91912637984461
 20
35.853907408969647
 30
0.0
 40
2.75
 50
0.0
 51
180.0
  0
LINE
  5
9ECB
  8
0
 10
243.16912637984461
 20
34.15390740896953
 30
0.0
 11
243.16912637984461
 21
35.853907408969647
 31
0.0
  0
ARC
  5
9ECC
  8
0
 10
245.9191263798445
 20
34.15390740896953
 30
0.0
 40
2.7500000000000142
 50
180.0
 51
0.0
  0
LINE
  5
9ECD
  8
0
 10
248.66912637984461
 20
35.853907408969647
 30
0.0
 11
248.66912637984461
 21
34.15390740896953
 31
0.0
  0
ARC
  5
9ECE
  8
0
 10
245.9191263798445
 20
35.853907408969647
 30
0.0
 40
2.7500000000000142
 50
0.0
 51
180.0
  0
LINE
  5
9ECF
  8
0
 10
217.41912637984461
 20
28.65390740896953
 30
0.0
 11
248.41912637984461
 21
28.65390740896953
 31
0.0
  0
ARC
  5
9ED0
  8
0
 10
217.41912637984461
 20
32.65390740896953
 30
0.0
 40
4.0
 50
180.0
 51
270.0
  0
LINE
  5
9ED1
  8
0
 10
213.41912637984461
 20
32.65390740896953
 30
0.0
 11
213.41912637984461
 21
43.603907408969519
 31
0.0
  0
LINE
  5
9ED2
  8
0
 10
262.91912637984461
 20
43.603907408969519
 30
0.0
 11
213.41912637984461
 21
43.603907408969519
 31
0.0
  0
LINE
  5
9ED3
  8
0
 10
252.41912637984461
 20
32.65390740896953
 30
0.0
 11
252.41912637984461
 21
43.603907408969519
 31
0.0
  0
ARC
  5
9ED4
  8
0
 10
248.41912637984461
 20
32.65390740896953
 30
0.0
 40
4.0
 50
270.0
 51
0.0
  0
ARC
  5
9ED5
  8
0
 10
219.91912637984461
 20
62.15390740896953
 30
0.0
 40
2.75
 50
0.0
 51
180.0
  0
LINE
  5
9ED6
  8
0
 10
217.16912637984461
 20
60.453907408969357
 30
0.0
 11
217.16912637984461
 21
62.15390740896953
 31
0.0
  0
ARC
  5
9ED7
  8
0
 10
219.91912637984461
 20
60.453907408969357
 30
0.0
 40
2.75
 50
180.0
 51
0.0
  0
LINE
  5
9ED8
  8
0
 10
222.6691263798445
 20
62.15390740896953
 30
0.0
 11
222.6691263798445
 21
60.453907408969357
 31
0.0
  0
ARC
  5
9ED9
  8
0
 10
245.9191263798445
 20
62.15390740896953
 30
0.0
 40
2.7500000000000142
 50
0.0
 51
180.0
  0
LINE
  5
9EDA
  8
0
 10
243.16912637984461
 20
60.453907408969357
 30
0.0
 11
243.16912637984461
 21
62.15390740896953
 31
0.0
  0
ARC
  5
9EDB
  8
0
 10
245.9191263798445
 20
60.453907408969357
 30
0.0
 40
2.7500000000000142
 50
180.0
 51
0.0
  0
LINE
  5
9EDC
  8
0
 10
248.66912637984461
 20
62.15390740896953
 30
0.0
 11
248.66912637984461
 21
60.453907408969357
 31
0.0
  0
LINE
  5
9EDD
  8
0
 10
248.41912637984461
 20
67.65390740896953
 30
0.0
 11
217.41912637984461
 21
67.65390740896953
 31
0.0
  0
ARC
  5
9EDE
  8
0
 10
248.41912637984461
 20
63.65390740896953
 30
0.0
 40
4.0
 50
0.0
 51
90.0
  0
LINE
  5
9EDF
  8
0
 10
252.41912637984461
 20
63.65390740896953
 30
0.0
 11
252.41912637984461
 21
52.703907408969542
 31
0.0
  0
LINE
  5
9EE0
  8
0
 10
213.41912637984461
 20
52.703907408969542
 30
0.0
 11
262.91912637984461
 21
52.70390740896957
 31
0.0
  0
LINE
  5
9EE1
  8
0
 10
213.41912637984461
 20
63.65390740896953
 30
0.0
 11
213.41912637984461
 21
52.703907408969542
 31
0.0
  0
ARC
  5
9EE2
  8
0
 10
217.41912637984461
 20
63.65390740896953
 30
0.0
 40
4.0
 50
90.0
 51
180.0
  0
LINE
  5
9EE4
  8
0
 10
262.91912637984461
 20
41.103907408968688
 30
0.0
 11
252.41912637984461
 21
41.103907408969519
 31
0.0
  0
LINE
  5
9EE7
  8
0
 10
252.41912637984461
 20
55.203907408969492
 30
0.0
 11
262.91912637984461
 21
55.203907408969513
 31
0.0
  0
ARC
  5
9EE9
  8
0
 10
212.9191263798447
 20
45.103907408970372
 30
0.0
 40
4.0000000000008953
 50
255.5224878140732
 51
270.0
  0
ARC
  5
9EEB
  8
0
 10
212.91912637984461
 20
45.103907408969512
 30
0.0
 40
1.500000000000054
 50
228.18968510422391
 51
270.0
  0
LINE
  5
9EEC
  8
0
 10
212.91912637984461
 20
41.103907408969462
 30
0.0
 11
213.41912637984461
 21
41.103907408969519
 31
0.0
  0
LINE
  5
9EED
  8
0
 10
212.91912637984461
 20
43.603907408969462
 30
0.0
 11
213.41912637984461
 21
43.603907408969462
 31
0.0
  0
ARC
  5
9EEE
  8
0
 10
212.91912637984461
 20
51.203907408969833
 30
0.0
 40
3.9999999999996612
 50
90.0
 51
104.4775121859298
  0
ARC
  5
9EEF
  8
0
 10
212.91912637984461
 20
51.203907408969542
 30
0.0
 40
1.4999999999999769
 50
90.0
 51
131.81031489577961
  0
LINE
  5
9EF1
  8
0
 10
212.91912637984461
 20
55.203907408969492
 30
0.0
 11
213.41912637984461
 21
55.203907408969492
 31
0.0
  0
LINE
  5
9EF2
  8
0
 10
212.91912637984461
 20
52.703907408969492
 30
0.0
 11
213.41912637984461
 21
52.703907408969492
 31
0.0
  0
LINE
  5
9EF9
  8
0
 10
211.41912637984461
 20
45.103907408969462
 30
0.0
 11
211.41912637984461
 21
51.203907408969478
 31
0.0
  0
LINE
  5
9EFA
  8
0
 10
208.91912637984461
 20
45.103907408969462
 30
0.0
 11
208.91912637984461
 21
51.203907408969478
 31
0.0
  0
ARC
  5
9EFB
  8
0
 10
212.91912637984461
 20
51.203907408969478
 30
0.0
 40
1.5
 50
131.81031489577961
 51
180.0
  0
ARC
  5
9EFC
  8
0
 10
212.91912637984461
 20
45.103907408969462
 30
0.0
 40
1.5
 50
180.0
 51
228.18968510422391
  0
ARC
  5
9EFD
  8
0
 10
212.91912637984461
 20
51.203907408969478
 30
0.0
 40
4.0000000000000018
 50
104.4775121859298
 51
180.0
  0
ARC
  5
9EFE
  8
0
 10
212.91912637984461
 20
45.103907408969462
 30
0.0
 40
4.0
 50
180.0
 51
255.5224878140701
  0
LINE
  5
9F0C
  8
0
 10
262.91912637984461
 20
50.653907409454121
 30
0.0
 11
233.5170724773898
 21
50.653907408933769
 31
0.0
  0
LINE
  5
9F12
  8
0
 10
233.51707247736181
 20
52.653907409033529
 30
0.0
 11
245.01707247741149
 21
52.653907409033529
 31
0.0
  0
LINE
  5
9F17
  8
0
 10
250.1691263798397
 20
52.653907408961231
 30
0.0
 11
261.66912637984939
 21
52.653907408961231
 31
0.0
  0
ARC
  5
9FA8
  8
0
 10
1.46912636107811
 20
166.15390740895899
 30
0.0
 40
60.000000000011909
 50
356.1774462707242
 51
0.0
  0
ARC
  5
9FA9
  8
0
 10
1.46912636107811
 20
166.15390740895899
 30
0.0
 40
60.000000000011909
 50
0.0
 51
3.822553729277482
  0
ARC
  5
9FAA
  8
0
 10
104.369126361109
 20
166.15390740895899
 30
0.0
 40
60.000000000021693
 50
181.91021317170981
 51
183.82255372929049
  0
ARC
  5
9FAB
  8
0
 10
104.369126361109
 20
166.15390740895899
 30
0.0
 40
60.000000000021679
 50
176.1774462707111
 51
178.08978682829019
  0
LINE
  5
9FAC
  8
0
 10
44.502608172706523
 20
162.15390740895899
 30
0.0
 11
45.86912636108962
 21
162.15390740895899
 31
0.0
  0
LINE
  5
9FAD
  8
0
 10
45.86912636108962
 20
170.15390740895899
 30
0.0
 11
44.502608172706523
 21
170.15390740895899
 31
0.0
  0
LINE
  5
9FAE
  8
0
 10
59.96912636108965
 20
162.15390740895899
 30
0.0
 11
61.335644549472647
 21
162.15390740895899
 31
0.0
  0
LINE
  5
9FAF
  8
0
 10
61.335644549472647
 20
170.15390740895899
 30
0.0
 11
59.96912636108965
 21
170.15390740895899
 31
0.0
  0
LINE
  5
9FCB
  8
0
 10
61.335644549472647
 20
162.15390740895549
 30
0.0
 11
61.335644549472647
 21
170.1539074089626
 31
0.0
  0
LINE
  5
9FCC
  8
0
 10
44.402468958827569
 20
168.1539074089591
 30
0.0
 11
44.402468958827569
 21
164.1539074089589
 31
0.0
  0
LINE
  5
9FCD
  8
0
 10
44.502608172706523
 20
166.15390740895899
 30
0.0
 11
44.502608172706523
 21
162.15390740894219
 31
0.0
  0
LINE
  5
9FCE
  8
0
 10
44.502608172706523
 20
170.15390740897581
 30
0.0
 11
44.502608172706523
 21
166.15390740895899
 31
0.0
  0
POLYLINE
  5
9FCF
  8
0
 66
     1
 10
0.0
 20
0.0
 30
0.0
 70
   128
  0
VERTEX
  5
A6BB
  8
0
 10
45.869126361089741
 20
154.7719413977089
 30
0.0
  0
VERTEX
  5
A6BC
  8
0
 10
45.889837659172883
 20
155.0315088561224
 30
0.0
  0
VERTEX
  5
A6BD
  8
0
 10
45.964713081067259
 20
155.14819607828221
 30
0.0
  0
VERTEX
  5
A6BE
  8
0
 10
45.9961430148823
 20
155.15390740895899
 30
0.0
  0
SEQEND
  5
A6BF
  8
0
  0
LINE
  5
9FD0
  8
0
 10
45.869126361089677
 20
173.67129377456931
 30
0.0
 11
45.869126361089677
 21
150.6539074089591
 31
0.0
  0
LINE
  5
9FD3
  8
0
 10
45.9961430148823
 20
155.15390740895899
 30
0.0
 11
49.919126361089582
 21
155.15390740895899
 31
0.0
  0
LINE
  5
9FD7
  8
0
 10
59.969126361089771
 20
150.65390740895899
 30
0.0
 11
59.969126361089771
 21
173.67129377456951
 31
0.0
  0
POLYLINE
  5
9FD8
  8
0
 66
     1
 10
0.0
 20
0.0
 30
0.0
 70
   128
  0
VERTEX
  5
A6C0
  8
0
 10
59.84210970729719
 20
155.15390740895899
 30
0.0
  0
VERTEX
  5
A6C1
  8
0
 10
59.894756404413037
 20
155.13581716303821
 30
0.0
  0
VERTEX
  5
A6C2
  8
0
 10
59.933601031000357
 20
155.0790048141119
 30
0.0
  0
VERTEX
  5
A6C3
  8
0
 10
59.95689010914095
 20
154.98714728968929
 30
0.0
  0
VERTEX
  5
A6C4
  8
0
 10
59.967768017872402
 20
154.85707188964321
 30
0.0
  0
VERTEX
  5
A6C5
  8
0
 10
59.969126361089771
 20
154.7719413977089
 30
0.0
  0
SEQEND
  5
A6C6
  8
0
  0
POLYLINE
  5
9FDB
  8
0
 66
     1
 10
0.0
 20
0.0
 30
0.0
 70
   128
  0
VERTEX
  5
A6C7
  8
0
 10
48.75109237233989
 20
155.15390740895899
 30
0.0
  0
VERTEX
  5
A6C8
  8
0
 10
48.530034455732732
 20
155.11847402819251
 30
0.0
  0
VERTEX
  5
A6C9
  8
0
 10
48.40434013833061
 20
154.99249716893931
 30
0.0
  0
VERTEX
  5
A6CA
  8
0
 10
48.369126361089741
 20
154.7719413977089
 30
0.0
  0
SEQEND
  5
A6CB
  8
0
  0
POLYLINE
  5
9FDC
  8
0
 66
     1
 10
0.0
 20
0.0
 30
0.0
 70
   128
  0
VERTEX
  5
A6CC
  8
0
 10
57.469126361089771
 20
154.7719413977089
 30
0.0
  0
VERTEX
  5
A6CD
  8
0
 10
57.461262743933219
 20
154.89215390861469
 30
0.0
  0
VERTEX
  5
A6CE
  8
0
 10
57.433692980323201
 20
154.99299931431611
 30
0.0
  0
VERTEX
  5
A6CF
  8
0
 10
57.384154152211693
 20
155.06730250148121
 30
0.0
  0
VERTEX
  5
A6D0
  8
0
 10
57.307716121070087
 20
155.11869363171809
 30
0.0
  0
VERTEX
  5
A6D1
  8
0
 10
57.210008707490204
 20
155.1456410807013
 30
0.0
  0
VERTEX
  5
A6D2
  8
0
 10
57.087160349839621
 20
155.15390740895899
 30
0.0
  0
SEQEND
  5
A6D3
  8
0
  0
LINE
  5
9FDD
  8
0
 10
48.369126361089741
 20
154.7719413977089
 30
0.0
 11
48.369126361089677
 21
151.44390740896
 31
0.0
  0
LINE
  5
9FE2
  8
0
 10
57.469126361089771
 20
154.7719413977089
 30
0.0
 11
57.469126361089771
 21
151.44390740896
 31
0.0
  0
LINE
  5
9FE4
  8
0
 10
45.869126361089741
 20
150.65390740895899
 30
0.0
 11
33.419126361089639
 21
150.65390740895899
 31
0.0
  0
LINE
  5
9FE5
  8
0
 10
33.419126361089702
 20
148.1539074089591
 30
0.0
 11
47.919126361090548
 21
148.1539074089591
 31
0.0
  0
LINE
  5
9FE8
  8
0
 10
72.419126361089624
 20
150.65390740895899
 30
0.0
 11
59.969126361089771
 21
150.65390740895899
 31
0.0
  0
LINE
  5
9FEA
  8
0
 10
72.419126361089624
 20
148.1539074089591
 30
0.0
 11
57.919126361088729
 21
148.1539074089591
 31
0.0
  0
LINE
  5
9FED
  8
0
 10
33.419126361089702
 20
150.65390740895899
 30
0.0
 11
33.419126361089702
 21
148.1539074089591
 31
0.0
  0
LINE
  5
9FF6
  8
0
 10
72.419126361089695
 20
148.1539074089591
 30
0.0
 11
72.419126361089695
 21
150.65390740895899
 31
0.0
  0
LINE
  5
A0DD
  8
0
 10
444.06912637987688
 20
174.32448599775529
 30
0.0
 11
444.26912637982667
 21
174.5244859976865
 31
0.0
  0
LINE
  5
A0DF
  8
0
 10
442.36912637984449
 20
174.32448599773491
 30
0.0
 11
444.06912637987688
 21
174.32448599773491
 31
0.0
  0
LINE
  5
A0E2
  8
0
 10
442.16912637979982
 20
174.52448599778569
 30
0.0
 11
442.36912637984449
 21
174.3244859977263
 31
0.0
  0
ARC
  5
A0E3
  8
0
 10
491.11912637985591
 20
166.15390740895899
 30
0.0
 40
60.00000000001193
 50
176.1774462707225
 51
180.0
  0
ARC
  5
A0E4
  8
0
 10
491.11912637985591
 20
166.15390740895899
 30
0.0
 40
60.00000000001193
 50
180.00000000000159
 51
183.82255372927739
  0
ARC
  5
A0E5
  8
0
 10
388.2191263798249
 20
166.15390740895899
 30
0.0
 40
60.000000000021679
 50
1.9102131717098041
 51
3.8225537292888561
  0
ARC
  5
A0E6
  8
0
 10
388.2191263798249
 20
166.15390740895899
 30
0.0
 40
60.000000000021693
 50
356.17744627071119
 51
358.08978682829178
  0
LINE
  5
A0E7
  8
0
 10
448.08564456822751
 20
170.15390740895899
 30
0.0
 11
446.71912637984451
 21
170.15390740895899
 31
0.0
  0
LINE
  5
A0E8
  8
0
 10
446.71912637984451
 20
162.15390740895899
 30
0.0
 11
448.08564456822751
 21
162.15390740895899
 31
0.0
  0
LINE
  5
A0E9
  8
0
 10
432.61912637984437
 20
170.15390740895899
 30
0.0
 11
431.25260819146138
 21
170.15390740895899
 31
0.0
  0
LINE
  5
A0EA
  8
0
 10
431.25260819146138
 20
162.15390740895899
 30
0.0
 11
432.61912637984437
 21
162.15390740895899
 31
0.0
  0
LINE
  5
A0EB
  8
0
 10
435.16912637985268
 20
169.1539074089591
 30
0.0
 11
435.11912637984449
 21
169.1539074089591
 31
0.0
  0
LINE
  5
A0EC
  8
0
 10
435.11912637984449
 20
163.15390740895899
 30
0.0
 11
435.16912637985268
 21
163.15390740895899
 31
0.0
  0
LINE
  5
A0ED
  8
0
 10
446.71912637984451
 20
173.1539074089591
 30
0.0
 11
444.21912637984451
 21
173.1539074089591
 31
0.0
  0
LINE
  5
A0EE
  8
0
 10
435.11912637984449
 20
173.1539074089591
 30
0.0
 11
432.61912637984437
 21
173.1539074089591
 31
0.0
  0
LINE
  5
A0F1
  8
0
 10
442.36912637984449
 20
160.15390740895899
 30
0.0
 11
444.06912637987671
 21
160.15390740895899
 31
0.0
  0
LINE
  5
A0F2
  8
0
 10
444.06912637987671
 20
172.1539074089591
 30
0.0
 11
442.36912637984449
 21
172.1539074089591
 31
0.0
  0
LINE
  5
A0F3
  8
0
 10
442.36912637984449
 20
172.1539074089871
 30
0.0
 11
442.16912637984558
 21
171.9539074089499
 31
0.0
  0
LINE
  5
A0F4
  8
0
 10
442.16912637984558
 20
160.35390740896821
 30
0.0
 11
442.36912637984449
 21
160.15390740893099
 31
0.0
  0
LINE
  5
A0F5
  8
0
 10
444.06912637987671
 20
160.15390740902509
 30
0.0
 11
444.21912637984451
 21
160.30390740898619
 31
0.0
  0
LINE
  5
A0F6
  8
0
 10
444.21912637984451
 20
172.00390740893181
 30
0.0
 11
444.06912637987671
 21
172.15390740889291
 31
0.0
  0
LINE
  5
A0F7
  8
0
 10
437.1691263798445
 20
159.15390740895899
 30
0.0
 11
442.16912637984439
 21
159.15390740895899
 31
0.0
  0
LINE
  5
A0FA
  8
0
 10
435.41912637977453
 20
174.32448599773491
 30
0.0
 11
436.91912637984461
 21
174.32448599773491
 31
0.0
  0
LINE
  5
A0FB
  8
0
 10
435.16912637978038
 20
174.57448599769819
 30
0.0
 11
435.41912637977453
 21
174.3244859977454
 31
0.0
  0
LINE
  5
A0FC
  8
0
 10
436.91912637984461
 20
174.32448599765689
 30
0.0
 11
437.16912637988008
 21
174.5744859977498
 31
0.0
  0
LINE
  5
A0FF
  8
0
 10
436.91912637984461
 20
172.1539074089591
 30
0.0
 11
435.41912637988798
 21
172.1539074089591
 31
0.0
  0
LINE
  5
A100
  8
0
 10
435.41912637988798
 20
160.15390740895899
 30
0.0
 11
436.91912637984461
 21
160.15390740895899
 31
0.0
  0
LINE
  5
A101
  8
0
 10
435.41912637988798
 20
172.15390740903311
 30
0.0
 11
435.16912637985268
 21
171.9039074089639
 31
0.0
  0
LINE
  5
A102
  8
0
 10
435.16912637985268
 20
160.40390740895421
 30
0.0
 11
435.41912637988798
 21
160.15390740888489
 31
0.0
  0
LINE
  5
A103
  8
0
 10
436.91912637984461
 20
160.15390740900861
 30
0.0
 11
437.16912637978982
 21
160.40390740898491
 31
0.0
  0
LINE
  5
A104
  8
0
 10
437.16912637978982
 20
171.90390740893321
 30
0.0
 11
436.91912637984461
 21
172.15390740890939
 31
0.0
  0
ARC
  5
A105
  8
0
 10
491.11912637985591
 20
180.923907408959
 30
0.0
 40
60.00000000001188
 50
178.50149446743481
 51
180.0
  0
ARC
  5
A106
  8
0
 10
491.11912637985591
 20
180.923907408959
 30
0.0
 40
60.00000000001188
 50
180.0
 51
183.82255372927739
  0
ARC
  5
A108
  8
0
 10
388.21912637982513
 20
180.923907408959
 30
0.0
 40
60.000000000021679
 50
356.17744627071119
 51
358.08978682829178
  0
LINE
  5
A10A
  8
0
 10
446.71912637984451
 20
176.923907408959
 30
0.0
 11
448.08564456822762
 21
176.923907408959
 31
0.0
  0
LINE
  5
A10C
  8
0
 10
431.25260819146138
 20
176.923907408959
 30
0.0
 11
432.61912637984437
 21
176.923907408959
 31
0.0
  0
LINE
  5
A113
  8
0
 10
442.16912637984439
 20
159.15390740895899
 30
0.0
 11
442.16912637984427
 21
182.49295984054621
 31
0.0
  0
LINE
  5
A121
  8
0
 10
431.25260819146138
 20
170.15390740895899
 30
0.0
 11
431.25260819146138
 21
162.15390740895549
 31
0.0
  0
LINE
  5
A123
  8
0
 10
448.1857837821064
 20
164.1539074089589
 30
0.0
 11
448.1857837821064
 21
168.1539074089591
 31
0.0
  0
LINE
  5
A124
  8
0
 10
448.08564456822751
 20
162.15390740894219
 30
0.0
 11
448.08564456822751
 21
170.15390740897581
 31
0.0
  0
LINE
  5
A138
  8
0
 10
459.1691263798445
 20
148.1539074089591
 30
0.0
 11
444.21912637984451
 21
148.1539074089591
 31
0.0
  0
LINE
  5
A139
  8
0
 10
459.1691263798445
 20
150.65390740895899
 30
0.0
 11
446.71912637984451
 21
150.65390740895899
 31
0.0
  0
LINE
  5
A13B
  8
0
 10
446.71912637984451
 20
150.65390740895899
 30
0.0
 11
446.71912637984462
 21
182.49295984054621
 31
0.0
  0
LINE
  5
A13C
  8
0
 10
432.61912637984437
 20
150.65390740895899
 30
0.0
 11
420.16912637984461
 21
150.65390740895899
 31
0.0
  0
LINE
  5
A13D
  8
0
 10
420.1691263798445
 20
148.1539074089591
 30
0.0
 11
435.11912637984449
 21
148.1539074089591
 31
0.0
  0
LINE
  5
A13F
  8
0
 10
432.61912637984437
 20
150.65390740895899
 30
0.0
 11
432.61912637984437
 21
182.49295984054629
 31
0.0
  0
LINE
  5
A141
  8
0
 10
459.1691263798445
 20
148.1539074089591
 30
0.0
 11
459.1691263798445
 21
150.65390740895899
 31
0.0
  0
LINE
  5
A144
  8
0
 10
420.1691263798445
 20
150.65390740895899
 30
0.0
 11
420.1691263798445
 21
148.1539074089591
 31
0.0
  0
LINE
  5
A147
  8
0
 10
444.21912637984462
 20
174.474485997709
 30
0.0
 11
444.21912637984252
 21
148.1539074089591
 31
0.0
  0
LINE
  5
A150
  8
0
 10
435.1191263798446
 20
148.1539074089591
 30
0.0
 11
435.1191263798446
 21
182.49295984054621
 31
0.0
  0
POLYLINE
  5
A155
  8
0
 66
     1
 10
0.0
 20
0.0
 30
0.0
 70
   128
  0
VERTEX
  5
A6D4
  8
0
 10
443.83716036859448
 20
155.15390740895899
 30
0.0
  0
VERTEX
  5
A6D5
  8
0
 10
444.0582182852018
 20
155.11847402819251
 30
0.0
  0
VERTEX
  5
A6D6
  8
0
 10
444.1839126026037
 20
154.99249716893931
 30
0.0
  0
VERTEX
  5
A6D7
  8
0
 10
444.21912637984462
 20
154.7719413977089
 30
0.0
  0
SEQEND
  5
A6D8
  8
0
  0
POLYLINE
  5
A156
  8
0
 66
     1
 10
0.0
 20
0.0
 30
0.0
 70
   128
  0
VERTEX
  5
A6D9
  8
0
 10
435.1191263798446
 20
154.7719413977089
 30
0.0
  0
VERTEX
  5
A6DA
  8
0
 10
435.12698999700109
 20
154.89215390861469
 30
0.0
  0
VERTEX
  5
A6DB
  8
0
 10
435.15455976061111
 20
154.99299931431611
 30
0.0
  0
VERTEX
  5
A6DC
  8
0
 10
435.20409858872262
 20
155.06730250148121
 30
0.0
  0
VERTEX
  5
A6DD
  8
0
 10
435.28053661986428
 20
155.11869363171809
 30
0.0
  0
VERTEX
  5
A6DE
  8
0
 10
435.3782440334441
 20
155.1456410807013
 30
0.0
  0
VERTEX
  5
A6DF
  8
0
 10
435.50109239109469
 20
155.15390740895899
 30
0.0
  0
SEQEND
  5
A6E0
  8
0
  0
LINE
  5
A158
  8
0
 10
443.83716036859448
 20
155.15390740895899
 30
0.0
 11
435.50109239109469
 21
155.15390740895899
 31
0.0
  0
LINE
  5
A159
  8
0
 10
435.1191263798446
 20
175.15390740895899
 30
0.0
 11
435.16912637978038
 21
175.15390740895899
 31
0.0
  0
LINE
  5
A15E
  8
0
 10
437.16912637984427
 20
182.49295984054621
 30
0.0
 11
437.1691263798445
 21
159.15390740895899
 31
0.0
  0
LINE
  5
A169
  8
0
 10
435.16912637978038
 20
174.57448599769819
 30
0.0
 11
435.16912637978021
 21
182.49295984054621
 31
0.0
  0
LINE
  5
A16E
  8
0
 10
435.16912637985268
 20
160.40390740895421
 30
0.0
 11
435.16912637985268
 21
171.9039074089639
 31
0.0
  0
LINE
  5
A16F
  8
0
 10
431.25260819146138
 20
182.49295984054621
 30
0.0
 11
431.25260819146138
 21
176.92390740895539
 31
0.0
  0
LINE
  5
A171
  8
0
 10
448.18578378210651
 20
178.923907408959
 30
0.0
 11
448.1857837821064
 21
182.49295984054621
 31
0.0
  0
LINE
  5
A172
  8
0
 10
448.08564456822762
 20
176.9239074089422
 30
0.0
 11
448.08564456822751
 21
182.49295984054621
 31
0.0
  0
CIRCLE
  5
A24B
  8
0
 10
240.71912637984451
 20
180.923907408959
 30
0.0
 40
4.0
  0
CIRCLE
  5
A265
  8
0
 10
158.41912637984419
 20
48.153907408969793
 30
0.0
 40
4.9999999999881988
  0
LINE
  5
A26E
  8
0
 10
212.05383479782739
 20
43.878643976849503
 30
0.0
 11
212.70802382891631
 21
44.182631580301369
 31
0.0
  0
LINE
  5
A26F
  8
0
 10
208.91912637984461
 20
45.12348828076864
 30
0.0
 11
202.35684398231211
 21
42.12945314969582
 31
0.0
  0
LINE
  5
A270
  8
0
 10
211.41912637984441
 20
50.043703904030423
 30
0.0
 11
212.70802382891631
 21
49.455645663147287
 31
0.0
  0
LINE
  5
A271
  8
0
 10
209.6699560757701
 20
53.536908123740183
 30
0.0
 11
203.4261481435484
 21
56.438271673922003
 31
0.0
  0
LINE
  5
A272
  8
0
 10
217.9191263798447
 20
45.603907408969569
 30
0.0
 11
217.91912637984461
 21
43.603907408969519
 31
0.0
  0
LINE
  5
A273
  8
0
 10
223.9191263798447
 20
50.703907408969627
 30
0.0
 11
223.91912637984461
 21
52.703907408969492
 31
0.0
  0
LINE
  5
A27E
  8
0
 10
245.96912637984499
 20
45.653907409014039
 30
0.0
 11
245.96912637984499
 21
43.603907408969519
 31
0.0
  0
CIRCLE
  5
A28E
  8
0
 10
158.4191263798443
 20
311.19475147318661
 30
0.0
 40
3.0
  0
CIRCLE
  5
A28F
  8
3
 10
158.4191263798443
 20
311.19475147318661
 30
0.0
 40
2.458499999999999
  0
LINE
  5
A295
  8
0
 10
217.91912637984461
 20
308.6447514731866
 30
0.0
 11
217.91912637984461
 21
306.6447514731866
 31
0.0
  0
ARC
  5
A298
  8
0
 10
308.77855447801937
 20
332.24386491193042
 30
0.0
 40
0.2000000000002282
 50
265.7942784467329
 51
342.77888329666979
  0
ARC
  5
A299
  8
0
 10
295.54161691703302
 20
331.6463107399116
 30
0.0
 40
0.2000000000011796
 50
202.39060595805211
 51
279.37521080781562
  0
ARC
  5
A29A
  8
0
 10
295.54161691703302
 20
290.74319220646248
 30
0.0
 40
0.2000000000011797
 50
80.624789192224071
 51
157.60939404198879
  0
ARC
  5
A29B
  8
0
 10
308.77855447801949
 20
290.14563803444361
 30
0.0
 40
0.2000000000001732
 50
17.221116703296129
 51
94.205721553267139
  0
LINE
  5
A2A0
  8
0
 10
240.96925673408299
 20
313.69475147318673
 30
0.0
 11
239.2773966191173
 21
313.69475147318673
 31
0.0
  0
LINE
  5
A2A2
  8
0
 10
245.96925673408299
 20
308.69475147318673
 30
0.0
 11
262.91912637984461
 21
308.69475147318673
 31
0.0
  0
LINE
  5
A2A7
  8
0
 10
236.26707247737491
 20
306.69475147319491
 30
0.0
 11
236.26707247737491
 21
306.5947514731867
 31
0.0
  0
LINE
  5
A2A9
  8
0
 10
236.26707247737491
 20
306.64475147318672
 30
0.0
 11
227.96912637984431
 21
306.64475147318672
 31
0.0
  0
LINE
  5
A2AA
  8
0
 10
221.9691263798444
 20
315.74475147318651
 30
0.0
 11
212.91912637984461
 21
315.74475147318651
 31
0.0
  0
LINE
  5
A2B6
  8
0
 10
57.919126405249408
 20
172.6439074089632
 30
0.0
 11
57.919126405249408
 21
169.44390740894141
 31
0.0
  0
LINE
  5
A2C1
  8
0
 10
55.919126361089582
 20
155.15390740895899
 30
0.0
 11
59.84210970729719
 21
155.15390740895899
 31
0.0
  0
LINE
  5
A2EB
  8
0
 10
442.16912637984439
 20
173.65390740896399
 30
0.0
 11
442.2191263798444
 21
173.65390740896399
 31
0.0
  0
LINE
  5
A304
  8
1
 10
146.6691263798441
 20
311.19475147318661
 30
0.0
 11
344.72365916925941
 21
311.19475147318661
 31
0.0
  0
LINE
  5
A30D
  8
1
 10
158.4191263798443
 20
302.09475147318659
 30
0.0
 11
158.4191263798443
 21
320.29475147318658
 31
0.0
  0
LINE
  5
A30E
  8
1
 10
190.41912637984419
 20
305.1447514731866
 30
0.0
 11
190.41912637984419
 21
317.24475147318662
 31
0.0
  0
LINE
  5
A319
  8
1
 10
219.91912637984461
 20
151.6539074089591
 30
0.0
 11
219.91912637984461
 21
147.1539074089591
 31
0.0
  0
LINE
  5
A31D
  8
1
 10
245.9191263798445
 20
151.6539074089591
 30
0.0
 11
245.9191263798445
 21
147.1539074089591
 31
0.0
  0
LINE
  5
A326
  8
1
 10
146.66912637984419
 20
48.153907408969637
 30
0.0
 11
344.72365916925952
 21
48.153907408969637
 31
0.0
  0
LINE
  5
A327
  8
1
 10
223.6691263798447
 20
62.153907408969822
 30
0.0
 11
216.1691263798447
 21
62.153907408969822
 31
0.0
  0
LINE
  5
A328
  8
1
 10
223.6691263798447
 20
60.453907408969641
 30
0.0
 11
216.1691263798447
 21
60.453907408969641
 31
0.0
  0
LINE
  5
A329
  8
1
 10
158.41912637984441
 20
39.053907408969621
 30
0.0
 11
158.41912637984441
 21
57.25390740896966
 31
0.0
  0
LINE
  5
A32A
  8
1
 10
190.4191263798443
 20
42.103907408969633
 30
0.0
 11
190.4191263798443
 21
54.203907408969663
 31
0.0
  0
LINE
  5
A32B
  8
1
 10
219.91912637984461
 20
65.903907408969815
 30
0.0
 11
219.91912637984461
 21
56.703907408969641
 31
0.0
  0
LINE
  5
A32C
  8
1
 10
249.6691263798447
 20
62.153907408969822
 30
0.0
 11
242.1691263798447
 21
62.153907408969822
 31
0.0
  0
LINE
  5
A32D
  8
1
 10
249.6691263798447
 20
60.453907408969641
 30
0.0
 11
242.1691263798447
 21
60.453907408969641
 31
0.0
  0
LINE
  5
A32E
  8
1
 10
245.9191263798447
 20
65.903907408969815
 30
0.0
 11
245.9191263798447
 21
56.703907408969641
 31
0.0
  0
LINE
  5
A32F
  8
1
 10
223.6691263798447
 20
34.153907408969481
 30
0.0
 11
216.1691263798447
 21
34.153907408969481
 31
0.0
  0
LINE
  5
A330
  8
1
 10
223.6691263798447
 20
35.85390740896959
 30
0.0
 11
216.1691263798447
 21
35.85390740896959
 31
0.0
  0
LINE
  5
A331
  8
1
 10
219.91912637984461
 20
30.403907408969481
 30
0.0
 11
219.91912637984461
 21
39.60390740896959
 31
0.0
  0
LINE
  5
A332
  8
1
 10
249.6691263798447
 20
34.153907408969481
 30
0.0
 11
242.1691263798447
 21
34.153907408969481
 31
0.0
  0
LINE
  5
A333
  8
1
 10
249.6691263798447
 20
35.85390740896959
 30
0.0
 11
242.1691263798447
 21
35.85390740896959
 31
0.0
  0
LINE
  5
A334
  8
1
 10
245.9191263798447
 20
30.403907408969481
 30
0.0
 11
245.9191263798447
 21
39.60390740896959
 31
0.0
  0
LINE
  5
A33C
  8
1
 10
158.4191263798443
 20
144.94390740896901
 30
0.0
 11
158.4191263798443
 21
189.94390740902679
 31
0.0
  0
LINE
  5
A340
  8
3
 10
155.9606263798444
 20
151.94390740895901
 30
0.0
 11
155.9606263798444
 21
169.44390740893471
 31
0.0
  0
LINE
  5
A341
  8
3
 10
160.87762637984429
 20
151.94390740895901
 30
0.0
 11
160.87762637984429
 21
169.4439074089197
 31
0.0
  0
LINE
  5
A343
  8
3
 10
155.9606263798444
 20
184.7543723582875
 30
0.0
 11
155.9606263798444
 21
186.8719074089513
 31
0.0
  0
LINE
  5
A344
  8
3
 10
160.87762637984429
 20
186.15905002651539
 30
0.0
 11
160.87762637984429
 21
186.8719074089517
 31
0.0
  0
LINE
  5
A345
  8
3
 10
155.9606263798444
 20
172.64390740896309
 30
0.0
 11
155.9606263798444
 21
172.94390740895909
 31
0.0
  0
LINE
  5
A346
  8
3
 10
160.87762637984429
 20
172.64390740896229
 30
0.0
 11
160.87762637984429
 21
172.94390740895909
 31
0.0
  0
LINE
  5
A34E
  8
1
 10
224.96912637984451
 20
204.6939074089608
 30
0.0
 11
224.96912637984451
 21
194.69390740895719
 31
0.0
  0
LINE
  5
A34F
  8
1
 10
219.96912637984269
 20
199.69390740895901
 30
0.0
 11
229.9691263798463
 21
199.69390740895901
 31
0.0
  0
LINE
  5
A350
  8
1
 10
220.9191263798445
 20
187.15390740896081
 30
0.0
 11
220.9191263798445
 21
177.15390740895731
 31
0.0
  0
LINE
  5
A351
  8
1
 10
215.91912637984271
 20
182.15390740895899
 30
0.0
 11
225.9191263798464
 21
182.15390740895899
 31
0.0
  0
LINE
  5
A352
  8
1
 10
240.71912637984451
 20
185.92390740896079
 30
0.0
 11
240.71912637984451
 21
175.92390740895729
 31
0.0
  0
LINE
  5
A353
  8
1
 10
235.71912637984269
 20
180.923907408959
 30
0.0
 11
245.7191263798463
 21
180.923907408959
 31
0.0
  0
LINE
  5
A354
  8
1
 10
255.9191263798445
 20
171.15390740896081
 30
0.0
 11
255.9191263798445
 21
161.15390740895731
 31
0.0
  0
LINE
  5
A355
  8
1
 10
250.91912637984271
 20
166.15390740895899
 30
0.0
 11
260.91912637984638
 21
166.15390740895899
 31
0.0
  0
LINE
  5
A35D
  8
1
 10
52.919126361089582
 20
142.94390740896711
 30
0.0
 11
52.919126361089461
 21
216.1947514731865
 31
0.0
  0
LINE
  5
A35E
  8
3
 10
50.46062636108956
 20
151.94390740896
 30
0.0
 11
50.46062636108956
 21
169.4439074089357
 31
0.0
  0
LINE
  5
A35F
  8
3
 10
50.460626361089624
 20
184.54390740896011
 30
0.0
 11
50.46062636108956
 21
186.87190740895241
 31
0.0
  0
LINE
  5
A360
  8
3
 10
55.377626361089483
 20
151.94390740896
 30
0.0
 11
55.377626361089483
 21
169.44390740892081
 31
0.0
  0
LINE
  5
A361
  8
3
 10
55.377626361089483
 20
184.54390740896
 30
0.0
 11
55.377626361089483
 21
186.87190740895269
 31
0.0
  0
LINE
  5
A364
  8
1
 10
439.66912637984439
 20
142.94390740897111
 30
0.0
 11
439.66912637984427
 21
216.19475147319051
 31
0.0
  0
LINE
  5
A365
  8
3
 10
437.21062637984443
 20
151.94390740896401
 30
0.0
 11
437.21062637984443
 21
155.15390740895899
 31
0.0
  0
LINE
  5
A366
  8
3
 10
442.12762637984429
 20
151.94390740896401
 30
0.0
 11
442.12762637984429
 21
155.15390740895899
 31
0.0
  0
LINE
  5
A383
  8
0
 10
217.16912637984461
 20
297.19475147318639
 30
0.0
 11
217.16912637984461
 21
298.89475147318649
 31
0.0
  0
ARC
  5
A384
  8
0
 10
219.91912637984461
 20
297.19475147318639
 30
0.0
 40
2.75
 50
180.0
 51
0.0
  0
LINE
  5
A385
  8
0
 10
222.6691263798445
 20
298.89475147318649
 30
0.0
 11
222.6691263798445
 21
297.19475147318639
 31
0.0
  0
ARC
  5
A386
  8
0
 10
219.91912637984461
 20
298.89475147318649
 30
0.0
 40
2.75
 50
0.0
 51
180.0
  0
LINE
  5
A387
  8
0
 10
243.16912637984461
 20
297.19475147318639
 30
0.0
 11
243.16912637984461
 21
298.89475147318649
 31
0.0
  0
ARC
  5
A388
  8
0
 10
245.9191263798445
 20
297.19475147318639
 30
0.0
 40
2.7500000000000142
 50
180.0
 51
0.0
  0
LINE
  5
A389
  8
0
 10
248.66912637984461
 20
298.89475147318649
 30
0.0
 11
248.66912637984461
 21
297.19475147318639
 31
0.0
  0
ARC
  5
A38A
  8
0
 10
245.9191263798445
 20
298.89475147318649
 30
0.0
 40
2.7500000000000142
 50
0.0
 51
180.0
  0
ARC
  5
A38B
  8
0
 10
219.91912637984461
 20
325.1947514731865
 30
0.0
 40
2.75
 50
0.0
 51
180.0
  0
LINE
  5
A38C
  8
0
 10
217.16912637984461
 20
323.49475147318628
 30
0.0
 11
217.16912637984461
 21
325.1947514731865
 31
0.0
  0
ARC
  5
A38D
  8
0
 10
219.91912637984461
 20
323.49475147318628
 30
0.0
 40
2.75
 50
180.0
 51
0.0
  0
LINE
  5
A38E
  8
0
 10
222.6691263798445
 20
325.1947514731865
 30
0.0
 11
222.6691263798445
 21
323.49475147318628
 31
0.0
  0
ARC
  5
A38F
  8
0
 10
245.9191263798445
 20
325.1947514731865
 30
0.0
 40
2.7500000000000142
 50
0.0
 51
180.0
  0
LINE
  5
A390
  8
0
 10
243.16912637984461
 20
323.49475147318628
 30
0.0
 11
243.16912637984461
 21
325.1947514731865
 31
0.0
  0
ARC
  5
A391
  8
0
 10
245.9191263798445
 20
323.49475147318628
 30
0.0
 40
2.7500000000000142
 50
180.0
 51
0.0
  0
LINE
  5
A392
  8
0
 10
248.66912637984461
 20
325.1947514731865
 30
0.0
 11
248.66912637984461
 21
323.49475147318628
 31
0.0
  0
LINE
  5
A393
  8
1
 10
223.6691263798447
 20
325.19475147318673
 30
0.0
 11
216.1691263798447
 21
325.19475147318673
 31
0.0
  0
LINE
  5
A394
  8
1
 10
223.6691263798447
 20
323.49475147318662
 30
0.0
 11
216.1691263798447
 21
323.49475147318662
 31
0.0
  0
LINE
  5
A395
  8
1
 10
219.91912637984461
 20
328.94475147318673
 30
0.0
 11
219.91912637984461
 21
319.74475147318662
 31
0.0
  0
LINE
  5
A396
  8
1
 10
249.6691263798447
 20
325.19475147318673
 30
0.0
 11
242.1691263798447
 21
325.19475147318673
 31
0.0
  0
LINE
  5
A397
  8
1
 10
249.6691263798447
 20
323.49475147318662
 30
0.0
 11
242.1691263798447
 21
323.49475147318662
 31
0.0
  0
LINE
  5
A398
  8
1
 10
245.9191263798447
 20
328.94475147318673
 30
0.0
 11
245.9191263798447
 21
319.74475147318662
 31
0.0
  0
LINE
  5
A399
  8
1
 10
223.6691263798447
 20
297.19475147318639
 30
0.0
 11
216.1691263798447
 21
297.19475147318639
 31
0.0
  0
LINE
  5
A39A
  8
1
 10
223.6691263798447
 20
298.89475147318649
 30
0.0
 11
216.1691263798447
 21
298.89475147318649
 31
0.0
  0
LINE
  5
A39B
  8
1
 10
219.91912637984461
 20
293.44475147318639
 30
0.0
 11
219.91912637984461
 21
302.64475147318649
 31
0.0
  0
LINE
  5
A39C
  8
1
 10
249.6691263798447
 20
297.19475147318639
 30
0.0
 11
242.1691263798447
 21
297.19475147318639
 31
0.0
  0
LINE
  5
A39D
  8
1
 10
249.6691263798447
 20
298.89475147318649
 30
0.0
 11
242.1691263798447
 21
298.89475147318649
 31
0.0
  0
LINE
  5
A39E
  8
1
 10
245.9191263798447
 20
293.44475147318639
 30
0.0
 11
245.9191263798447
 21
302.64475147318649
 31
0.0
  0
LINE
  5
A486
  8
1
 10
38.919126361089297
 20
147.1539074089591
 30
0.0
 11
38.919126361089297
 21
151.6539074089591
 31
0.0
  0
LINE
  5
A487
  8
1
 10
40.61912636108945
 20
147.1539074089591
 30
0.0
 11
40.61912636108945
 21
151.6539074089591
 31
0.0
  0
LINE
  5
A488
  8
1
 10
65.219126361089479
 20
147.1539074089591
 30
0.0
 11
65.219126361089479
 21
151.6539074089591
 31
0.0
  0
LINE
  5
A489
  8
1
 10
66.919126361089639
 20
147.1539074089591
 30
0.0
 11
66.919126361089639
 21
151.6539074089591
 31
0.0
  0
LINE
  5
A48E
  8
1
 10
425.6691263798441
 20
147.1539074089591
 30
0.0
 11
425.6691263798441
 21
151.6539074089591
 31
0.0
  0
LINE
  5
A48F
  8
1
 10
427.3691263798442
 20
147.1539074089591
 30
0.0
 11
427.3691263798442
 21
151.6539074089591
 31
0.0
  0
LINE
  5
A490
  8
1
 10
451.96912637984428
 20
147.1539074089591
 30
0.0
 11
451.96912637984428
 21
151.6539074089591
 31
0.0
  0
LINE
  5
A491
  8
1
 10
453.66912637984439
 20
147.1539074089591
 30
0.0
 11
453.66912637984439
 21
151.6539074089591
 31
0.0
  0
LINE
  5
A4F6
  8
0
 10
57.519126379844529
 20
202.89390740895911
 30
0.0
 11
55.54527378116429
 21
202.89390740895911
 31
0.0
  0
LINE
  5
A4F7
  8
0
 10
50.29297894101424
 20
202.89390740895911
 30
0.0
 11
48.31912637984459
 21
202.89390740895911
 31
0.0
  0
TEXT
  5
A582
  8
0
 62
     3
 10
0.0
 20
0.0
 30
0.0
 40
10.0
  1
TCDHF06160
  7
STANDARD1
  0
ENDSEC
  0
EOF
