  0
SECTION
  2
HEADER
  9
$ACADVER
  1
AC1009
  9
$INSBASE
 10
0.0
 20
0.0
 30
0.0
  9
$EXTMIN
 10
0.0
 20
-2.960436562073669
 30
0.0
  9
$EXTMAX
 10
243.72504001435061
 20
176.03009091407739
 30
0.0
  9
$LIMMIN
 10
0.0
 20
0.0
  9
$LIMMAX
 10
420.0
 20
297.0
  9
$ORTHOMODE
 70
     1
  9
$REGENMODE
 70
     1
  9
$FILLMODE
 70
     1
  9
$QTEXTMODE
 70
     0
  9
$MIRRTEXT
 70
     0
  9
$DRAGMODE
 70
     2
  9
$LTSCALE
 40
10.0
  9
$OSMODE
 70
    55
  9
$ATTMODE
 70
     1
  9
$TEXTSIZE
 40
2.5
  9
$TRACEWID
 40
1.0
  9
$TEXTSTYLE
  7
STANDARD
  9
$CLAYER
  8
0
  9
$CELTYPE
  6
BYLAYER
  9
$CECOLOR
 62
   256
  9
$DIMSCALE
 40
1.0
  9
$DIMASZ
 40
2.5
  9
$DIMEXO
 40
0.625
  9
$DIMDLI
 40
3.75
  9
$DIMRND
 40
0.0
  9
$DIMDLE
 40
0.0
  9
$DIMEXE
 40
1.25
  9
$DIMTP
 40
0.0
  9
$DIMTM
 40
0.0
  9
$DIMTXT
 40
2.5
  9
$DIMCEN
 40
2.5
  9
$DIMTSZ
 40
0.0
  9
$DIMTOL
 70
     0
  9
$DIMLIM
 70
     0
  9
$DIMTIH
 70
     0
  9
$DIMTOH
 70
     0
  9
$DIMSE1
 70
     0
  9
$DIMSE2
 70
     0
  9
$DIMTAD
 70
     1
  9
$DIMZIN
 70
     8
  9
$DIMBLK
  1

  9
$DIMASO
 70
     1
  9
$DIMSHO
 70
     1
  9
$DIMPOST
  1

  9
$DIMAPOST
  1

  9
$DIMALT
 70
     0
  9
$DIMALTD
 70
     3
  9
$DIMALTF
 40
0.03937007874016
  9
$DIMLFAC
 40
1.0
  9
$DIMTOFL
 70
     1
  9
$DIMTVP
 40
0.0
  9
$DIMTIX
 70
     0
  9
$DIMSOXD
 70
     0
  9
$DIMSAH
 70
     0
  9
$DIMBLK1
  1

  9
$DIMBLK2
  1

  9
$DIMSTYLE
  2
ISO-25
  9
$DIMCLRD
 70
     0
  9
$DIMCLRE
 70
     0
  9
$DIMCLRT
 70
     0
  9
$DIMTFAC
 40
1.0
  9
$DIMGAP
 40
0.625
  9
$LUNITS
 70
     2
  9
$LUPREC
 70
     4
  9
$SKETCHINC
 40
1.0
  9
$FILLETRAD
 40
0.0
  9
$AUNITS
 70
     0
  9
$AUPREC
 70
     2
  9
$MENU
  1
.
  9
$ELEVATION
 40
0.0
  9
$PELEVATION
 40
0.0
  9
$THICKNESS
 40
0.0
  9
$LIMCHECK
 70
     0
  9
$BLIPMODE
 70
     0
  9
$CHAMFERA
 40
0.0
  9
$CHAMFERB
 40
0.0
  9
$SKPOLY
 70
     0
  9
$TDCREATE
 40
2454083.4444627082
  9
$TDUPDATE
 40
2456598.4291964578
  9
$TDINDWG
 40
1.4261167014
  9
$TDUSRTIMER
 40
1.4261167014
  9
$USRTIMER
 70
     1
  9
$ANGBASE
 50
0.0
  9
$ANGDIR
 70
     0
  9
$PDMODE
 70
     0
  9
$PDSIZE
 40
0.0
  9
$PLINEWID
 40
0.0
  9
$COORDS
 70
     1
  9
$SPLFRAME
 70
     0
  9
$SPLINETYPE
 70
     6
  9
$SPLINESEGS
 70
     8
  9
$ATTDIA
 70
     0
  9
$ATTREQ
 70
     1
  9
$HANDLING
 70
     1
  9
$HANDSEED
  5
C846
  9
$SURFTAB1
 70
     6
  9
$SURFTAB2
 70
     6
  9
$SURFTYPE
 70
     6
  9
$SURFU
 70
     6
  9
$SURFV
 70
     6
  9
$UCSNAME
  2

  9
$UCSORG
 10
0.0
 20
0.0
 30
0.0
  9
$UCSXDIR
 10
1.0
 20
0.0
 30
0.0
  9
$UCSYDIR
 10
0.0
 20
1.0
 30
0.0
  9
$PUCSNAME
  2

  9
$PUCSORG
 10
0.0
 20
0.0
 30
0.0
  9
$PUCSXDIR
 10
1.0
 20
0.0
 30
0.0
  9
$PUCSYDIR
 10
0.0
 20
1.0
 30
0.0
  9
$USERI1
 70
     0
  9
$USERI2
 70
     0
  9
$USERI3
 70
     0
  9
$USERI4
 70
     0
  9
$USERI5
 70
     0
  9
$USERR1
 40
0.0
  9
$USERR2
 40
0.0
  9
$USERR3
 40
0.0
  9
$USERR4
 40
0.0
  9
$USERR5
 40
0.0
  9
$WORLDVIEW
 70
     1
  9
$SHADEDGE
 70
     3
  9
$SHADEDIF
 70
    70
  9
$TILEMODE
 70
     1
  9
$MAXACTVP
 70
    64
  9
$PLIMCHECK
 70
     0
  9
$PEXTMIN
 10
0.0
 20
0.0
 30
0.0
  9
$PEXTMAX
 10
0.0
 20
0.0
 30
0.0
  9
$PLIMMIN
 10
0.0
 20
0.0
  9
$PLIMMAX
 10
12.0
 20
9.0
  9
$UNITMODE
 70
     0
  9
$VISRETAIN
 70
     1
  9
$PLINEGEN
 70
     0
  9
$PSLTSCALE
 70
     1
  0
ENDSEC
  0
SECTION
  2
TABLES
  0
TABLE
  2
VPORT
 70
     1
  0
VPORT
  2
*ACTIVE
 70
     0
 10
0.0
 20
0.0
 11
1.0
 21
1.0
 12
209.99359179753071
 22
216.8347166050676
 13
0.0
 23
0.0
 14
10.0
 24
10.0
 15
10.0
 25
10.0
 16
0.0
 26
0.0
 36
1.0
 17
0.0
 27
0.0
 37
0.0
 40
443.49497287230253
 41
1.7807262569832401
 42
50.0
 43
0.0
 44
0.0
 50
0.0
 51
0.0
 71
     0
 72
  1000
 73
     1
 74
     3
 75
     0
 76
     0
 77
     0
 78
     0
  0
ENDTAB
  0
TABLE
  2
LTYPE
 70
     2
  0
LTYPE
  2
CONTINUOUS
 70
     0
  3
Solid line
 72
    65
 73
     0
 40
0.0
  0
LTYPE
  2
CENTER
 70
     0
  3
____ _ ____ _ ____ _ ____ _ ____ _ ____ _ ____
 72
    65
 73
     4
 40
2.0
 49
1.25
 49
-0.25
 49
0.25
 49
-0.25
  0
ENDTAB
  0
TABLE
  2
LAYER
 70
     4
  0
LAYER
  2
0
 70
     0
 62
     7
  6
CONTINUOUS
  0
LAYER
  2
DEFPOINTS
 70
     0
 62
     7
  6
CONTINUOUS
  0
LAYER
  2
1
 70
     0
 62
     1
  6
CENTER
  0
LAYER
  2
3
 70
     0
 62
     3
  6
CONTINUOUS
  0
ENDTAB
  0
TABLE
  2
STYLE
 70
     2
  0
STYLE
  2
STANDARD
 70
     0
 40
0.0
 41
1.0
 50
0.0
 71
     0
 42
2.5
  3
txt
  4

  0
STYLE
  2
STANDARD1
 70
     0
 40
0.0
 41
1.0
 50
0.0
 71
     0
 42
3.0
  3
txt
  4

  0
ENDTAB
  0
TABLE
  2
VIEW
 70
     2
  0
VIEW
  2
OLE1
 70
     0
 40
17.336203194614189
 10
1078.262703908531
 20
377.67444865954309
 41
31.074911629702001
 11
0.0
 21
0.0
 31
1.0
 12
0.0
 22
0.0
 32
0.0
 42
50.0
 43
0.0
 44
0.0
 50
0.0
 71
     0
  0
VIEW
  2
OLE2
 70
     0
 40
50.523198253338478
 10
1031.767738941523
 20
579.92835671582054
 41
90.562155008667546
 11
0.0
 21
0.0
 31
1.0
 12
0.0
 22
0.0
 32
0.0
 42
50.0
 43
0.0
 44
0.0
 50
0.0
 71
     0
  0
ENDTAB
  0
TABLE
  2
UCS
 70
     0
  0
ENDTAB
  0
TABLE
  2
APPID
 70
    42
  0
APPID
  2
ACAD
 70
     0
  0
APPID
  2
_FTCNV
 70
     0
  0
APPID
  2
DCO15
 70
     0
  0
APPID
  2
GENIUS_GENOREF_13
 70
     0
  0
APPID
  2
GENIUS_GENOENT_13
 70
     0
  0
APPID
  2
GENIUS_GENBH_13
 70
     0
  0
APPID
  2
GENIUS_GENOBJ_13
 70
     0
  0
APPID
  2
GENIUS_GENODEF_13
 70
     0
  0
APPID
  2
GENIUS_GENOLIS_13
 70
     0
  0
APPID
  2
GENIUS_GENOBJ-NBEHI-BHF_13
 70
     0
  0
APPID
  2
GENIUS_GENOBJ-NBEHI-BHB_13
 70
     0
  0
APPID
  2
GENIUS_GENOBJ-F-PART_13
 70
     0
  0
APPID
  2
GENIUS_GEFSTDP_13
 70
     0
  0
APPID
  2
GENIUS_GENOBJ-N-RSSYM_13
 70
     0
  0
APPID
  2
GENIUS_GENSYMENT_13
 70
     0
  0
APPID
  2
GENIUS_GENOBJ-N-TIT_13
 70
     0
  0
APPID
  2
GENIUS_GENTITLE_13
 70
     0
  0
APPID
  2
GENIUS_GENZVEED_13
 70
     0
  0
APPID
  2
GENIUS_GENOBJ-N-LEADER_13
 70
     0
  0
APPID
  2
GENIUS_GENOBJ-N-FIL_13
 70
     0
  0
APPID
  2
GENIUS_GENOBJ-N-SEC_13
 70
     0
  0
APPID
  2
GENIUS_GENOBJ-N-CRS_13
 70
     0
  0
APPID
  2
GENIUS_GENOBJ-N-ZOO_13
 70
     0
  0
APPID
  2
GENIUS_GENZOO_13
 70
     0
  0
APPID
  2
GENIUS_GENOBJ-F-TOL_13
 70
     0
  0
APPID
  2
GENIUS_GENFIL_13
 70
     0
  0
APPID
  2
GENIUS_GENOBJ-N-CHA_13
 70
     0
  0
APPID
  2
_CALL_MAC$
 70
     0
  0
APPID
  2
ASM_BASE
 70
     0
  0
APPID
  2
ASM_EXPLO_VER_2_00
 70
     0
  0
APPID
  2
ASM_CADM_VER_12_00
 70
     0
  0
APPID
  2
ASM_BASEFORO
 70
     0
  0
APPID
  2
ASM_BASETRAVI
 70
     0
  0
APPID
  2
ASM_BASETRAVI1
 70
     0
  0
APPID
  2
ASM_GRUPPI
 70
     0
  0
APPID
  2
ASM_CADM_ALBERO
 70
     0
  0
APPID
  2
ASM_GOLE
 70
     0
  0
APPID
  2
ACAD_MLEADERVER
 70
     0
  0
APPID
  2
ACAD_EXEMPT_FROM_CAD_STANDARDS
 70
     0
  0
APPID
  2
ACAD_DSTYLE_DIMJAG
 70
     0
  0
APPID
  2
ACAD_DSTYLE_DIMTALN
 70
     0
  0
APPID
  2
ACAD_NAV_VCDISPLAY
 70
     0
  0
ENDTAB
  0
TABLE
  2
DIMSTYLE
 70
     2
  0
DIMSTYLE
  2
ISO-25
 70
     0
  3

  4

  5

  6

  7

 40
1.0
 41
2.5
 42
0.625
 43
3.75
 44
1.25
 45
0.0
 46
0.0
 47
0.0
 48
0.0
140
2.5
141
2.5
142
0.0
143
0.03937007874016
144
1.0
145
0.0
146
1.0
147
0.625
 71
     0
 72
     0
 73
     0
 74
     0
 75
     0
 76
     0
 77
     1
 78
     8
170
     0
171
     3
172
     1
173
     0
174
     0
175
     0
176
     0
177
     0
178
     0
  0
DIMSTYLE
  2
STANDARD
 70
     0
  3

  4

  5

  6

  7

 40
1.0
 41
0.18
 42
0.0625
 43
0.38
 44
0.18
 45
0.0
 46
0.0
 47
0.0
 48
0.0
140
0.18
141
0.09
142
0.0
143
25.399999999999999
144
1.0
145
0.0
146
1.0
147
0.09
 71
     0
 72
     0
 73
     1
 74
     1
 75
     0
 76
     0
 77
     0
 78
     0
170
     0
171
     2
172
     0
173
     0
174
     0
175
     0
176
     0
177
     0
178
     0
  0
ENDTAB
  0
ENDSEC
  0
SECTION
  2
BLOCKS
  0
BLOCK
  8
0
  2
$MODEL_SPACE
 70
     0
 10
0.0
 20
0.0
 30
0.0
  3
$MODEL_SPACE
  1

  0
ENDBLK
  5
21
  8
0
  0
BLOCK
 67
     1
  8
0
  2
$PAPER_SPACE
 70
     0
 10
0.0
 20
0.0
 30
0.0
  3
$PAPER_SPACE
  1

  0
ENDBLK
  5
53
 67
     1
  8
0
  0
ENDSEC
  0
SECTION
  2
ENTITIES
  0
CIRCLE
  5
BA20
  8
0
 10
128.31687954942271
 20
99.383995538020372
 30
0.0
 40
2.0000000000004232
  0
CIRCLE
  5
BA21
  8
0
 10
120.68504001435051
 20
99.2196474681773
 30
0.0
 40
2.0000000000004259
  0
CIRCLE
  5
BA22
  8
0
 10
135.88504001435049
 20
91.7196474681773
 30
0.0
 40
2.0000000000004259
  0
LINE
  5
BA29
  8
0
 10
137.68504001435051
 20
83.719647468177286
 30
0.0
 11
113.68504001435061
 21
83.719647468177286
 31
0.0
  0
LINE
  5
BA2A
  8
0
 10
113.68504001435061
 20
85.219647468177286
 30
0.0
 11
137.68504001435051
 21
85.219647468177286
 31
0.0
  0
ARC
  5
BA2D
  8
0
 10
115.0850400143505
 20
97.020561906348135
 30
0.0
 40
2.9999999999999849
 50
335.00000000000642
 51
0.0
  0
LINE
  5
BA2E
  8
0
 10
118.0850400143505
 20
99.2196474681773
 30
0.0
 11
118.0850400143505
 21
97.020561906348135
 31
0.0
  0
ARC
  5
BA2F
  8
0
 10
120.68504001435051
 20
99.2196474681773
 30
0.0
 40
2.6000000000000121
 50
44.158439304307727
 51
180.0
  0
LINE
  5
BA30
  8
0
 10
126.53279164735
 20
96.929712788158682
 30
0.0
 11
122.5503219324176
 21
101.03092419085991
 31
0.0
  0
ARC
  5
BA31
  8
0
 10
128.68504001435051
 20
99.019647468177254
 30
0.0
 40
3.0000000000000662
 50
224.15843930430771
 51
270.0
  0
LINE
  5
BA32
  8
0
 10
128.68504001435051
 20
96.019647468177254
 30
0.0
 11
141.68504001435051
 21
96.019647468177254
 31
0.0
  0
ARC
  5
BA34
  8
0
 10
139.68504001435051
 20
85.7196474681773
 30
0.0
 40
2.0
 50
90.0
 51
180.0
  0
LINE
  5
BA35
  8
0
 10
117.8039633754605
 20
95.75270712112615
 30
0.0
 11
113.68504001435051
 21
86.919647468177118
 31
0.0
  0
LINE
  5
BA36
  8
0
 10
137.68504001435051
 20
85.7196474681773
 30
0.0
 11
137.68504001435051
 21
83.719647468177286
 31
0.0
  0
LINE
  5
BA37
  8
0
 10
113.68504001435061
 20
83.719647468177286
 30
0.0
 11
113.68504001435051
 21
86.919647468177118
 31
0.0
  0
LINE
  5
BA38
  8
0
 10
141.68504001435051
 20
96.019647468177254
 30
0.0
 11
141.68504001435051
 21
87.719647468177286
 31
0.0
  0
LINE
  5
BA39
  8
0
 10
139.68504001435051
 20
87.719647468177286
 30
0.0
 11
141.68504001435051
 21
87.719647468177286
 31
0.0
  0
ARC
  5
BA3B
  8
0
 10
128.13999035801811
 20
99.346645948637615
 30
0.0
 40
2.9999999999999951
 50
192.499546698872
 51
205.17127198486801
  0
LINE
  5
BA3C
  8
0
 10
135.1137147273397
 20
96.689647468177554
 30
0.0
 11
135.79408503068211
 21
96.019647468177254
 31
0.0
  0
ARC
  5
BA64
  8
0
 10
128.31687954942331
 20
180.38009091407551
 30
0.0
 40
19.999999999998391
 50
264.26082952272537
 51
270.0
  0
ARC
  5
BA65
  8
0
 10
128.31687954942331
 20
180.38009091407551
 30
0.0
 40
19.999999999998391
 50
270.0
 51
275.73917047727463
  0
ARC
  5
BA66
  8
0
 10
128.31687954942331
 20
147.68009091407819
 30
0.0
 40
19.999999999999179
 50
92.149095626858795
 51
95.739170477274641
  0
ARC
  5
BA67
  8
0
 10
128.31687954942331
 20
147.68009091407819
 30
0.0
 40
19.999999999999179
 50
84.260829522725345
 51
87.850904373141205
  0
LINE
  5
BA68
  8
0
 10
126.31687954942331
 20
167.57983965620949
 30
0.0
 11
126.31687954942331
 21
167.0800909140772
 31
0.0
  0
LINE
  5
BA69
  8
0
 10
130.31687954942331
 20
167.0800909140772
 30
0.0
 11
130.31687954942331
 21
167.57983965620949
 31
0.0
  0
LINE
  5
BA6A
  8
0
 10
126.31687954942331
 20
160.98009091407729
 30
0.0
 11
126.31687954942331
 21
160.48034217194481
 31
0.0
  0
LINE
  5
BA6B
  8
0
 10
130.31687954942331
 20
160.48034217194481
 30
0.0
 11
130.31687954942331
 21
160.98009091407729
 31
0.0
  0
LINE
  5
BA6C
  8
0
 10
127.06687954942331
 20
165.58009091407669
 30
0.0
 11
127.06687954942331
 21
165.53009091407739
 31
0.0
  0
LINE
  5
BA6D
  8
0
 10
127.06687954942331
 20
162.53009091407739
 30
0.0
 11
127.06687954942331
 21
162.48009091407701
 31
0.0
  0
LINE
  5
BA6E
  8
0
 10
129.56687954942331
 20
162.48009091407701
 30
0.0
 11
129.56687954942331
 21
162.53009091407739
 31
0.0
  0
LINE
  5
BA6F
  8
0
 10
129.56687954942331
 20
165.53009091407739
 30
0.0
 11
129.56687954942339
 21
165.58009091407669
 31
0.0
  0
ARC
  5
BA70
  8
0
 10
120.685040014351
 20
180.38009091407551
 30
0.0
 40
19.999999999998391
 50
264.26082952272537
 51
270.0
  0
ARC
  5
BA71
  8
0
 10
120.685040014351
 20
180.38009091407551
 30
0.0
 40
19.999999999998391
 50
270.0
 51
271.20329982333669
  0
ARC
  5
BA72
  8
0
 10
120.685040014351
 20
147.68009091407819
 30
0.0
 40
19.999999999999179
 50
92.149095626858795
 51
95.739170477274641
  0
LINE
  5
BA74
  8
0
 10
118.685040014351
 20
167.57983965620949
 30
0.0
 11
118.685040014351
 21
167.0800909140772
 31
0.0
  0
LINE
  5
BA76
  8
0
 10
118.685040014351
 20
160.98009091407729
 30
0.0
 11
118.685040014351
 21
160.48034217194481
 31
0.0
  0
ARC
  5
BA7A
  8
0
 10
135.88504001435101
 20
180.38009091407551
 30
0.0
 40
19.999999999998391
 50
264.26082952272537
 51
270.0
  0
ARC
  5
BA7B
  8
0
 10
135.88504001435101
 20
180.38009091407551
 30
0.0
 40
19.999999999998391
 50
270.0
 51
275.73917047727463
  0
ARC
  5
BA7C
  8
0
 10
135.88504001435101
 20
147.68009091407819
 30
0.0
 40
19.999999999999201
 50
92.149095626858795
 51
95.739170477274641
  0
ARC
  5
BA7D
  8
0
 10
135.88504001435101
 20
147.68009091407819
 30
0.0
 40
19.999999999999201
 50
84.260829522725345
 51
87.850904373141205
  0
LINE
  5
BA7E
  8
0
 10
133.88504001435101
 20
167.57983965620949
 30
0.0
 11
133.88504001435101
 21
167.0800909140774
 31
0.0
  0
LINE
  5
BA7F
  8
0
 10
137.88504001435101
 20
167.0800909140774
 30
0.0
 11
137.88504001435101
 21
167.57983965620949
 31
0.0
  0
LINE
  5
BA80
  8
0
 10
133.88504001435101
 20
160.98009091407729
 30
0.0
 11
133.88504001435101
 21
160.48034217194481
 31
0.0
  0
LINE
  5
BA81
  8
0
 10
137.88504001435101
 20
160.48034217194481
 30
0.0
 11
137.88504001435101
 21
160.98009091407729
 31
0.0
  0
LINE
  5
BA82
  8
0
 10
134.63504001435101
 20
165.58009091407709
 30
0.0
 11
134.63504001435101
 21
165.53009091407739
 31
0.0
  0
LINE
  5
BA83
  8
0
 10
134.63504001435101
 20
162.53009091407739
 30
0.0
 11
134.63504001435101
 21
162.48009091407721
 31
0.0
  0
LINE
  5
BA84
  8
0
 10
137.13504001435101
 20
162.48009091407721
 30
0.0
 11
137.13504001435101
 21
162.53009091407739
 31
0.0
  0
LINE
  5
BA85
  8
0
 10
137.13504001435101
 20
165.53009091407739
 30
0.0
 11
137.13504001435101
 21
165.58009091407709
 31
0.0
  0
LINE
  5
BA86
  8
0
 10
125.13999035801891
 20
165.53009091407739
 30
0.0
 11
125.13999035801869
 21
162.53009091407739
 31
0.0
  0
LINE
  5
BA87
  8
0
 10
138.88504001435101
 20
162.53009091407739
 30
0.0
 11
138.88504001435101
 21
165.53009091407739
 31
0.0
  0
LINE
  5
BA8A
  8
0
 10
130.31665425860979
 20
160.48034217194481
 30
0.0
 11
130.3168795494241
 21
160.48034217194481
 31
0.0
  0
LINE
  5
BA8B
  8
0
 10
126.3168795494224
 20
160.48034217194481
 30
0.0
 11
130.31665425860979
 21
160.48034217194481
 31
0.0
  0
LINE
  5
BA8C
  8
0
 10
129.06687954942331
 20
167.6660234667506
 30
0.0
 11
127.56687954942321
 21
167.6660234667506
 31
0.0
  0
LINE
  5
BA8D
  8
0
 10
130.31687954942331
 20
167.57983965620949
 30
0.0
 11
126.31687954942331
 21
167.57983965620949
 31
0.0
  0
LINE
  5
BA93
  8
0
 10
133.88504001435061
 20
160.48034217194481
 30
0.0
 11
137.8850400143514
 21
160.48034217194481
 31
0.0
  0
LINE
  5
BA94
  8
0
 10
136.63504001435101
 20
167.6660234667506
 30
0.0
 11
135.13504001435101
 21
167.6660234667506
 31
0.0
  0
LINE
  5
BA95
  8
0
 10
137.88504001435101
 20
167.57983965620949
 30
0.0
 11
133.88504001435101
 21
167.57983965620949
 31
0.0
  0
LINE
  5
BA98
  8
0
 10
118.08504001435099
 20
167.0800909140772
 30
0.0
 11
118.08504001435099
 21
165.58009091407709
 31
0.0
  0
LINE
  5
BA9A
  8
0
 10
118.08504001435099
 20
160.98009091407729
 30
0.0
 11
118.08504001435099
 21
162.48009091407721
 31
0.0
  0
LINE
  5
BAA5
  8
0
 10
117.803963375461
 20
165.58009091407709
 30
0.0
 11
118.08504001435099
 21
165.58009091407709
 31
0.0
  0
LINE
  5
BAA9
  8
0
 10
118.08504001435099
 20
162.48009091407721
 30
0.0
 11
117.803963375461
 21
162.48009091407721
 31
0.0
  0
ARC
  5
BAAC
  8
0
 10
139.68504001435099
 20
162.98009091407721
 30
0.0
 40
0.5
 50
270.0
 51
0.0
  0
LINE
  5
BAAD
  8
0
 10
140.18504001435099
 20
165.08009091407709
 30
0.0
 11
140.18504001435099
 21
162.98009091407721
 31
0.0
  0
ARC
  5
BAAE
  8
0
 10
139.68504001435099
 20
165.08009091407709
 30
0.0
 40
0.5
 50
0.0
 51
90.0
  0
ARC
  5
BAAF
  8
0
 10
139.68504001435099
 20
165.08009091407709
 30
0.0
 40
2.0
 50
0.0
 51
14.47751218591684
  0
LINE
  5
BAB0
  8
0
 10
141.68504001435099
 20
162.98009091407721
 30
0.0
 11
141.68504001435099
 21
165.08009091407709
 31
0.0
  0
ARC
  5
BAB1
  8
0
 10
139.68504001435099
 20
162.98009091407721
 30
0.0
 40
2.0
 50
345.52248781405632
 51
0.0
  0
LINE
  5
BAB7
  8
0
 10
113.685040014351
 20
165.5800909140774
 30
0.0
 11
114.6422640686243
 21
165.58009091407709
 31
0.0
  0
LINE
  5
BAB9
  8
0
 10
113.685040014351
 20
162.48009091407721
 30
0.0
 11
113.6850400143511
 21
161.78752796451499
 31
0.0
  0
LINE
  5
BABB
  8
0
 10
114.6422640686242
 20
162.48009091407721
 30
0.0
 11
113.685040014351
 21
162.48009091407721
 31
0.0
  0
ARC
  5
BABC
  8
0
 10
133.68504001435099
 20
172.03009091407739
 30
0.0
 40
2.100000000000005
 50
300.25643716352778
 51
120.25643716352771
  0
LINE
  5
BABD
  8
0
 10
129.6269108607504
 20
172.09402660596399
 30
0.0
 11
132.6269108607504
 21
173.84402660596399
 31
0.0
  0
ARC
  5
BABE
  8
0
 10
130.68504001435099
 20
170.28009091407739
 30
0.0
 40
2.1000000000000121
 50
120.25643716352771
 51
300.25643716352778
  0
LINE
  5
BABF
  8
0
 10
134.74316916795161
 20
170.21615522219059
 30
0.0
 11
131.74316916795161
 21
168.46615522219059
 31
0.0
  0
ARC
  5
BAC0
  8
0
 10
120.685040014351
 20
170.28009091407739
 30
0.0
 40
2.1000000000000019
 50
239.74356283647219
 51
59.743562836472229
  0
LINE
  5
BAC1
  8
0
 10
118.74316916795161
 20
173.84402660596399
 30
0.0
 11
121.74316916795161
 21
172.09402660596399
 31
0.0
  0
ARC
  5
BAC2
  8
0
 10
117.685040014351
 20
172.03009091407739
 30
0.0
 40
2.0999999999999979
 50
59.743562836472229
 51
239.74356283647219
  0
LINE
  5
BAC3
  8
0
 10
119.6269108607504
 20
168.46615522219059
 30
0.0
 11
116.6269108607504
 21
170.21615522219059
 31
0.0
  0
LINE
  5
BAC4
  8
0
 10
133.68504001435099
 20
176.03009091407739
 30
0.0
 11
117.685040014351
 21
176.03009091407739
 31
0.0
  0
ARC
  5
BAC5
  8
0
 10
133.68504001435099
 20
172.03009091407739
 30
0.0
 40
4.0
 50
0.0
 51
90.0
  0
ARC
  5
BAC6
  8
0
 10
117.685040014351
 20
172.03009091407739
 30
0.0
 40
3.999999999999992
 50
90.0
 51
180.0
  0
LINE
  5
BAC7
  8
0
 10
137.68504001435099
 20
172.03009091407739
 30
0.0
 11
137.68504001435099
 21
167.5989262213939
 31
0.0
  0
LINE
  5
BAC8
  8
0
 10
113.6850400143509
 20
165.5800909140776
 30
0.0
 11
113.685040014351
 21
166.27265386363959
 31
0.0
  0
ARC
  5
BAC9
  8
0
 10
133.68504001435099
 20
156.03009091407739
 30
0.0
 40
2.100000000000005
 50
239.74356283647219
 51
59.743562836472229
  0
LINE
  5
BACA
  8
0
 10
131.74316916795161
 20
159.59402660596399
 30
0.0
 11
134.74316916795161
 21
157.8440266059641
 31
0.0
  0
ARC
  5
BACB
  8
0
 10
130.68504001435099
 20
157.78009091407739
 30
0.0
 40
2.100000000000025
 50
59.743562836472229
 51
239.74356283647219
  0
LINE
  5
BACC
  8
0
 10
132.6269108607504
 20
154.21615522219059
 30
0.0
 11
129.6269108607504
 21
155.96615522219059
 31
0.0
  0
ARC
  5
BACD
  8
0
 10
120.685040014351
 20
157.78009091407739
 30
0.0
 40
2.1000000000000139
 50
300.25643716352778
 51
120.25643716352771
  0
LINE
  5
BACE
  8
0
 10
116.6269108607504
 20
157.8440266059641
 30
0.0
 11
119.6269108607504
 21
159.59402660596399
 31
0.0
  0
ARC
  5
BACF
  8
0
 10
117.685040014351
 20
156.03009091407739
 30
0.0
 40
2.1000000000000019
 50
120.25643716352771
 51
300.25643716352778
  0
LINE
  5
BAD0
  8
0
 10
121.74316916795161
 20
155.96615522219059
 30
0.0
 11
118.74316916795161
 21
154.21615522219059
 31
0.0
  0
LINE
  5
BAD1
  8
0
 10
117.685040014351
 20
152.03009091407739
 30
0.0
 11
133.68504001435099
 21
152.03009091407739
 31
0.0
  0
ARC
  5
BAD2
  8
0
 10
117.685040014351
 20
156.03009091407739
 30
0.0
 40
3.999999999999992
 50
180.0
 51
270.0
  0
ARC
  5
BAD3
  8
0
 10
133.68504001435099
 20
156.03009091407739
 30
0.0
 40
4.0
 50
270.0
 51
0.0
  0
LINE
  5
BAD4
  8
0
 10
137.68504001435099
 20
156.03009091407739
 30
0.0
 11
137.68504001435099
 21
160.46125560676049
 31
0.0
  0
LINE
  5
BAD5
  8
0
 10
113.6850400143511
 20
159.9360944241721
 30
0.0
 11
113.685040014351
 21
156.03009091407739
 31
0.0
  0
LINE
  5
BADC
  8
0
 10
125.13999035801859
 20
162.53009091407739
 30
0.0
 11
138.88504001435101
 21
162.53009091407739
 31
0.0
  0
LINE
  5
BAE5
  8
0
 10
138.88504001435101
 20
165.53009091407739
 30
0.0
 11
125.13999035801859
 21
165.53009091407739
 31
0.0
  0
ARC
  5
BB33
  8
0
 10
23.635040006557659
 20
91.719647634129387
 30
0.0
 40
19.999999999998401
 50
354.26082952272532
 51
0.0
  0
ARC
  5
BB34
  8
0
 10
23.635040006557659
 20
91.719647634129387
 30
0.0
 40
19.999999999998401
 50
0.0
 51
5.739170477274663
  0
ARC
  5
BB35
  8
0
 10
56.335040006554983
 20
91.719647634129387
 30
0.0
 40
19.999999999999201
 50
182.14909562685889
 51
185.7391704772746
  0
ARC
  5
BB36
  8
0
 10
56.335040006554983
 20
91.719647634129387
 30
0.0
 40
19.999999999999201
 50
174.26082952272529
 51
177.85090437314111
  0
LINE
  5
BB37
  8
0
 10
36.435291264423512
 20
89.719647634129387
 30
0.0
 11
36.935040006555909
 21
89.719647634129387
 31
0.0
  0
LINE
  5
BB38
  8
0
 10
36.485040014350687
 20
93.719647634129373
 30
0.0
 11
36.435291264423512
 21
93.719647634129373
 31
0.0
  0
LINE
  5
BB39
  8
0
 10
43.035040006555931
 20
89.719647634129387
 30
0.0
 11
43.534788748688328
 21
89.719647634129387
 31
0.0
  0
LINE
  5
BB3A
  8
0
 10
43.534788748688328
 20
93.719647634129373
 30
0.0
 11
43.485040014360457
 21
93.719647634129373
 31
0.0
  0
LINE
  5
BB4C
  8
0
 10
43.534788748688328
 20
89.719647634128933
 30
0.0
 11
43.534788748688328
 21
93.719647634129842
 31
0.0
  0
LINE
  5
BB4D
  8
0
 10
36.349107453882631
 20
92.469647634129373
 30
0.0
 11
36.349107453882631
 21
90.969647634129387
 31
0.0
  0
LINE
  5
BB4E
  8
0
 10
36.435291264423512
 20
91.719647634129387
 30
0.0
 11
36.435291264423512
 21
89.719647634129387
 31
0.0
  0
LINE
  5
BB4F
  8
0
 10
36.435291264423512
 20
93.719647634129373
 30
0.0
 11
36.435291264423512
 21
91.719647634129387
 31
0.0
  0
LINE
  5
BB50
  8
0
 10
36.935040006555909
 20
85.219647634129373
 30
0.0
 11
27.98504000655587
 21
85.219647634129373
 31
0.0
  0
LINE
  5
BB54
  8
0
 10
27.98504000655587
 20
83.719647634129373
 30
0.0
 11
36.485040014349998
 21
83.719647634129174
 31
0.0
  0
LINE
  5
BB59
  8
0
 10
43.035040006555931
 20
85.219647634129373
 30
0.0
 11
51.985040006555863
 21
85.219647634129373
 31
0.0
  0
LINE
  5
BB5B
  8
0
 10
51.985040006555863
 20
83.719647634129174
 30
0.0
 11
43.485040014350801
 21
83.719647634129174
 31
0.0
  0
LINE
  5
BB62
  8
0
 10
27.98504000655598
 20
83.719647634129373
 30
0.0
 11
27.98504000655598
 21
85.219647634129373
 31
0.0
  0
LINE
  5
BB65
  8
0
 10
51.985040006555977
 20
85.219647634129373
 30
0.0
 11
51.985040006555977
 21
83.719647634129373
 31
0.0
  0
LINE
  5
BB70
  8
0
 10
36.935040006555681
 20
93.019647634060448
 30
0.0
 11
36.935040006555681
 21
85.219647634129373
 31
0.0
  0
LINE
  5
BB76
  8
0
 10
43.035040006556159
 20
93.019647634060448
 30
0.0
 11
43.035040006556272
 21
85.219647634129373
 31
0.0
  0
ARC
  5
BBF3
  8
0
 10
248.0750400143487
 20
99.383995538020372
 30
0.0
 40
19.999999999998408
 50
178.1514798169093
 51
180.0
  0
ARC
  5
BBF4
  8
0
 10
248.0750400143487
 20
99.383995538020372
 30
0.0
 40
19.999999999998408
 50
180.0
 51
185.7391704772746
  0
ARC
  5
BBF6
  8
0
 10
215.3750400143513
 20
99.383995538020372
 30
0.0
 40
19.999999999999211
 50
354.26082952273828
 51
357.85090437314108
  0
LINE
  5
BBF8
  8
0
 10
234.77504001435031
 20
97.383995538020386
 30
0.0
 11
235.27478875648271
 21
97.383995538020386
 31
0.0
  0
LINE
  5
BBFA
  8
0
 10
228.175291272218
 20
97.383995538020386
 30
0.0
 11
228.6750400143504
 21
97.383995538020386
 31
0.0
  0
ARC
  5
BC00
  8
0
 10
248.0750400143487
 20
99.2196474681773
 30
0.0
 40
19.999999999998408
 50
179.76458806831371
 51
185.7391704772746
  0
ARC
  5
BC02
  8
0
 10
215.3750400143513
 20
99.2196474681773
 30
0.0
 40
19.999999999999211
 50
354.26082952273828
 51
357.85090437314108
  0
LINE
  5
BC03
  8
0
 10
234.77504001435031
 20
97.219647468177314
 30
0.0
 11
235.27478875648291
 21
97.219647468177314
 31
0.0
  0
LINE
  5
BC04
  8
0
 10
228.175291272218
 20
97.219647468177314
 30
0.0
 11
228.6750400143504
 21
97.219647468177314
 31
0.0
  0
LINE
  5
BC05
  8
0
 10
230.1750400143504
 20
97.9696474681773
 30
0.0
 11
230.22504001435061
 21
97.9696474681773
 31
0.0
  0
LINE
  5
BC06
  8
0
 10
233.22504001435041
 20
97.9696474681773
 30
0.0
 11
233.27504001435031
 21
97.9696474681773
 31
0.0
  0
ARC
  5
BC07
  8
0
 10
248.0750400143487
 20
91.7196474681773
 30
0.0
 40
19.999999999998408
 50
174.26082952272529
 51
180.0
  0
ARC
  5
BC08
  8
0
 10
248.0750400143487
 20
91.7196474681773
 30
0.0
 40
19.999999999998408
 50
180.0
 51
185.7391704772746
  0
ARC
  5
BC09
  8
0
 10
215.3750400143513
 20
91.7196474681773
 30
0.0
 40
19.999999999999211
 50
2.1490956268589061
 51
5.7391704772746737
  0
ARC
  5
BC0A
  8
0
 10
215.3750400143513
 20
91.7196474681773
 30
0.0
 40
19.999999999999211
 50
354.26082952273828
 51
357.85090437314108
  0
LINE
  5
BC0B
  8
0
 10
235.27478875648271
 20
93.719647468177286
 30
0.0
 11
234.77504001435031
 21
93.719647468177286
 31
0.0
  0
LINE
  5
BC0C
  8
0
 10
234.77504001435031
 20
89.719647468177314
 30
0.0
 11
235.27478875648271
 21
89.719647468177314
 31
0.0
  0
LINE
  5
BC0D
  8
0
 10
228.6750400143504
 20
93.719647468177286
 30
0.0
 11
228.175291272218
 21
93.719647468177286
 31
0.0
  0
LINE
  5
BC0E
  8
0
 10
228.175291272218
 20
89.719647468177314
 30
0.0
 11
228.6750400143504
 21
89.719647468177314
 31
0.0
  0
LINE
  5
BC13
  8
0
 10
228.175291272218
 20
99.414014073953922
 30
0.0
 11
228.1752912722182
 21
97.219647468177314
 31
0.0
  0
LINE
  5
BC14
  8
0
 10
228.175291272218
 20
100.02913887401699
 30
0.0
 11
228.175291272218
 21
99.414014073953922
 31
0.0
  0
LINE
  5
BC15
  8
0
 10
235.36097256702379
 20
100.02913887401721
 30
0.0
 11
235.36097256702379
 21
98.634080022075523
 31
0.0
  0
LINE
  5
BC16
  8
0
 10
235.27478875648319
 20
97.219647468179119
 30
0.0
 11
235.27478875648291
 21
100.02913887401721
 31
0.0
  0
LINE
  5
BC1A
  8
0
 10
235.36097256702379
 20
98.469647468177314
 30
0.0
 11
235.36097256702379
 21
98.634080022075523
 31
0.0
  0
LINE
  5
BC1C
  8
0
 10
228.175291272218
 20
93.719647468177087
 30
0.0
 11
228.175291272218
 21
89.719647468176845
 31
0.0
  0
LINE
  5
BC1E
  8
0
 10
235.36097256702379
 20
90.969647468177314
 30
0.0
 11
235.36097256702379
 21
92.469647468177286
 31
0.0
  0
LINE
  5
BC1F
  8
0
 10
235.27478875648271
 20
89.719647468177314
 30
0.0
 11
235.27478875648271
 21
93.719647468177286
 31
0.0
  0
LINE
  5
BC28
  8
0
 10
228.6750400143504
 20
87.719647468177286
 30
0.0
 11
234.77504001435031
 21
87.719647468177286
 31
0.0
  0
LINE
  5
BC29
  8
0
 10
228.6750400143504
 20
96.019647468177254
 30
0.0
 11
234.77504001435031
 21
96.019647468177254
 31
0.0
  0
LINE
  5
BC31
  8
0
 10
243.72504001435061
 20
85.219647468177286
 30
0.0
 11
234.77504001435031
 21
85.219647468177286
 31
0.0
  0
LINE
  5
BC32
  8
0
 10
243.72504001435061
 20
83.719647468177087
 30
0.0
 11
233.27504001435031
 21
83.719647468177286
 31
0.0
  0
LINE
  5
BC33
  8
0
 10
233.27504001435031
 20
87.719647468177286
 30
0.0
 11
233.27504001435031
 21
83.719647468177286
 31
0.0
  0
LINE
  5
BC35
  8
0
 10
219.7250400143501
 20
85.219647468177286
 30
0.0
 11
228.6750400143504
 21
85.219647468177286
 31
0.0
  0
LINE
  5
BC36
  8
0
 10
219.72504001435041
 20
83.719647468177087
 30
0.0
 11
230.1750400143504
 21
83.719647468177286
 31
0.0
  0
LINE
  5
BC39
  8
0
 10
230.1750400143504
 20
83.719647468177286
 30
0.0
 11
230.1750400143504
 21
87.719647468177286
 31
0.0
  0
LINE
  5
BC3A
  8
0
 10
243.72504001435061
 20
83.719647468177286
 30
0.0
 11
243.72504001435061
 21
85.219647468177286
 31
0.0
  0
LINE
  5
BC3D
  8
0
 10
219.72504001435041
 20
85.219647468177286
 30
0.0
 11
219.72504001435041
 21
83.719647468177286
 31
0.0
  0
LINE
  5
BC41
  8
0
 10
233.27504001435011
 20
100.02913887401699
 30
0.0
 11
233.27504001435031
 21
96.019647468177254
 31
0.0
  0
LINE
  5
BC42
  8
0
 10
234.77504001435031
 20
100.02913887401699
 30
0.0
 11
234.77504001435051
 21
85.219647468177527
 31
0.0
  0
LINE
  5
BC44
  8
0
 10
228.6750400143504
 20
85.219647468177527
 30
0.0
 11
228.6750400143504
 21
100.02913887401699
 31
0.0
  0
LINE
  5
BC45
  8
0
 10
230.1750400143504
 20
96.019647468177254
 30
0.0
 11
230.1750400143504
 21
100.02913887401699
 31
0.0
  0
LINE
  5
BC53
  8
0
 10
230.22504001435061
 20
100.02913887401699
 30
0.0
 11
230.22504001435041
 21
96.019647468177254
 31
0.0
  0
LINE
  5
BC59
  8
0
 10
233.22504001435041
 20
96.019647468177254
 30
0.0
 11
233.22504001435061
 21
100.02913887401699
 31
0.0
  0
LINE
  5
BCB9
  8
0
 10
129.56687954943791
 20
32.169647468177118
 30
0.0
 11
129.56687954943791
 21
32.2196474681773
 31
0.0
  0
LINE
  5
BCBA
  8
0
 10
129.56687954943791
 20
35.2196474681773
 30
0.0
 11
129.56687954943791
 21
35.269647468177247
 31
0.0
  0
LINE
  5
BCBB
  8
0
 10
127.066879549438
 20
35.269647468177247
 30
0.0
 11
127.066879549438
 21
35.2196474681773
 31
0.0
  0
LINE
  5
BCBC
  8
0
 10
127.066879549438
 20
32.2196474681773
 30
0.0
 11
127.066879549438
 21
32.169647468177118
 31
0.0
  0
LINE
  5
BCBF
  8
0
 10
137.8850400143665
 20
37.269396210309651
 30
0.0
 11
137.6850400143656
 21
37.288482775493783
 31
0.0
  0
POLYLINE
  5
BCC0
  8
0
 66
     1
 10
0.0
 20
0.0
 30
0.0
 70
   128
  0
VERTEX
  5
C37C
  8
0
 10
137.6850400143656
 20
30.1508121608606
 30
0.0
  0
VERTEX
  5
C37D
  8
0
 10
137.72911889730429
 20
30.154844605143349
 30
0.0
  0
VERTEX
  5
C37E
  8
0
 10
137.8850400143661
 20
30.169898726044721
 30
0.0
  0
SEQEND
  5
C37F
  8
0
  0
LINE
  5
BCC1
  8
0
 10
137.8850400143657
 20
30.169898726044721
 30
0.0
 11
137.8850400143657
 21
30.669647468177121
 31
0.0
  0
LINE
  5
BCC2
  8
0
 10
137.8850400143657
 20
36.769647468177027
 30
0.0
 11
137.8850400143657
 21
37.269396210309651
 31
0.0
  0
LINE
  5
BCC3
  8
0
 10
137.13504001436559
 20
32.169647468177118
 30
0.0
 11
137.13504001436559
 21
32.2196474681773
 31
0.0
  0
LINE
  5
BCC4
  8
0
 10
137.13504001436559
 20
35.2196474681773
 30
0.0
 11
137.13504001436559
 21
35.269647468177247
 31
0.0
  0
LINE
  5
BCC5
  8
0
 10
134.6350400143657
 20
35.269647468177247
 30
0.0
 11
134.6350400143657
 21
35.2196474681773
 31
0.0
  0
LINE
  5
BCC6
  8
0
 10
134.6350400143657
 20
32.2196474681773
 30
0.0
 11
134.6350400143657
 21
32.169647468177118
 31
0.0
  0
LINE
  5
BCC7
  8
0
 10
138.8850400143657
 20
32.2196474681773
 30
0.0
 11
138.8850400143657
 21
35.2196474681773
 31
0.0
  0
LINE
  5
BCC8
  8
0
 10
125.1399903580334
 20
35.2196474681773
 30
0.0
 11
125.1399903580335
 21
32.2196474681773
 31
0.0
  0
LINE
  5
BCCB
  8
0
 10
137.88504001436601
 20
37.269396210309651
 30
0.0
 11
137.6850400143656
 21
37.269396210309651
 31
0.0
  0
LINE
  5
BCCC
  8
0
 10
137.6850400143656
 20
30.169898726044721
 30
0.0
 11
137.8850400143657
 21
30.169898726044721
 31
0.0
  0
ARC
  5
BCCD
  8
0
 10
130.6850400143656
 20
27.4696474681773
 30
0.0
 40
2.1000000000000139
 50
59.74356283647225
 51
239.74356283647219
  0
LINE
  5
BCCE
  8
0
 10
132.62691086076501
 20
23.905711776290449
 30
0.0
 11
129.62691086076501
 21
25.655711776290449
 31
0.0
  0
ARC
  5
BCCF
  8
0
 10
133.6850400143656
 20
25.7196474681773
 30
0.0
 40
2.1000000000000112
 50
239.74356283647219
 51
59.74356283647225
  0
LINE
  5
BCD0
  8
0
 10
131.74316916796619
 20
29.28358316006393
 30
0.0
 11
134.74316916796619
 21
27.53358316006393
 31
0.0
  0
ARC
  5
BCD1
  8
0
 10
117.6850400143656
 20
25.7196474681773
 30
0.0
 40
2.1000000000000001
 50
120.25643716352771
 51
300.25643716352772
  0
LINE
  5
BCD2
  8
0
 10
121.7431691679662
 20
25.655711776290449
 30
0.0
 11
118.7431691679662
 21
23.905711776290449
 31
0.0
  0
ARC
  5
BCD3
  8
0
 10
120.6850400143656
 20
27.4696474681773
 30
0.0
 40
2.1000000000000001
 50
300.25643716352772
 51
120.25643716352771
  0
LINE
  5
BCD4
  8
0
 10
116.62691086076499
 20
27.53358316006393
 30
0.0
 11
119.62691086076499
 21
29.28358316006393
 31
0.0
  0
LINE
  5
BCD5
  8
0
 10
117.6850400143656
 20
21.7196474681773
 30
0.0
 11
133.6850400143656
 21
21.7196474681773
 31
0.0
  0
ARC
  5
BCD6
  8
0
 10
117.6850400143656
 20
25.7196474681773
 30
0.0
 40
4.0
 50
180.0
 51
270.0
  0
LINE
  5
BCD7
  8
0
 10
113.6850400143656
 20
25.7196474681773
 30
0.0
 11
113.6850400143656
 21
32.169647468177118
 31
0.0
  0
LINE
  5
BCD8
  8
0
 10
139.6850400143656
 20
32.169647468177118
 30
0.0
 11
113.6850400143656
 21
32.169647468177118
 31
0.0
  0
LINE
  5
BCD9
  8
0
 10
137.6850400143656
 20
25.7196474681773
 30
0.0
 11
137.6850400143656
 21
32.169647468177118
 31
0.0
  0
ARC
  5
BCDA
  8
0
 10
133.6850400143656
 20
25.7196474681773
 30
0.0
 40
4.0
 50
270.0
 51
0.0
  0
ARC
  5
BCDB
  8
0
 10
130.6850400143656
 20
39.9696474681773
 30
0.0
 40
2.100000000000009
 50
120.25643716352771
 51
300.25643716352772
  0
LINE
  5
BCDC
  8
0
 10
134.74316916796619
 20
39.905711776290453
 30
0.0
 11
131.74316916796619
 21
38.155711776290453
 31
0.0
  0
ARC
  5
BCDD
  8
0
 10
133.6850400143656
 20
41.7196474681773
 30
0.0
 40
2.100000000000009
 50
300.25643716352772
 51
120.25643716352771
  0
LINE
  5
BCDE
  8
0
 10
129.62691086076501
 20
41.78358316006392
 30
0.0
 11
132.62691086076501
 21
43.53358316006392
 31
0.0
  0
ARC
  5
BCDF
  8
0
 10
117.6850400143656
 20
41.7196474681773
 30
0.0
 40
2.100000000000005
 50
59.74356283647225
 51
239.74356283647219
  0
LINE
  5
BCE0
  8
0
 10
119.62691086076499
 20
38.155711776290453
 30
0.0
 11
116.62691086076499
 21
39.905711776290453
 31
0.0
  0
ARC
  5
BCE1
  8
0
 10
120.6850400143656
 20
39.9696474681773
 30
0.0
 40
2.1000000000000019
 50
239.74356283647219
 51
59.74356283647225
  0
LINE
  5
BCE2
  8
0
 10
118.7431691679662
 20
43.53358316006392
 30
0.0
 11
121.7431691679662
 21
41.78358316006392
 31
0.0
  0
LINE
  5
BCE3
  8
0
 10
133.6850400143656
 20
45.719647468177293
 30
0.0
 11
117.6850400143656
 21
45.719647468177293
 31
0.0
  0
ARC
  5
BCE4
  8
0
 10
133.6850400143656
 20
41.7196474681773
 30
0.0
 40
4.0
 50
0.0
 51
90.0
  0
ARC
  5
BCE5
  8
0
 10
117.6850400143656
 20
41.7196474681773
 30
0.0
 40
3.999999999999996
 50
90.0
 51
180.0
  0
LINE
  5
BCE6
  8
0
 10
113.6850400143656
 20
41.7196474681773
 30
0.0
 11
113.6850400143656
 21
35.269647468177247
 31
0.0
  0
LINE
  5
BCE7
  8
0
 10
113.6850400143656
 20
35.269647468177247
 30
0.0
 11
139.6850400143656
 21
35.269647468177247
 31
0.0
  0
LINE
  5
BCE8
  8
0
 10
137.6850400143656
 20
41.7196474681773
 30
0.0
 11
137.6850400143656
 21
35.269647468177247
 31
0.0
  0
LINE
  5
BCEF
  8
0
 10
140.1850400143656
 20
34.769647468177261
 30
0.0
 11
140.1850400143656
 21
32.669647468177118
 31
0.0
  0
ARC
  5
BCF0
  8
0
 10
139.6850400143656
 20
34.769647468177261
 30
0.0
 40
0.5
 50
0.0
 51
90.0
  0
ARC
  5
BCF1
  8
0
 10
139.6850400143656
 20
34.769647468177261
 30
0.0
 40
2.0
 50
0.0
 51
90.0
  0
LINE
  5
BCF2
  8
0
 10
141.6850400143656
 20
34.769647468177261
 30
0.0
 11
141.6850400143656
 21
32.669647468177118
 31
0.0
  0
ARC
  5
BCF3
  8
0
 10
139.6850400143656
 20
32.669647468177118
 30
0.0
 40
2.0
 50
270.0
 51
0.0
  0
ARC
  5
BCF4
  8
0
 10
139.6850400143656
 20
32.669647468177118
 30
0.0
 40
0.5000000000000018
 50
270.0
 51
0.0
  0
LINE
  5
BCF6
  8
0
 10
138.8850400143657
 20
35.2196474681773
 30
0.0
 11
125.1399903580334
 21
35.2196474681773
 31
0.0
  0
LINE
  5
BCFF
  8
0
 10
125.1399903580335
 20
32.2196474681773
 30
0.0
 11
138.8850400143657
 21
32.2196474681773
 31
0.0
  0
LINE
  5
BD66
  8
0
 10
90.985040014350488
 20
85.019647468177482
 30
0.0
 11
90.985040014350488
 21
84.519647468177496
 31
0.0
  0
LINE
  5
BD67
  8
0
 10
96.985040014350488
 20
84.519647468177496
 30
0.0
 11
96.985040014350488
 21
85.019647468177482
 31
0.0
  0
LINE
  5
BD68
  8
0
 10
91.985040014350488
 20
93.019647468119274
 30
0.0
 11
91.985040014350488
 21
85.019647468177482
 31
0.0
  0
LINE
  5
BD69
  8
0
 10
95.985040014350488
 20
85.019647468177482
 30
0.0
 11
95.985040014350488
 21
93.019647468119274
 31
0.0
  0
LINE
  5
BD6A
  8
0
 10
97.485040014342985
 20
82.219647468159565
 30
0.0
 11
98.026491898690423
 21
82.36472906330664
 31
0.0
  0
LINE
  5
BD6B
  8
0
 10
89.94358813002259
 20
82.364729063303457
 30
0.0
 11
90.485040014358006
 21
82.219647468159565
 31
0.0
  0
ARC
  5
BD6C
  8
0
 10
93.985040014350474
 20
95.219647468177286
 30
0.0
 40
7.00000000000004
 50
106.7842728851375
 51
124.8499045790456
  0
LINE
  5
BD6D
  8
0
 10
89.985040014350488
 20
100.9642101147153
 30
0.0
 11
89.985040014350488
 21
98.679647468177336
 31
0.0
  0
LINE
  5
BD6E
  8
0
 10
89.943588136678045
 20
93.332254855452888
 30
0.0
 11
90.485040014319338
 21
93.019647468119274
 31
0.0
  0
LINE
  5
BD6F
  8
0
 10
98.026491898672035
 20
94.907040076967178
 30
0.0
 11
97.485040014381184
 21
95.219647468139783
 31
0.0
  0
LINE
  5
BD70
  8
0
 10
90.485040014319338
 20
95.219647468139783
 30
0.0
 11
89.943588130028957
 21
94.907040076967405
 31
0.0
  0
LINE
  5
BD71
  8
0
 10
97.485040014381184
 20
93.019647468119274
 30
0.0
 11
98.026491907012314
 21
93.332254864107199
 31
0.0
  0
LINE
  5
BD72
  8
0
 10
96.005765956514779
 20
82.364729063303685
 30
0.0
 11
96.005765956514111
 21
84.519647468177496
 31
0.0
  0
POLYLINE
  5
BD73
  8
0
 66
     1
 10
0.0
 20
0.0
 30
0.0
 70
   128
  0
VERTEX
  5
C380
  8
0
 10
96.005765956516584
 20
82.364729063303685
 30
0.0
  0
VERTEX
  5
C381
  8
0
 10
94.999945849414644
 20
82.258279867354304
 30
0.0
  0
VERTEX
  5
C382
  8
0
 10
93.985040014350474
 20
82.219647468161597
 30
0.0
  0
SEQEND
  5
C383
  8
0
  0
POLYLINE
  5
BD74
  8
0
 66
     1
 10
0.0
 20
0.0
 30
0.0
 70
   128
  0
VERTEX
  5
C384
  8
0
 10
93.985040014350474
 20
82.219647468161597
 30
0.0
  0
VERTEX
  5
C385
  8
0
 10
92.974677043267334
 20
82.257941560721065
 30
0.0
  0
VERTEX
  5
C386
  8
0
 10
91.964314072184152
 20
82.364729063303685
 30
0.0
  0
SEQEND
  5
C387
  8
0
  0
LINE
  5
BD75
  8
0
 10
91.964314072186198
 20
82.364729063303685
 30
0.0
 11
91.964314072186653
 21
84.519647468177496
 31
0.0
  0
LINE
  5
BD77
  8
0
 10
98.026491898690665
 20
82.364729063292998
 30
0.0
 11
98.026491898677932
 21
84.519647468177496
 31
0.0
  0
POLYLINE
  5
BD78
  8
0
 66
     1
 10
0.0
 20
0.0
 30
0.0
 70
   128
  0
VERTEX
  5
C388
  8
0
 10
98.026491898677932
 20
82.364729063303457
 30
0.0
  0
VERTEX
  5
C389
  8
0
 10
97.523581845127424
 20
82.258279867354304
 30
0.0
  0
VERTEX
  5
C38A
  8
0
 10
97.016128927595915
 20
82.219647468161597
 30
0.0
  0
SEQEND
  5
C38B
  8
0
  0
POLYLINE
  5
BD79
  8
0
 66
     1
 10
0.0
 20
0.0
 30
0.0
 70
   128
  0
VERTEX
  5
C38C
  8
0
 10
97.016128927595915
 20
82.219647468161597
 30
0.0
  0
VERTEX
  5
C38D
  8
0
 10
96.510947442054444
 20
82.257941560721065
 30
0.0
  0
VERTEX
  5
C38E
  8
0
 10
96.005765956512747
 20
82.364729063303685
 30
0.0
  0
SEQEND
  5
C38F
  8
0
  0
POLYLINE
  5
BD7B
  8
0
 66
     1
 10
0.0
 20
0.0
 30
0.0
 70
   128
  0
VERTEX
  5
C390
  8
0
 10
91.964314072188003
 20
82.364729063303685
 30
0.0
  0
VERTEX
  5
C391
  8
0
 10
91.461404018636799
 20
82.258279867354304
 30
0.0
  0
VERTEX
  5
C392
  8
0
 10
90.953951101104849
 20
82.219647468161597
 30
0.0
  0
SEQEND
  5
C393
  8
0
  0
POLYLINE
  5
BD7C
  8
0
 66
     1
 10
0.0
 20
0.0
 30
0.0
 70
   128
  0
VERTEX
  5
C394
  8
0
 10
90.953951101104849
 20
82.219647468161597
 30
0.0
  0
VERTEX
  5
C395
  8
0
 10
90.448769615565197
 20
82.257941560720823
 30
0.0
  0
VERTEX
  5
C396
  8
0
 10
89.943588130025546
 20
82.364729063302534
 30
0.0
  0
SEQEND
  5
C397
  8
0
  0
LINE
  5
BD7D
  8
0
 10
89.94358813002259
 20
82.364729063267532
 30
0.0
 11
89.943588130023045
 21
84.519647468177496
 31
0.0
  0
LINE
  5
BD7E
  8
0
 10
89.943588130023045
 20
84.519647468177496
 30
0.0
 11
98.026491898677818
 21
84.519647468177254
 31
0.0
  0
LINE
  5
BD81
  8
0
 10
90.985040014350488
 20
85.019647468177482
 30
0.0
 11
96.985040014350488
 21
85.019647468177482
 31
0.0
  0
LINE
  5
BD82
  8
0
 10
90.485040014307856
 20
82.219647468173207
 30
0.0
 11
97.485040014342985
 21
82.219647468159565
 31
0.0
  0
LINE
  5
BD84
  8
0
 10
93.630673214891658
 20
101.9196474681773
 30
0.0
 11
91.960797896944541
 21
101.9196474681773
 31
0.0
  0
LINE
  5
BD85
  8
0
 10
89.985040014350488
 20
100.9642101147153
 30
0.0
 11
91.040618888657036
 21
100.9642101147153
 31
0.0
  0
LINE
  5
BD86
  8
0
 10
110.9850400143502
 20
95.219647468177286
 30
0.0
 11
89.985040014350261
 21
95.219647468126368
 31
0.0
  0
LINE
  5
BD8B
  8
0
 10
110.9850400143505
 20
96.219647468177314
 30
0.0
 11
110.9850400143502
 21
95.219647468177286
 31
0.0
  0
ARC
  5
BD8C
  8
0
 10
111.9850400143502
 20
96.219647468177314
 30
0.0
 40
0.9999999999999655
 50
113.8575436079803
 51
180.0
  0
LINE
  5
BD8E
  8
0
 10
111.9850400143502
 20
97.219647468177314
 30
0.0
 11
117.2850400143486
 21
97.219647468177314
 31
0.0
  0
LINE
  5
BD90
  8
0
 10
111.4850400143505
 20
106.2028060472505
 30
0.0
 11
112.9504825435472
 21
106.5543571726177
 31
0.0
  0
POLYLINE
  5
BD91
  8
0
 66
     1
 10
0.0
 20
0.0
 30
0.0
 70
   128
  0
VERTEX
  5
C398
  8
0
 10
111.5805760044191
 20
97.134201383848904
 30
0.0
  0
VERTEX
  5
C399
  8
0
 10
111.8851407580257
 20
97.214645025252594
 30
0.0
  0
VERTEX
  5
C39A
  8
0
 10
111.9850400143502
 20
97.219647468177314
 30
0.0
  0
SEQEND
  5
C39B
  8
0
  0
LINE
  5
BD92
  8
0
 10
89.985040014350261
 20
98.679647468177336
 30
0.0
 11
89.98504001435083
 21
95.219647468126368
 31
0.0
  0
ARC
  5
BD93
  8
0
 10
92.985040014350247
 20
98.679647468177336
 30
0.0
 40
3.0000000000000151
 50
103.49000000000269
 51
180.0
  0
LINE
  5
BD94
  8
0
 10
92.285213065146536
 20
101.5968794166463
 30
0.0
 11
111.4850400143505
 21
106.2028060472505
 31
0.0
  0
LINE
  5
BD95
  8
0
 10
115.89650450259821
 20
107.2610906776351
 30
0.0
 11
116.9388630026717
 21
107.8388794290845
 31
0.0
  0
LINE
  5
BD98
  8
0
 10
112.9504825435472
 20
106.5543571726177
 30
0.0
 11
115.89650450259821
 21
107.2610906776351
 31
0.0
  0
LINE
  5
BD9A
  8
0
 10
117.2850400143504
 20
97.219647468177314
 30
0.0
 11
117.5250400143504
 21
97.190420356138233
 31
0.0
  0
LINE
  5
BD9B
  8
0
 10
116.9388630026717
 20
107.8388794290845
 30
0.0
 11
117.5250400143504
 21
108.1638026524115
 31
0.0
  0
LINE
  5
BDA0
  8
0
 10
123.6359437679636
 20
100.5023105207285
 30
0.0
 11
123.5798447008974
 21
99.970705075671503
 31
0.0
  0
ARC
  5
BDA4
  8
0
 10
117.2850400143504
 20
96.219647468177314
 30
0.0
 40
1.0
 50
37.457729444945883
 51
76.113459637370482
  0
LINE
  5
BDA5
  8
0
 10
117.5250400143504
 20
108.1638026524115
 30
0.0
 11
120.1675730776608
 21
109.62858264816759
 31
0.0
  0
ARC
  5
BDA7
  8
0
 10
93.900092218737655
 20
87.983143677044836
 30
0.0
 40
7.2370023660884506
 50
73.084598435517961
 51
89.327447789233673
  0
ARC
  5
BDA9
  8
0
 10
97.091381569708801
 20
93.187351181683894
 30
0.0
 40
2.033689051000735
 50
92.120601147192204
 51
122.2636463231956
  0
ARC
  5
BDAA
  8
0
 10
90.879961350805615
 20
93.191432912189157
 30
0.0
 40
2.029563689119342
 50
57.704989756729212
 51
87.910762772888575
  0
ARC
  5
BDAC
  8
0
 10
94.071447068026146
 20
87.97371088464206
 30
0.0
 40
7.2464517628461937
 50
90.683213934797749
 51
106.9047398404434
  0
ARC
  5
BDAD
  8
0
 10
97.090118668711739
 20
95.047861981414144
 30
0.0
 40
2.0295636461528361
 50
237.70499074318809
 51
267.91076298788192
  0
ARC
  5
BDAF
  8
0
 10
93.898632956529354
 20
100.2655840896839
 30
0.0
 40
7.2464518009596377
 50
270.6832139639946
 51
286.9047400587059
  0
ARC
  5
BDB0
  8
0
 10
90.878698468386347
 20
95.051943711362355
 30
0.0
 40
2.0336890074698348
 50
272.12060092777517
 51
302.2636453414691
  0
ARC
  5
BDB1
  8
0
 10
94.069987813959642
 20
100.2561512965603
 30
0.0
 40
7.2370024034742384
 50
253.08459821650709
 51
269.3274477610662
  0
LINE
  5
BDB3
  8
0
 10
91.964314072189836
 20
94.907040076967405
 30
0.0
 11
91.964314050529083
 21
93.332254846791088
 31
0.0
  0
LINE
  5
BDB4
  8
0
 10
96.005765973183074
 20
93.332254864107199
 30
0.0
 11
96.005765956508426
 21
94.907040076965586
 31
0.0
  0
ARC
  5
BDB5
  8
0
 10
96.940876281865926
 20
95.051943771213246
 30
0.0
 40
2.03368906776126
 50
272.12060123169471
 51
302.26364670117312
  0
ARC
  5
BDB6
  8
0
 10
96.94213917729644
 20
93.191432912188915
 30
0.0
 40
2.029563689119632
 50
57.704989756729212
 51
87.910762772888575
  0
LINE
  5
BDB7
  8
0
 10
98.026491898672035
 20
94.907040076967178
 30
0.0
 11
98.026491907012314
 21
93.332254864107199
 31
0.0
  0
ARC
  5
BDB8
  8
0
 10
91.027940848566686
 20
95.047862010935887
 30
0.0
 40
2.0295636758858371
 50
237.70499005967639
 51
267.91076283962099
  0
LINE
  5
BDB9
  8
0
 10
89.943588130028957
 20
94.907040076967405
 30
0.0
 11
89.943588136678045
 21
93.332254855452888
 31
0.0
  0
ARC
  5
BDBA
  8
0
 10
91.029203743217536
 20
93.187351181684093
 30
0.0
 40
2.0336890510004908
 50
92.120601147192204
 51
122.2636463231956
  0
LINE
  5
BDBC
  8
0
 10
97.485040014381184
 20
93.019647468119274
 30
0.0
 11
90.485040014548758
 21
93.019647467986928
 31
0.0
  0
LINE
  5
BDBD
  8
0
 10
124.3250400143517
 20
162.48009091407721
 30
0.0
 11
124.3250400143517
 21
165.58009091407709
 31
0.0
  0
ARC
  5
BDC0
  8
0
 10
93.985040014351753
 20
164.03009091407719
 30
0.0
 40
4.0000000000000062
 50
298.95502437186087
 51
61.044975628139127
  0
LINE
  5
BDC1
  8
0
 10
92.048548341247994
 20
160.53009091407719
 30
0.0
 11
95.921531687455314
 21
160.53009091407719
 31
0.0
  0
ARC
  5
BDC2
  8
0
 10
93.985040014351753
 20
164.03009091407719
 30
0.0
 40
4.0000000000000169
 50
118.9550243718608
 51
241.0449756281391
  0
LINE
  5
BDC3
  8
0
 10
95.921531687455314
 20
167.53009091407719
 30
0.0
 11
92.048548341247994
 21
167.53009091407719
 31
0.0
  0
ARC
  5
BDCD
  8
0
 10
117.5250400143517
 20
166.58009091407709
 30
0.0
 40
1.0000000000001179
 50
234.1138159202261
 51
270.0
  0
ARC
  5
BDCE
  8
0
 10
117.5250400143517
 20
161.48009091407701
 30
0.0
 40
1.0000000000001841
 50
90.0
 51
125.8861840797737
  0
LINE
  5
BDCF
  8
0
 10
115.8965045025994
 20
161.53611519464539
 30
0.0
 11
116.938863002673
 21
162.2902739248712
 31
0.0
  0
LINE
  5
BDD1
  8
0
 10
116.0595974851548
 20
163.5055484410623
 30
0.0
 11
115.8965045025994
 21
163.38754873498829
 31
0.0
  0
ARC
  5
BDD2
  8
0
 10
117.5250400143517
 20
161.48009091407721
 30
0.0
 40
2.5000000000000808
 50
84.873599918054097
 51
125.8861840797737
  0
LINE
  5
BDD3
  8
0
 10
117.7484230933886
 20
164.09009091407711
 30
0.0
 11
117.7484230933886
 21
163.97009091407699
 31
0.0
  0
ARC
  5
BDD4
  8
0
 10
117.5250400143517
 20
166.58009091407709
 30
0.0
 40
2.5000000000000102
 50
234.1138159202261
 51
275.12640008194592
  0
LINE
  5
BDD5
  8
0
 10
115.8965045025994
 20
164.6726330931661
 30
0.0
 11
116.0595974851548
 21
164.55463338709211
 31
0.0
  0
LINE
  5
BDD7
  8
0
 10
116.938863002673
 20
165.76990790328321
 30
0.0
 11
115.8965045025994
 21
166.52406663350899
 31
0.0
  0
ARC
  5
BDDA
  8
0
 10
111.4850400143517
 20
166.6300909140773
 30
0.0
 40
2.4999999999999138
 50
54.113815920226102
 51
90.0
  0
ARC
  5
BDDB
  8
0
 10
111.4850400143517
 20
166.6300909140773
 30
0.0
 40
0.9999999999999221
 50
54.113815920226102
 51
90.0
  0
LINE
  5
BDDC
  8
0
 10
89.985040014351654
 20
167.6300909140773
 30
0.0
 11
111.4850400143517
 21
167.6300909140773
 31
0.0
  0
LINE
  5
BDDE
  8
0
 10
111.4850400143517
 20
169.1300909140773
 30
0.0
 11
89.985040014351654
 21
169.1300909140773
 31
0.0
  0
LINE
  5
BDDF
  8
0
 10
112.0712170260305
 20
167.44027392487129
 30
0.0
 11
115.8965045025994
 21
164.6726330931661
 31
0.0
  0
LINE
  5
BDE0
  8
0
 10
115.8965045025994
 20
166.52406663350899
 30
0.0
 11
112.9504825435484
 21
168.65554844106239
 31
0.0
  0
ARC
  5
BDE1
  8
0
 10
111.4850400143517
 20
161.43009091407711
 30
0.0
 40
2.4999999999999432
 50
270.0
 51
305.88618407977373
  0
LINE
  5
BDE2
  8
0
 10
89.985040014351654
 20
158.93009091407711
 30
0.0
 11
111.4850400143517
 21
158.93009091407711
 31
0.0
  0
LINE
  5
BDE4
  8
0
 10
111.4850400143517
 20
160.43009091407711
 30
0.0
 11
89.985040014351654
 21
160.43009091407731
 31
0.0
  0
ARC
  5
BDE5
  8
0
 10
111.4850400143517
 20
161.43009091407711
 30
0.0
 40
0.9999999999998793
 50
270.0
 51
305.88618407977373
  0
LINE
  5
BDE6
  8
0
 10
115.8965045025994
 20
163.38754873498829
 30
0.0
 11
112.0712170260305
 21
160.61990790328309
 31
0.0
  0
LINE
  5
BDE7
  8
0
 10
112.9504825435484
 20
159.40463338709199
 30
0.0
 11
115.8965045025994
 21
161.53611519464539
 31
0.0
  0
LINE
  5
BDE8
  8
0
 10
89.98504001435154
 20
169.1300909140773
 30
0.0
 11
89.98504001435154
 21
158.93009091407711
 31
0.0
  0
LINE
  5
BDEE
  8
0
 10
106.9850400143517
 20
161.98009091407729
 30
0.0
 11
97.419788913470853
 21
161.98009091407729
 31
0.0
  0
ARC
  5
BDEF
  8
0
 10
106.9850400143517
 20
164.03009091407719
 30
0.0
 40
2.0500000000000109
 50
270.0
 51
90.0
  0
LINE
  5
BDF0
  8
0
 10
97.419788913470853
 20
166.0800909140772
 30
0.0
 11
106.9850400143517
 21
166.0800909140772
 31
0.0
  0
LINE
  5
BDF1
  8
0
 10
110.9850400143517
 20
160.43009091407731
 30
0.0
 11
110.9850400143517
 21
167.6300909140773
 31
0.0
  0
LINE
  5
BDF3
  8
0
 10
98.026491898673314
 20
164.0300909140874
 30
0.0
 11
97.98437476414918
 21
164.10303993095249
 31
0.0
  0
LINE
  5
BDF4
  8
0
 10
97.98437476414918
 20
163.95714189720209
 30
0.0
 11
98.026491898673314
 21
164.03009091406699
 31
0.0
  0
LINE
  5
BDF5
  8
0
 10
89.943588130030236
 20
164.03009091406719
 30
0.0
 11
89.98504001435154
 21
163.95829414435281
 31
0.0
  0
LINE
  5
BDF6
  8
0
 10
89.98504001435154
 20
164.10188768380161
 30
0.0
 11
89.943588130030236
 21
164.0300909140874
 31
0.0
  0
LINE
  5
BDF7
  8
0
 10
36.985040014350581
 20
85.019647468179755
 30
0.0
 11
36.985040014350581
 21
84.519647468179755
 31
0.0
  0
LINE
  5
BDF8
  8
0
 10
42.985040014350567
 20
84.519647468179755
 30
0.0
 11
42.985040014350567
 21
85.019647468179755
 31
0.0
  0
LINE
  5
BDF9
  8
0
 10
37.985040014350581
 20
93.019647468121548
 30
0.0
 11
37.985040014350581
 21
85.019647468179755
 31
0.0
  0
LINE
  5
BDFA
  8
0
 10
41.985040014350567
 20
85.019647468179755
 30
0.0
 11
41.985040014350567
 21
93.019647468121548
 31
0.0
  0
ARC
  5
BDFB
  8
0
 10
39.985040014350567
 20
95.219647468179573
 30
0.0
 40
7.0000000000000471
 50
106.8354104067575
 51
119.99999999999331
  0
ARC
  5
BDFC
  8
0
 10
39.985040014350567
 20
95.219647468179573
 30
0.0
 40
7.0000000000000426
 50
60.000000000006708
 51
73.165579376536115
  0
LINE
  5
BDFD
  8
0
 10
40.035040014350528
 20
108.16380265241381
 30
0.0
 11
40.035040014350528
 21
101.9196474681796
 31
0.0
  0
LINE
  5
BDFE
  8
0
 10
39.935040014350392
 20
101.9196474681796
 30
0.0
 11
39.935040014350392
 21
108.16380265241381
 31
0.0
  0
LINE
  5
BE00
  8
0
 10
36.485040014350567
 20
84.519647468179755
 30
0.0
 11
43.485040014350567
 21
84.519647468179528
 31
0.0
  0
LINE
  5
BE01
  8
0
 10
39.985040014350567
 20
82.364729063269806
 30
0.0
 11
39.985040014350567
 21
84.519647468179755
 31
0.0
  0
POLYLINE
  5
BE02
  8
0
 66
     1
 10
0.0
 20
0.0
 30
0.0
 70
   128
  0
VERTEX
  5
C39C
  8
0
 10
39.985040014346033
 20
82.364729063304807
 30
0.0
  0
VERTEX
  5
C39D
  8
0
 10
39.113974249961622
 20
82.258279867356563
 30
0.0
  0
VERTEX
  5
C39E
  8
0
 10
38.235040014350581
 20
82.219647468163885
 30
0.0
  0
SEQEND
  5
C39F
  8
0
  0
POLYLINE
  5
BE03
  8
0
 66
     1
 10
0.0
 20
0.0
 30
0.0
 70
   128
  0
VERTEX
  5
C3A0
  8
0
 10
38.235040014350581
 20
82.219647468163885
 30
0.0
  0
VERTEX
  5
C3A1
  8
0
 10
37.36004001434921
 20
82.257941560723339
 30
0.0
  0
VERTEX
  5
C3A2
  8
0
 10
36.4850400143483
 20
82.364729063305944
 30
0.0
  0
SEQEND
  5
C3A3
  8
0
  0
LINE
  5
BE04
  8
0
 10
36.485040014350567
 20
84.519647468179755
 30
0.0
 11
36.485040014348982
 21
82.219647468162734
 31
0.0
  0
LINE
  5
BE06
  8
0
 10
43.485040014351483
 20
82.219647468162734
 30
0.0
 11
43.485040014350567
 21
84.519647468179755
 31
0.0
  0
POLYLINE
  5
BE07
  8
0
 66
     1
 10
0.0
 20
0.0
 30
0.0
 70
   128
  0
VERTEX
  5
C3A4
  8
0
 10
43.48504001435284
 20
82.364729063305944
 30
0.0
  0
VERTEX
  5
C3A5
  8
0
 10
42.613974249965018
 20
82.258279867356563
 30
0.0
  0
VERTEX
  5
C3A6
  8
0
 10
41.735040014350567
 20
82.219647468163885
 30
0.0
  0
SEQEND
  5
C3A7
  8
0
  0
POLYLINE
  5
BE08
  8
0
 66
     1
 10
0.0
 20
0.0
 30
0.0
 70
   128
  0
VERTEX
  5
C3A8
  8
0
 10
41.735040014350567
 20
82.219647468163885
 30
0.0
  0
VERTEX
  5
C3A9
  8
0
 10
40.86004001435284
 20
82.257941560723111
 30
0.0
  0
VERTEX
  5
C3AA
  8
0
 10
39.985040014354901
 20
82.364729063304807
 30
0.0
  0
SEQEND
  5
C3AB
  8
0
  0
LINE
  5
BE0D
  8
0
 10
36.485040014354212
 20
82.219647468162734
 30
0.0
 11
43.485040014350567
 21
82.219647468162535
 31
0.0
  0
LINE
  5
BE0F
  8
0
 10
36.985040014350581
 20
85.019647468179755
 30
0.0
 11
42.985040014350567
 21
85.019647468179755
 31
0.0
  0
LINE
  5
BE10
  8
0
 10
42.012353507621889
 20
101.9196474681796
 30
0.0
 11
37.957726521079252
 21
101.9196474681796
 31
0.0
  0
LINE
  5
BE11
  8
0
 10
43.48504001435046
 20
96.719647468179573
 30
0.0
 11
43.485040014350567
 21
101.2818252946708
 31
0.0
  0
LINE
  5
BE12
  8
0
 10
36.485040014350567
 20
100.9642101147178
 30
0.0
 11
43.485040014350567
 21
100.9642101147176
 31
0.0
  0
LINE
  5
BE13
  8
0
 10
36.485040014350567
 20
101.2818252946708
 30
0.0
 11
36.485040014350801
 21
96.719647468179573
 31
0.0
  0
LINE
  5
BE15
  8
0
 10
36.485040014350567
 20
97.319647468164945
 30
0.0
 11
43.485040014350567
 21
97.319647468164945
 31
0.0
  0
LINE
  5
BE1A
  8
0
 10
36.385040014350658
 20
96.719647468179573
 30
0.0
 11
43.585040014350483
 21
96.719647468179573
 31
0.0
  0
ARC
  5
BE1C
  8
0
 10
43.085040014350483
 20
97.219647468179573
 30
0.0
 40
2.0000000000000071
 50
270.0
 51
0.0
  0
LINE
  5
BE1D
  8
0
 10
36.485040014350567
 20
95.219647468179346
 30
0.0
 11
43.485040014350687
 21
95.219647468179573
 31
0.0
  0
ARC
  5
BE1E
  8
0
 10
36.885040014350672
 20
97.219647468179573
 30
0.0
 40
2.0
 50
180.0
 51
270.0
  0
LINE
  5
BE1F
  8
0
 10
45.085040014350483
 20
106.20280604725281
 30
0.0
 11
45.085040014350483
 21
97.219647468179573
 31
0.0
  0
LINE
  5
BE20
  8
0
 10
34.885040014350672
 20
106.20280604725301
 30
0.0
 11
34.885040014350672
 21
97.219647468179573
 31
0.0
  0
LINE
  5
BE21
  8
0
 10
36.385040014350658
 20
96.719647468179573
 30
0.0
 11
36.385040014350658
 21
106.20280604725301
 31
0.0
  0
LINE
  5
BE22
  8
0
 10
43.585040014350483
 20
106.20280604725281
 30
0.0
 11
43.585040014350483
 21
96.719647468179573
 31
0.0
  0
POLYLINE
  5
BE29
  8
0
 10
35.359582487365323
 20
106.5543571726202
 30
0.0
 66
     1
 70
     8
  0
VERTEX
  8
0
  5
C436
 10
35.3596
 20
106.554
 30
0.000000
  70
    32
  0
VERTEX
  8
0
  5
C437
 10
35.3524
 20
106.552
 30
0.000000
  70
    32
  0
VERTEX
  8
0
  5
C438
 10
35.3453
 20
106.550
 30
0.000000
  70
    32
  0
VERTEX
  8
0
  5
C439
 10
35.3383
 20
106.547
 30
0.000000
  70
    32
  0
VERTEX
  8
0
  5
C43A
 10
35.3313
 20
106.545
 30
0.000000
  70
    32
  0
VERTEX
  8
0
  5
C43B
 10
35.3243
 20
106.542
 30
0.000000
  70
    32
  0
VERTEX
  8
0
  5
C43C
 10
35.3174
 20
106.540
 30
0.000000
  70
    32
  0
VERTEX
  8
0
  5
C43D
 10
35.3106
 20
106.538
 30
0.000000
  70
    32
  0
VERTEX
  8
0
  5
C43E
 10
35.3038
 20
106.535
 30
0.000000
  70
    32
  0
VERTEX
  8
0
  5
C43F
 10
35.2970
 20
106.533
 30
0.000000
  70
    32
  0
VERTEX
  8
0
  5
C440
 10
35.2903
 20
106.530
 30
0.000000
  70
    32
  0
VERTEX
  8
0
  5
C441
 10
35.2837
 20
106.528
 30
0.000000
  70
    32
  0
VERTEX
  8
0
  5
C442
 10
35.2771
 20
106.525
 30
0.000000
  70
    32
  0
VERTEX
  8
0
  5
C443
 10
35.2705
 20
106.523
 30
0.000000
  70
    32
  0
VERTEX
  8
0
  5
C444
 10
35.2640
 20
106.520
 30
0.000000
  70
    32
  0
VERTEX
  8
0
  5
C445
 10
35.2576
 20
106.518
 30
0.000000
  70
    32
  0
VERTEX
  8
0
  5
C446
 10
35.2512
 20
106.515
 30
0.000000
  70
    32
  0
VERTEX
  8
0
  5
C447
 10
35.2448
 20
106.513
 30
0.000000
  70
    32
  0
VERTEX
  8
0
  5
C448
 10
35.2385
 20
106.510
 30
0.000000
  70
    32
  0
VERTEX
  8
0
  5
C449
 10
35.2323
 20
106.508
 30
0.000000
  70
    32
  0
VERTEX
  8
0
  5
C44A
 10
35.2261
 20
106.505
 30
0.000000
  70
    32
  0
VERTEX
  8
0
  5
C44B
 10
35.2199
 20
106.503
 30
0.000000
  70
    32
  0
VERTEX
  8
0
  5
C44C
 10
35.2139
 20
106.500
 30
0.000000
  70
    32
  0
VERTEX
  8
0
  5
C44D
 10
35.2078
 20
106.498
 30
0.000000
  70
    32
  0
VERTEX
  8
0
  5
C44E
 10
35.2018
 20
106.495
 30
0.000000
  70
    32
  0
VERTEX
  8
0
  5
C44F
 10
35.1959
 20
106.492
 30
0.000000
  70
    32
  0
VERTEX
  8
0
  5
C450
 10
35.1900
 20
106.490
 30
0.000000
  70
    32
  0
VERTEX
  8
0
  5
C451
 10
35.1842
 20
106.487
 30
0.000000
  70
    32
  0
VERTEX
  8
0
  5
C452
 10
35.1784
 20
106.485
 30
0.000000
  70
    32
  0
VERTEX
  8
0
  5
C453
 10
35.1727
 20
106.482
 30
0.000000
  70
    32
  0
VERTEX
  8
0
  5
C454
 10
35.1670
 20
106.480
 30
0.000000
  70
    32
  0
VERTEX
  8
0
  5
C455
 10
35.1614
 20
106.477
 30
0.000000
  70
    32
  0
VERTEX
  8
0
  5
C456
 10
35.1558
 20
106.474
 30
0.000000
  70
    32
  0
VERTEX
  8
0
  5
C457
 10
35.1503
 20
106.472
 30
0.000000
  70
    32
  0
VERTEX
  8
0
  5
C458
 10
35.1449
 20
106.469
 30
0.000000
  70
    32
  0
VERTEX
  8
0
  5
C459
 10
35.1395
 20
106.466
 30
0.000000
  70
    32
  0
VERTEX
  8
0
  5
C45A
 10
35.1341
 20
106.464
 30
0.000000
  70
    32
  0
VERTEX
  8
0
  5
C45B
 10
35.1288
 20
106.461
 30
0.000000
  70
    32
  0
VERTEX
  8
0
  5
C45C
 10
35.1236
 20
106.458
 30
0.000000
  70
    32
  0
VERTEX
  8
0
  5
C45D
 10
35.1184
 20
106.456
 30
0.000000
  70
    32
  0
VERTEX
  8
0
  5
C45E
 10
35.1133
 20
106.453
 30
0.000000
  70
    32
  0
VERTEX
  8
0
  5
C45F
 10
35.1082
 20
106.450
 30
0.000000
  70
    32
  0
VERTEX
  8
0
  5
C460
 10
35.1032
 20
106.448
 30
0.000000
  70
    32
  0
VERTEX
  8
0
  5
C461
 10
35.0982
 20
106.445
 30
0.000000
  70
    32
  0
VERTEX
  8
0
  5
C462
 10
35.0933
 20
106.442
 30
0.000000
  70
    32
  0
VERTEX
  8
0
  5
C463
 10
35.0884
 20
106.440
 30
0.000000
  70
    32
  0
VERTEX
  8
0
  5
C464
 10
35.0836
 20
106.437
 30
0.000000
  70
    32
  0
VERTEX
  8
0
  5
C465
 10
35.0789
 20
106.434
 30
0.000000
  70
    32
  0
VERTEX
  8
0
  5
C466
 10
35.0742
 20
106.432
 30
0.000000
  70
    32
  0
VERTEX
  8
0
  5
C467
 10
35.0695
 20
106.429
 30
0.000000
  70
    32
  0
VERTEX
  8
0
  5
C468
 10
35.0649
 20
106.426
 30
0.000000
  70
    32
  0
VERTEX
  8
0
  5
C469
 10
35.0604
 20
106.423
 30
0.000000
  70
    32
  0
VERTEX
  8
0
  5
C46A
 10
35.0559
 20
106.421
 30
0.000000
  70
    32
  0
VERTEX
  8
0
  5
C46B
 10
35.0515
 20
106.418
 30
0.000000
  70
    32
  0
VERTEX
  8
0
  5
C46C
 10
35.0472
 20
106.415
 30
0.000000
  70
    32
  0
VERTEX
  8
0
  5
C46D
 10
35.0428
 20
106.413
 30
0.000000
  70
    32
  0
VERTEX
  8
0
  5
C46E
 10
35.0386
 20
106.410
 30
0.000000
  70
    32
  0
VERTEX
  8
0
  5
C46F
 10
35.0344
 20
106.407
 30
0.000000
  70
    32
  0
VERTEX
  8
0
  5
C470
 10
35.0303
 20
106.404
 30
0.000000
  70
    32
  0
VERTEX
  8
0
  5
C471
 10
35.0262
 20
106.401
 30
0.000000
  70
    32
  0
VERTEX
  8
0
  5
C472
 10
35.0222
 20
106.399
 30
0.000000
  70
    32
  0
VERTEX
  8
0
  5
C473
 10
35.0182
 20
106.396
 30
0.000000
  70
    32
  0
VERTEX
  8
0
  5
C474
 10
35.0143
 20
106.393
 30
0.000000
  70
    32
  0
VERTEX
  8
0
  5
C475
 10
35.0104
 20
106.390
 30
0.000000
  70
    32
  0
VERTEX
  8
0
  5
C476
 10
35.0066
 20
106.388
 30
0.000000
  70
    32
  0
VERTEX
  8
0
  5
C477
 10
35.0029
 20
106.385
 30
0.000000
  70
    32
  0
VERTEX
  8
0
  5
C478
 10
34.9992
 20
106.382
 30
0.000000
  70
    32
  0
VERTEX
  8
0
  5
C479
 10
34.9956
 20
106.379
 30
0.000000
  70
    32
  0
VERTEX
  8
0
  5
C47A
 10
34.9920
 20
106.376
 30
0.000000
  70
    32
  0
VERTEX
  8
0
  5
C47B
 10
34.9885
 20
106.374
 30
0.000000
  70
    32
  0
VERTEX
  8
0
  5
C47C
 10
34.9850
 20
106.371
 30
0.000000
  70
    32
  0
VERTEX
  8
0
  5
C47D
 10
34.9817
 20
106.368
 30
0.000000
  70
    32
  0
VERTEX
  8
0
  5
C47E
 10
34.9783
 20
106.365
 30
0.000000
  70
    32
  0
VERTEX
  8
0
  5
C47F
 10
34.9750
 20
106.362
 30
0.000000
  70
    32
  0
VERTEX
  8
0
  5
C480
 10
34.9718
 20
106.359
 30
0.000000
  70
    32
  0
VERTEX
  8
0
  5
C481
 10
34.9686
 20
106.357
 30
0.000000
  70
    32
  0
VERTEX
  8
0
  5
C482
 10
34.9655
 20
106.354
 30
0.000000
  70
    32
  0
VERTEX
  8
0
  5
C483
 10
34.9625
 20
106.351
 30
0.000000
  70
    32
  0
VERTEX
  8
0
  5
C484
 10
34.9595
 20
106.348
 30
0.000000
  70
    32
  0
VERTEX
  8
0
  5
C485
 10
34.9566
 20
106.345
 30
0.000000
  70
    32
  0
VERTEX
  8
0
  5
C486
 10
34.9537
 20
106.342
 30
0.000000
  70
    32
  0
VERTEX
  8
0
  5
C487
 10
34.9509
 20
106.340
 30
0.000000
  70
    32
  0
VERTEX
  8
0
  5
C488
 10
34.9481
 20
106.337
 30
0.000000
  70
    32
  0
VERTEX
  8
0
  5
C489
 10
34.9454
 20
106.334
 30
0.000000
  70
    32
  0
VERTEX
  8
0
  5
C48A
 10
34.9428
 20
106.331
 30
0.000000
  70
    32
  0
VERTEX
  8
0
  5
C48B
 10
34.9402
 20
106.328
 30
0.000000
  70
    32
  0
VERTEX
  8
0
  5
C48C
 10
34.9377
 20
106.325
 30
0.000000
  70
    32
  0
VERTEX
  8
0
  5
C48D
 10
34.9352
 20
106.322
 30
0.000000
  70
    32
  0
VERTEX
  8
0
  5
C48E
 10
34.9328
 20
106.319
 30
0.000000
  70
    32
  0
VERTEX
  8
0
  5
C48F
 10
34.9304
 20
106.317
 30
0.000000
  70
    32
  0
VERTEX
  8
0
  5
C490
 10
34.9281
 20
106.314
 30
0.000000
  70
    32
  0
VERTEX
  8
0
  5
C491
 10
34.9259
 20
106.311
 30
0.000000
  70
    32
  0
VERTEX
  8
0
  5
C492
 10
34.9237
 20
106.308
 30
0.000000
  70
    32
  0
VERTEX
  8
0
  5
C493
 10
34.9216
 20
106.305
 30
0.000000
  70
    32
  0
VERTEX
  8
0
  5
C494
 10
34.9196
 20
106.302
 30
0.000000
  70
    32
  0
VERTEX
  8
0
  5
C495
 10
34.9176
 20
106.299
 30
0.000000
  70
    32
  0
VERTEX
  8
0
  5
C496
 10
34.9156
 20
106.296
 30
0.000000
  70
    32
  0
VERTEX
  8
0
  5
C497
 10
34.9137
 20
106.293
 30
0.000000
  70
    32
  0
VERTEX
  8
0
  5
C498
 10
34.9119
 20
106.291
 30
0.000000
  70
    32
  0
VERTEX
  8
0
  5
C499
 10
34.9102
 20
106.288
 30
0.000000
  70
    32
  0
VERTEX
  8
0
  5
C49A
 10
34.9085
 20
106.285
 30
0.000000
  70
    32
  0
VERTEX
  8
0
  5
C49B
 10
34.9068
 20
106.282
 30
0.000000
  70
    32
  0
VERTEX
  8
0
  5
C49C
 10
34.9052
 20
106.279
 30
0.000000
  70
    32
  0
VERTEX
  8
0
  5
C49D
 10
34.9037
 20
106.276
 30
0.000000
  70
    32
  0
VERTEX
  8
0
  5
C49E
 10
34.9023
 20
106.273
 30
0.000000
  70
    32
  0
VERTEX
  8
0
  5
C49F
 10
34.9009
 20
106.270
 30
0.000000
  70
    32
  0
VERTEX
  8
0
  5
C4A0
 10
34.8995
 20
106.267
 30
0.000000
  70
    32
  0
VERTEX
  8
0
  5
C4A1
 10
34.8982
 20
106.264
 30
0.000000
  70
    32
  0
VERTEX
  8
0
  5
C4A2
 10
34.8970
 20
106.261
 30
0.000000
  70
    32
  0
VERTEX
  8
0
  5
C4A3
 10
34.8958
 20
106.258
 30
0.000000
  70
    32
  0
VERTEX
  8
0
  5
C4A4
 10
34.8947
 20
106.256
 30
0.000000
  70
    32
  0
VERTEX
  8
0
  5
C4A5
 10
34.8937
 20
106.253
 30
0.000000
  70
    32
  0
VERTEX
  8
0
  5
C4A6
 10
34.8927
 20
106.250
 30
0.000000
  70
    32
  0
VERTEX
  8
0
  5
C4A7
 10
34.8918
 20
106.247
 30
0.000000
  70
    32
  0
VERTEX
  8
0
  5
C4A8
 10
34.8909
 20
106.244
 30
0.000000
  70
    32
  0
VERTEX
  8
0
  5
C4A9
 10
34.8901
 20
106.241
 30
0.000000
  70
    32
  0
VERTEX
  8
0
  5
C4AA
 10
34.8893
 20
106.238
 30
0.000000
  70
    32
  0
VERTEX
  8
0
  5
C4AB
 10
34.8887
 20
106.235
 30
0.000000
  70
    32
  0
VERTEX
  8
0
  5
C4AC
 10
34.8880
 20
106.232
 30
0.000000
  70
    32
  0
VERTEX
  8
0
  5
C4AD
 10
34.8875
 20
106.229
 30
0.000000
  70
    32
  0
VERTEX
  8
0
  5
C4AE
 10
34.8870
 20
106.226
 30
0.000000
  70
    32
  0
VERTEX
  8
0
  5
C4AF
 10
34.8865
 20
106.223
 30
0.000000
  70
    32
  0
VERTEX
  8
0
  5
C4B0
 10
34.8861
 20
106.220
 30
0.000000
  70
    32
  0
VERTEX
  8
0
  5
C4B1
 10
34.8858
 20
106.217
 30
0.000000
  70
    32
  0
VERTEX
  8
0
  5
C4B2
 10
34.8855
 20
106.215
 30
0.000000
  70
    32
  0
VERTEX
  8
0
  5
C4B3
 10
34.8853
 20
106.212
 30
0.000000
  70
    32
  0
VERTEX
  8
0
  5
C4B4
 10
34.8852
 20
106.209
 30
0.000000
  70
    32
  0
VERTEX
  8
0
  5
C4B5
 10
34.8851
 20
106.206
 30
0.000000
  70
    32
  0
VERTEX
  8
0
  5
C4B6
 10
34.8850
 20
106.203
 30
0.000000
  70
    32
  0
SEQEND
  8
0
  5
C4B7
  0
LINE
  5
BE2A
  8
0
 10
37.4910642949188
 20
107.2610906776374
 30
0.0
 11
35.359582487365152
 21
106.55435717262
 31
0.0
  0
LINE
  5
BE2C
  8
0
 10
36.574857003556282
 20
106.3434264973998
 30
0.0
 11
39.342497835261469
 21
107.2610906776374
 31
0.0
  0
POLYLINE
  5
BE2D
  8
0
 10
36.574857003556438
 20
106.34342649739988
 30
0.0
 66
     1
 70
     8
  0
VERTEX
  8
0
  5
C4B8
 10
36.5749
 20
106.343
 30
0.000000
  70
    32
  0
VERTEX
  8
0
  5
C4B9
 10
36.5720
 20
106.342
 30
0.000000
  70
    32
  0
VERTEX
  8
0
  5
C4BA
 10
36.5692
 20
106.342
 30
0.000000
  70
    32
  0
VERTEX
  8
0
  5
C4BB
 10
36.5663
 20
106.341
 30
0.000000
  70
    32
  0
VERTEX
  8
0
  5
C4BC
 10
36.5635
 20
106.340
 30
0.000000
  70
    32
  0
VERTEX
  8
0
  5
C4BD
 10
36.5608
 20
106.339
 30
0.000000
  70
    32
  0
VERTEX
  8
0
  5
C4BE
 10
36.5580
 20
106.338
 30
0.000000
  70
    32
  0
VERTEX
  8
0
  5
C4BF
 10
36.5553
 20
106.337
 30
0.000000
  70
    32
  0
VERTEX
  8
0
  5
C4C0
 10
36.5525
 20
106.336
 30
0.000000
  70
    32
  0
VERTEX
  8
0
  5
C4C1
 10
36.5498
 20
106.335
 30
0.000000
  70
    32
  0
VERTEX
  8
0
  5
C4C2
 10
36.5472
 20
106.334
 30
0.000000
  70
    32
  0
VERTEX
  8
0
  5
C4C3
 10
36.5445
 20
106.333
 30
0.000000
  70
    32
  0
VERTEX
  8
0
  5
C4C4
 10
36.5419
 20
106.332
 30
0.000000
  70
    32
  0
VERTEX
  8
0
  5
C4C5
 10
36.5392
 20
106.331
 30
0.000000
  70
    32
  0
VERTEX
  8
0
  5
C4C6
 10
36.5366
 20
106.330
 30
0.000000
  70
    32
  0
VERTEX
  8
0
  5
C4C7
 10
36.5341
 20
106.329
 30
0.000000
  70
    32
  0
VERTEX
  8
0
  5
C4C8
 10
36.5315
 20
106.328
 30
0.000000
  70
    32
  0
VERTEX
  8
0
  5
C4C9
 10
36.5290
 20
106.327
 30
0.000000
  70
    32
  0
VERTEX
  8
0
  5
C4CA
 10
36.5264
 20
106.326
 30
0.000000
  70
    32
  0
VERTEX
  8
0
  5
C4CB
 10
36.5239
 20
106.325
 30
0.000000
  70
    32
  0
VERTEX
  8
0
  5
C4CC
 10
36.5215
 20
106.324
 30
0.000000
  70
    32
  0
VERTEX
  8
0
  5
C4CD
 10
36.5190
 20
106.323
 30
0.000000
  70
    32
  0
VERTEX
  8
0
  5
C4CE
 10
36.5166
 20
106.322
 30
0.000000
  70
    32
  0
VERTEX
  8
0
  5
C4CF
 10
36.5142
 20
106.321
 30
0.000000
  70
    32
  0
VERTEX
  8
0
  5
C4D0
 10
36.5118
 20
106.320
 30
0.000000
  70
    32
  0
VERTEX
  8
0
  5
C4D1
 10
36.5094
 20
106.319
 30
0.000000
  70
    32
  0
VERTEX
  8
0
  5
C4D2
 10
36.5070
 20
106.318
 30
0.000000
  70
    32
  0
VERTEX
  8
0
  5
C4D3
 10
36.5047
 20
106.317
 30
0.000000
  70
    32
  0
VERTEX
  8
0
  5
C4D4
 10
36.5024
 20
106.316
 30
0.000000
  70
    32
  0
VERTEX
  8
0
  5
C4D5
 10
36.5001
 20
106.315
 30
0.000000
  70
    32
  0
VERTEX
  8
0
  5
C4D6
 10
36.4978
 20
106.313
 30
0.000000
  70
    32
  0
VERTEX
  8
0
  5
C4D7
 10
36.4956
 20
106.312
 30
0.000000
  70
    32
  0
VERTEX
  8
0
  5
C4D8
 10
36.4934
 20
106.311
 30
0.000000
  70
    32
  0
VERTEX
  8
0
  5
C4D9
 10
36.4912
 20
106.310
 30
0.000000
  70
    32
  0
VERTEX
  8
0
  5
C4DA
 10
36.4890
 20
106.309
 30
0.000000
  70
    32
  0
VERTEX
  8
0
  5
C4DB
 10
36.4868
 20
106.308
 30
0.000000
  70
    32
  0
VERTEX
  8
0
  5
C4DC
 10
36.4847
 20
106.307
 30
0.000000
  70
    32
  0
VERTEX
  8
0
  5
C4DD
 10
36.4826
 20
106.306
 30
0.000000
  70
    32
  0
VERTEX
  8
0
  5
C4DE
 10
36.4805
 20
106.305
 30
0.000000
  70
    32
  0
VERTEX
  8
0
  5
C4DF
 10
36.4784
 20
106.304
 30
0.000000
  70
    32
  0
VERTEX
  8
0
  5
C4E0
 10
36.4763
 20
106.303
 30
0.000000
  70
    32
  0
VERTEX
  8
0
  5
C4E1
 10
36.4743
 20
106.302
 30
0.000000
  70
    32
  0
VERTEX
  8
0
  5
C4E2
 10
36.4723
 20
106.301
 30
0.000000
  70
    32
  0
VERTEX
  8
0
  5
C4E3
 10
36.4703
 20
106.300
 30
0.000000
  70
    32
  0
VERTEX
  8
0
  5
C4E4
 10
36.4683
 20
106.299
 30
0.000000
  70
    32
  0
VERTEX
  8
0
  5
C4E5
 10
36.4664
 20
106.298
 30
0.000000
  70
    32
  0
VERTEX
  8
0
  5
C4E6
 10
36.4645
 20
106.297
 30
0.000000
  70
    32
  0
VERTEX
  8
0
  5
C4E7
 10
36.4626
 20
106.295
 30
0.000000
  70
    32
  0
VERTEX
  8
0
  5
C4E8
 10
36.4607
 20
106.294
 30
0.000000
  70
    32
  0
VERTEX
  8
0
  5
C4E9
 10
36.4588
 20
106.293
 30
0.000000
  70
    32
  0
VERTEX
  8
0
  5
C4EA
 10
36.4570
 20
106.292
 30
0.000000
  70
    32
  0
VERTEX
  8
0
  5
C4EB
 10
36.4552
 20
106.291
 30
0.000000
  70
    32
  0
VERTEX
  8
0
  5
C4EC
 10
36.4534
 20
106.290
 30
0.000000
  70
    32
  0
VERTEX
  8
0
  5
C4ED
 10
36.4516
 20
106.289
 30
0.000000
  70
    32
  0
VERTEX
  8
0
  5
C4EE
 10
36.4499
 20
106.288
 30
0.000000
  70
    32
  0
VERTEX
  8
0
  5
C4EF
 10
36.4482
 20
106.287
 30
0.000000
  70
    32
  0
VERTEX
  8
0
  5
C4F0
 10
36.4465
 20
106.286
 30
0.000000
  70
    32
  0
VERTEX
  8
0
  5
C4F1
 10
36.4448
 20
106.284
 30
0.000000
  70
    32
  0
VERTEX
  8
0
  5
C4F2
 10
36.4431
 20
106.283
 30
0.000000
  70
    32
  0
VERTEX
  8
0
  5
C4F3
 10
36.4415
 20
106.282
 30
0.000000
  70
    32
  0
VERTEX
  8
0
  5
C4F4
 10
36.4399
 20
106.281
 30
0.000000
  70
    32
  0
VERTEX
  8
0
  5
C4F5
 10
36.4383
 20
106.280
 30
0.000000
  70
    32
  0
VERTEX
  8
0
  5
C4F6
 10
36.4367
 20
106.279
 30
0.000000
  70
    32
  0
VERTEX
  8
0
  5
C4F7
 10
36.4352
 20
106.278
 30
0.000000
  70
    32
  0
VERTEX
  8
0
  5
C4F8
 10
36.4337
 20
106.277
 30
0.000000
  70
    32
  0
VERTEX
  8
0
  5
C4F9
 10
36.4322
 20
106.276
 30
0.000000
  70
    32
  0
VERTEX
  8
0
  5
C4FA
 10
36.4307
 20
106.274
 30
0.000000
  70
    32
  0
VERTEX
  8
0
  5
C4FB
 10
36.4293
 20
106.273
 30
0.000000
  70
    32
  0
VERTEX
  8
0
  5
C4FC
 10
36.4278
 20
106.272
 30
0.000000
  70
    32
  0
VERTEX
  8
0
  5
C4FD
 10
36.4264
 20
106.271
 30
0.000000
  70
    32
  0
VERTEX
  8
0
  5
C4FE
 10
36.4250
 20
106.270
 30
0.000000
  70
    32
  0
VERTEX
  8
0
  5
C4FF
 10
36.4237
 20
106.269
 30
0.000000
  70
    32
  0
VERTEX
  8
0
  5
C500
 10
36.4223
 20
106.268
 30
0.000000
  70
    32
  0
VERTEX
  8
0
  5
C501
 10
36.4210
 20
106.267
 30
0.000000
  70
    32
  0
VERTEX
  8
0
  5
C502
 10
36.4197
 20
106.265
 30
0.000000
  70
    32
  0
VERTEX
  8
0
  5
C503
 10
36.4185
 20
106.264
 30
0.000000
  70
    32
  0
VERTEX
  8
0
  5
C504
 10
36.4172
 20
106.263
 30
0.000000
  70
    32
  0
VERTEX
  8
0
  5
C505
 10
36.4160
 20
106.262
 30
0.000000
  70
    32
  0
VERTEX
  8
0
  5
C506
 10
36.4148
 20
106.261
 30
0.000000
  70
    32
  0
VERTEX
  8
0
  5
C507
 10
36.4136
 20
106.260
 30
0.000000
  70
    32
  0
VERTEX
  8
0
  5
C508
 10
36.4125
 20
106.259
 30
0.000000
  70
    32
  0
VERTEX
  8
0
  5
C509
 10
36.4114
 20
106.257
 30
0.000000
  70
    32
  0
VERTEX
  8
0
  5
C50A
 10
36.4103
 20
106.256
 30
0.000000
  70
    32
  0
VERTEX
  8
0
  5
C50B
 10
36.4092
 20
106.255
 30
0.000000
  70
    32
  0
VERTEX
  8
0
  5
C50C
 10
36.4081
 20
106.254
 30
0.000000
  70
    32
  0
VERTEX
  8
0
  5
C50D
 10
36.4071
 20
106.253
 30
0.000000
  70
    32
  0
VERTEX
  8
0
  5
C50E
 10
36.4061
 20
106.252
 30
0.000000
  70
    32
  0
VERTEX
  8
0
  5
C50F
 10
36.4051
 20
106.251
 30
0.000000
  70
    32
  0
VERTEX
  8
0
  5
C510
 10
36.4041
 20
106.249
 30
0.000000
  70
    32
  0
VERTEX
  8
0
  5
C511
 10
36.4032
 20
106.248
 30
0.000000
  70
    32
  0
VERTEX
  8
0
  5
C512
 10
36.4023
 20
106.247
 30
0.000000
  70
    32
  0
VERTEX
  8
0
  5
C513
 10
36.4014
 20
106.246
 30
0.000000
  70
    32
  0
VERTEX
  8
0
  5
C514
 10
36.4005
 20
106.245
 30
0.000000
  70
    32
  0
VERTEX
  8
0
  5
C515
 10
36.3997
 20
106.244
 30
0.000000
  70
    32
  0
VERTEX
  8
0
  5
C516
 10
36.3988
 20
106.243
 30
0.000000
  70
    32
  0
VERTEX
  8
0
  5
C517
 10
36.3980
 20
106.241
 30
0.000000
  70
    32
  0
VERTEX
  8
0
  5
C518
 10
36.3973
 20
106.240
 30
0.000000
  70
    32
  0
VERTEX
  8
0
  5
C519
 10
36.3965
 20
106.239
 30
0.000000
  70
    32
  0
VERTEX
  8
0
  5
C51A
 10
36.3958
 20
106.238
 30
0.000000
  70
    32
  0
VERTEX
  8
0
  5
C51B
 10
36.3951
 20
106.237
 30
0.000000
  70
    32
  0
VERTEX
  8
0
  5
C51C
 10
36.3944
 20
106.236
 30
0.000000
  70
    32
  0
VERTEX
  8
0
  5
C51D
 10
36.3938
 20
106.234
 30
0.000000
  70
    32
  0
VERTEX
  8
0
  5
C51E
 10
36.3931
 20
106.233
 30
0.000000
  70
    32
  0
VERTEX
  8
0
  5
C51F
 10
36.3925
 20
106.232
 30
0.000000
  70
    32
  0
VERTEX
  8
0
  5
C520
 10
36.3919
 20
106.231
 30
0.000000
  70
    32
  0
VERTEX
  8
0
  5
C521
 10
36.3914
 20
106.230
 30
0.000000
  70
    32
  0
VERTEX
  8
0
  5
C522
 10
36.3908
 20
106.229
 30
0.000000
  70
    32
  0
VERTEX
  8
0
  5
C523
 10
36.3903
 20
106.227
 30
0.000000
  70
    32
  0
VERTEX
  8
0
  5
C524
 10
36.3898
 20
106.226
 30
0.000000
  70
    32
  0
VERTEX
  8
0
  5
C525
 10
36.3894
 20
106.225
 30
0.000000
  70
    32
  0
VERTEX
  8
0
  5
C526
 10
36.3889
 20
106.224
 30
0.000000
  70
    32
  0
VERTEX
  8
0
  5
C527
 10
36.3885
 20
106.223
 30
0.000000
  70
    32
  0
VERTEX
  8
0
  5
C528
 10
36.3881
 20
106.222
 30
0.000000
  70
    32
  0
VERTEX
  8
0
  5
C529
 10
36.3877
 20
106.220
 30
0.000000
  70
    32
  0
VERTEX
  8
0
  5
C52A
 10
36.3874
 20
106.219
 30
0.000000
  70
    32
  0
VERTEX
  8
0
  5
C52B
 10
36.3871
 20
106.218
 30
0.000000
  70
    32
  0
VERTEX
  8
0
  5
C52C
 10
36.3868
 20
106.217
 30
0.000000
  70
    32
  0
VERTEX
  8
0
  5
C52D
 10
36.3865
 20
106.216
 30
0.000000
  70
    32
  0
VERTEX
  8
0
  5
C52E
 10
36.3862
 20
106.215
 30
0.000000
  70
    32
  0
VERTEX
  8
0
  5
C52F
 10
36.3860
 20
106.213
 30
0.000000
  70
    32
  0
VERTEX
  8
0
  5
C530
 10
36.3858
 20
106.212
 30
0.000000
  70
    32
  0
VERTEX
  8
0
  5
C531
 10
36.3856
 20
106.211
 30
0.000000
  70
    32
  0
VERTEX
  8
0
  5
C532
 10
36.3855
 20
106.210
 30
0.000000
  70
    32
  0
VERTEX
  8
0
  5
C533
 10
36.3853
 20
106.209
 30
0.000000
  70
    32
  0
VERTEX
  8
0
  5
C534
 10
36.3852
 20
106.208
 30
0.000000
  70
    32
  0
VERTEX
  8
0
  5
C535
 10
36.3851
 20
106.206
 30
0.000000
  70
    32
  0
VERTEX
  8
0
  5
C536
 10
36.3851
 20
106.205
 30
0.000000
  70
    32
  0
VERTEX
  8
0
  5
C537
 10
36.3851
 20
106.204
 30
0.000000
  70
    32
  0
VERTEX
  8
0
  5
C538
 10
36.3850
 20
106.203
 30
0.000000
  70
    32
  0
SEQEND
  8
0
  5
C539
  0
LINE
  5
BE31
  8
0
 10
44.610497541335768
 20
106.55435717262
 30
0.0
 11
42.47901573378212
 21
107.2610906776374
 31
0.0
  0
POLYLINE
  5
BE32
  8
0
 10
45.085040014350426
 20
106.20280604725279
 30
0.0
 66
     1
 70
     8
  0
VERTEX
  8
0
  5
C53A
 10
45.0850
 20
106.203
 30
0.000000
  70
    32
  0
VERTEX
  8
0
  5
C53B
 10
45.0850
 20
106.206
 30
0.000000
  70
    32
  0
VERTEX
  8
0
  5
C53C
 10
45.0849
 20
106.209
 30
0.000000
  70
    32
  0
VERTEX
  8
0
  5
C53D
 10
45.0848
 20
106.212
 30
0.000000
  70
    32
  0
VERTEX
  8
0
  5
C53E
 10
45.0846
 20
106.215
 30
0.000000
  70
    32
  0
VERTEX
  8
0
  5
C53F
 10
45.0843
 20
106.217
 30
0.000000
  70
    32
  0
VERTEX
  8
0
  5
C540
 10
45.0840
 20
106.220
 30
0.000000
  70
    32
  0
VERTEX
  8
0
  5
C541
 10
45.0836
 20
106.223
 30
0.000000
  70
    32
  0
VERTEX
  8
0
  5
C542
 10
45.0831
 20
106.226
 30
0.000000
  70
    32
  0
VERTEX
  8
0
  5
C543
 10
45.0826
 20
106.229
 30
0.000000
  70
    32
  0
VERTEX
  8
0
  5
C544
 10
45.0820
 20
106.232
 30
0.000000
  70
    32
  0
VERTEX
  8
0
  5
C545
 10
45.0814
 20
106.235
 30
0.000000
  70
    32
  0
VERTEX
  8
0
  5
C546
 10
45.0807
 20
106.238
 30
0.000000
  70
    32
  0
VERTEX
  8
0
  5
C547
 10
45.0800
 20
106.241
 30
0.000000
  70
    32
  0
VERTEX
  8
0
  5
C548
 10
45.0792
 20
106.244
 30
0.000000
  70
    32
  0
VERTEX
  8
0
  5
C549
 10
45.0783
 20
106.247
 30
0.000000
  70
    32
  0
VERTEX
  8
0
  5
C54A
 10
45.0774
 20
106.250
 30
0.000000
  70
    32
  0
VERTEX
  8
0
  5
C54B
 10
45.0764
 20
106.253
 30
0.000000
  70
    32
  0
VERTEX
  8
0
  5
C54C
 10
45.0753
 20
106.256
 30
0.000000
  70
    32
  0
VERTEX
  8
0
  5
C54D
 10
45.0742
 20
106.258
 30
0.000000
  70
    32
  0
VERTEX
  8
0
  5
C54E
 10
45.0731
 20
106.261
 30
0.000000
  70
    32
  0
VERTEX
  8
0
  5
C54F
 10
45.0719
 20
106.264
 30
0.000000
  70
    32
  0
VERTEX
  8
0
  5
C550
 10
45.0706
 20
106.267
 30
0.000000
  70
    32
  0
VERTEX
  8
0
  5
C551
 10
45.0692
 20
106.270
 30
0.000000
  70
    32
  0
VERTEX
  8
0
  5
C552
 10
45.0678
 20
106.273
 30
0.000000
  70
    32
  0
VERTEX
  8
0
  5
C553
 10
45.0664
 20
106.276
 30
0.000000
  70
    32
  0
VERTEX
  8
0
  5
C554
 10
45.0648
 20
106.279
 30
0.000000
  70
    32
  0
VERTEX
  8
0
  5
C555
 10
45.0633
 20
106.282
 30
0.000000
  70
    32
  0
VERTEX
  8
0
  5
C556
 10
45.0616
 20
106.285
 30
0.000000
  70
    32
  0
VERTEX
  8
0
  5
C557
 10
45.0599
 20
106.288
 30
0.000000
  70
    32
  0
VERTEX
  8
0
  5
C558
 10
45.0582
 20
106.291
 30
0.000000
  70
    32
  0
VERTEX
  8
0
  5
C559
 10
45.0563
 20
106.293
 30
0.000000
  70
    32
  0
VERTEX
  8
0
  5
C55A
 10
45.0545
 20
106.296
 30
0.000000
  70
    32
  0
VERTEX
  8
0
  5
C55B
 10
45.0525
 20
106.299
 30
0.000000
  70
    32
  0
VERTEX
  8
0
  5
C55C
 10
45.0505
 20
106.302
 30
0.000000
  70
    32
  0
VERTEX
  8
0
  5
C55D
 10
45.0485
 20
106.305
 30
0.000000
  70
    32
  0
VERTEX
  8
0
  5
C55E
 10
45.0464
 20
106.308
 30
0.000000
  70
    32
  0
VERTEX
  8
0
  5
C55F
 10
45.0442
 20
106.311
 30
0.000000
  70
    32
  0
VERTEX
  8
0
  5
C560
 10
45.0419
 20
106.314
 30
0.000000
  70
    32
  0
VERTEX
  8
0
  5
C561
 10
45.0397
 20
106.317
 30
0.000000
  70
    32
  0
VERTEX
  8
0
  5
C562
 10
45.0373
 20
106.319
 30
0.000000
  70
    32
  0
VERTEX
  8
0
  5
C563
 10
45.0349
 20
106.322
 30
0.000000
  70
    32
  0
VERTEX
  8
0
  5
C564
 10
45.0324
 20
106.325
 30
0.000000
  70
    32
  0
VERTEX
  8
0
  5
C565
 10
45.0299
 20
106.328
 30
0.000000
  70
    32
  0
VERTEX
  8
0
  5
C566
 10
45.0273
 20
106.331
 30
0.000000
  70
    32
  0
VERTEX
  8
0
  5
C567
 10
45.0247
 20
106.334
 30
0.000000
  70
    32
  0
VERTEX
  8
0
  5
C568
 10
45.0220
 20
106.337
 30
0.000000
  70
    32
  0
VERTEX
  8
0
  5
C569
 10
45.0192
 20
106.340
 30
0.000000
  70
    32
  0
VERTEX
  8
0
  5
C56A
 10
45.0164
 20
106.342
 30
0.000000
  70
    32
  0
VERTEX
  8
0
  5
C56B
 10
45.0135
 20
106.345
 30
0.000000
  70
    32
  0
VERTEX
  8
0
  5
C56C
 10
45.0106
 20
106.348
 30
0.000000
  70
    32
  0
VERTEX
  8
0
  5
C56D
 10
45.0076
 20
106.351
 30
0.000000
  70
    32
  0
VERTEX
  8
0
  5
C56E
 10
45.0045
 20
106.354
 30
0.000000
  70
    32
  0
VERTEX
  8
0
  5
C56F
 10
45.0014
 20
106.357
 30
0.000000
  70
    32
  0
VERTEX
  8
0
  5
C570
 10
44.9983
 20
106.359
 30
0.000000
  70
    32
  0
VERTEX
  8
0
  5
C571
 10
44.9950
 20
106.362
 30
0.000000
  70
    32
  0
VERTEX
  8
0
  5
C572
 10
44.9918
 20
106.365
 30
0.000000
  70
    32
  0
VERTEX
  8
0
  5
C573
 10
44.9884
 20
106.368
 30
0.000000
  70
    32
  0
VERTEX
  8
0
  5
C574
 10
44.9850
 20
106.371
 30
0.000000
  70
    32
  0
VERTEX
  8
0
  5
C575
 10
44.9816
 20
106.374
 30
0.000000
  70
    32
  0
VERTEX
  8
0
  5
C576
 10
44.9781
 20
106.376
 30
0.000000
  70
    32
  0
VERTEX
  8
0
  5
C577
 10
44.9745
 20
106.379
 30
0.000000
  70
    32
  0
VERTEX
  8
0
  5
C578
 10
44.9709
 20
106.382
 30
0.000000
  70
    32
  0
VERTEX
  8
0
  5
C579
 10
44.9672
 20
106.385
 30
0.000000
  70
    32
  0
VERTEX
  8
0
  5
C57A
 10
44.9634
 20
106.388
 30
0.000000
  70
    32
  0
VERTEX
  8
0
  5
C57B
 10
44.9597
 20
106.390
 30
0.000000
  70
    32
  0
VERTEX
  8
0
  5
C57C
 10
44.9558
 20
106.393
 30
0.000000
  70
    32
  0
VERTEX
  8
0
  5
C57D
 10
44.9519
 20
106.396
 30
0.000000
  70
    32
  0
VERTEX
  8
0
  5
C57E
 10
44.9479
 20
106.399
 30
0.000000
  70
    32
  0
VERTEX
  8
0
  5
C57F
 10
44.9439
 20
106.401
 30
0.000000
  70
    32
  0
VERTEX
  8
0
  5
C580
 10
44.9398
 20
106.404
 30
0.000000
  70
    32
  0
VERTEX
  8
0
  5
C581
 10
44.9357
 20
106.407
 30
0.000000
  70
    32
  0
VERTEX
  8
0
  5
C582
 10
44.9315
 20
106.410
 30
0.000000
  70
    32
  0
VERTEX
  8
0
  5
C583
 10
44.9272
 20
106.413
 30
0.000000
  70
    32
  0
VERTEX
  8
0
  5
C584
 10
44.9229
 20
106.415
 30
0.000000
  70
    32
  0
VERTEX
  8
0
  5
C585
 10
44.9186
 20
106.418
 30
0.000000
  70
    32
  0
VERTEX
  8
0
  5
C586
 10
44.9142
 20
106.421
 30
0.000000
  70
    32
  0
VERTEX
  8
0
  5
C587
 10
44.9097
 20
106.423
 30
0.000000
  70
    32
  0
VERTEX
  8
0
  5
C588
 10
44.9051
 20
106.426
 30
0.000000
  70
    32
  0
VERTEX
  8
0
  5
C589
 10
44.9006
 20
106.429
 30
0.000000
  70
    32
  0
VERTEX
  8
0
  5
C58A
 10
44.8959
 20
106.432
 30
0.000000
  70
    32
  0
VERTEX
  8
0
  5
C58B
 10
44.8912
 20
106.434
 30
0.000000
  70
    32
  0
VERTEX
  8
0
  5
C58C
 10
44.8865
 20
106.437
 30
0.000000
  70
    32
  0
VERTEX
  8
0
  5
C58D
 10
44.8817
 20
106.440
 30
0.000000
  70
    32
  0
VERTEX
  8
0
  5
C58E
 10
44.8768
 20
106.442
 30
0.000000
  70
    32
  0
VERTEX
  8
0
  5
C58F
 10
44.8719
 20
106.445
 30
0.000000
  70
    32
  0
VERTEX
  8
0
  5
C590
 10
44.8669
 20
106.448
 30
0.000000
  70
    32
  0
VERTEX
  8
0
  5
C591
 10
44.8619
 20
106.450
 30
0.000000
  70
    32
  0
VERTEX
  8
0
  5
C592
 10
44.8568
 20
106.453
 30
0.000000
  70
    32
  0
VERTEX
  8
0
  5
C593
 10
44.8517
 20
106.456
 30
0.000000
  70
    32
  0
VERTEX
  8
0
  5
C594
 10
44.8465
 20
106.458
 30
0.000000
  70
    32
  0
VERTEX
  8
0
  5
C595
 10
44.8413
 20
106.461
 30
0.000000
  70
    32
  0
VERTEX
  8
0
  5
C596
 10
44.8360
 20
106.464
 30
0.000000
  70
    32
  0
VERTEX
  8
0
  5
C597
 10
44.8306
 20
106.466
 30
0.000000
  70
    32
  0
VERTEX
  8
0
  5
C598
 10
44.8252
 20
106.469
 30
0.000000
  70
    32
  0
VERTEX
  8
0
  5
C599
 10
44.8198
 20
106.472
 30
0.000000
  70
    32
  0
VERTEX
  8
0
  5
C59A
 10
44.8142
 20
106.474
 30
0.000000
  70
    32
  0
VERTEX
  8
0
  5
C59B
 10
44.8087
 20
106.477
 30
0.000000
  70
    32
  0
VERTEX
  8
0
  5
C59C
 10
44.8031
 20
106.480
 30
0.000000
  70
    32
  0
VERTEX
  8
0
  5
C59D
 10
44.7974
 20
106.482
 30
0.000000
  70
    32
  0
VERTEX
  8
0
  5
C59E
 10
44.7917
 20
106.485
 30
0.000000
  70
    32
  0
VERTEX
  8
0
  5
C59F
 10
44.7859
 20
106.487
 30
0.000000
  70
    32
  0
VERTEX
  8
0
  5
C5A0
 10
44.7801
 20
106.490
 30
0.000000
  70
    32
  0
VERTEX
  8
0
  5
C5A1
 10
44.7742
 20
106.492
 30
0.000000
  70
    32
  0
VERTEX
  8
0
  5
C5A2
 10
44.7682
 20
106.495
 30
0.000000
  70
    32
  0
VERTEX
  8
0
  5
C5A3
 10
44.7623
 20
106.498
 30
0.000000
  70
    32
  0
VERTEX
  8
0
  5
C5A4
 10
44.7562
 20
106.500
 30
0.000000
  70
    32
  0
VERTEX
  8
0
  5
C5A5
 10
44.7501
 20
106.503
 30
0.000000
  70
    32
  0
VERTEX
  8
0
  5
C5A6
 10
44.7440
 20
106.505
 30
0.000000
  70
    32
  0
VERTEX
  8
0
  5
C5A7
 10
44.7378
 20
106.508
 30
0.000000
  70
    32
  0
VERTEX
  8
0
  5
C5A8
 10
44.7316
 20
106.510
 30
0.000000
  70
    32
  0
VERTEX
  8
0
  5
C5A9
 10
44.7253
 20
106.513
 30
0.000000
  70
    32
  0
VERTEX
  8
0
  5
C5AA
 10
44.7189
 20
106.515
 30
0.000000
  70
    32
  0
VERTEX
  8
0
  5
C5AB
 10
44.7125
 20
106.518
 30
0.000000
  70
    32
  0
VERTEX
  8
0
  5
C5AC
 10
44.7061
 20
106.520
 30
0.000000
  70
    32
  0
VERTEX
  8
0
  5
C5AD
 10
44.6996
 20
106.523
 30
0.000000
  70
    32
  0
VERTEX
  8
0
  5
C5AE
 10
44.6930
 20
106.525
 30
0.000000
  70
    32
  0
VERTEX
  8
0
  5
C5AF
 10
44.6864
 20
106.528
 30
0.000000
  70
    32
  0
VERTEX
  8
0
  5
C5B0
 10
44.6798
 20
106.530
 30
0.000000
  70
    32
  0
VERTEX
  8
0
  5
C5B1
 10
44.6730
 20
106.533
 30
0.000000
  70
    32
  0
VERTEX
  8
0
  5
C5B2
 10
44.6663
 20
106.535
 30
0.000000
  70
    32
  0
VERTEX
  8
0
  5
C5B3
 10
44.6595
 20
106.538
 30
0.000000
  70
    32
  0
VERTEX
  8
0
  5
C5B4
 10
44.6526
 20
106.540
 30
0.000000
  70
    32
  0
VERTEX
  8
0
  5
C5B5
 10
44.6457
 20
106.542
 30
0.000000
  70
    32
  0
VERTEX
  8
0
  5
C5B6
 10
44.6388
 20
106.545
 30
0.000000
  70
    32
  0
VERTEX
  8
0
  5
C5B7
 10
44.6318
 20
106.547
 30
0.000000
  70
    32
  0
VERTEX
  8
0
  5
C5B8
 10
44.6247
 20
106.550
 30
0.000000
  70
    32
  0
VERTEX
  8
0
  5
C5B9
 10
44.6176
 20
106.552
 30
0.000000
  70
    32
  0
VERTEX
  8
0
  5
C5BA
 10
44.6105
 20
106.554
 30
0.000000
  70
    32
  0
SEQEND
  8
0
  5
C5BB
  0
POLYLINE
  5
BE33
  8
0
 10
43.585040014350362
 20
106.20280604725281
 30
0.0
 66
     1
 70
     8
  0
VERTEX
  8
0
  5
C5BC
 10
43.5850
 20
106.203
 30
0.000000
  70
    32
  0
VERTEX
  8
0
  5
C5BD
 10
43.5850
 20
106.204
 30
0.000000
  70
    32
  0
VERTEX
  8
0
  5
C5BE
 10
43.5850
 20
106.205
 30
0.000000
  70
    32
  0
VERTEX
  8
0
  5
C5BF
 10
43.5849
 20
106.206
 30
0.000000
  70
    32
  0
VERTEX
  8
0
  5
C5C0
 10
43.5848
 20
106.208
 30
0.000000
  70
    32
  0
VERTEX
  8
0
  5
C5C1
 10
43.5847
 20
106.209
 30
0.000000
  70
    32
  0
VERTEX
  8
0
  5
C5C2
 10
43.5846
 20
106.210
 30
0.000000
  70
    32
  0
VERTEX
  8
0
  5
C5C3
 10
43.5845
 20
106.211
 30
0.000000
  70
    32
  0
VERTEX
  8
0
  5
C5C4
 10
43.5843
 20
106.212
 30
0.000000
  70
    32
  0
VERTEX
  8
0
  5
C5C5
 10
43.5841
 20
106.213
 30
0.000000
  70
    32
  0
VERTEX
  8
0
  5
C5C6
 10
43.5838
 20
106.215
 30
0.000000
  70
    32
  0
VERTEX
  8
0
  5
C5C7
 10
43.5836
 20
106.216
 30
0.000000
  70
    32
  0
VERTEX
  8
0
  5
C5C8
 10
43.5833
 20
106.217
 30
0.000000
  70
    32
  0
VERTEX
  8
0
  5
C5C9
 10
43.5830
 20
106.218
 30
0.000000
  70
    32
  0
VERTEX
  8
0
  5
C5CA
 10
43.5827
 20
106.219
 30
0.000000
  70
    32
  0
VERTEX
  8
0
  5
C5CB
 10
43.5823
 20
106.220
 30
0.000000
  70
    32
  0
VERTEX
  8
0
  5
C5CC
 10
43.5820
 20
106.222
 30
0.000000
  70
    32
  0
VERTEX
  8
0
  5
C5CD
 10
43.5816
 20
106.223
 30
0.000000
  70
    32
  0
VERTEX
  8
0
  5
C5CE
 10
43.5812
 20
106.224
 30
0.000000
  70
    32
  0
VERTEX
  8
0
  5
C5CF
 10
43.5807
 20
106.225
 30
0.000000
  70
    32
  0
VERTEX
  8
0
  5
C5D0
 10
43.5803
 20
106.226
 30
0.000000
  70
    32
  0
VERTEX
  8
0
  5
C5D1
 10
43.5798
 20
106.227
 30
0.000000
  70
    32
  0
VERTEX
  8
0
  5
C5D2
 10
43.5793
 20
106.229
 30
0.000000
  70
    32
  0
VERTEX
  8
0
  5
C5D3
 10
43.5787
 20
106.230
 30
0.000000
  70
    32
  0
VERTEX
  8
0
  5
C5D4
 10
43.5782
 20
106.231
 30
0.000000
  70
    32
  0
VERTEX
  8
0
  5
C5D5
 10
43.5776
 20
106.232
 30
0.000000
  70
    32
  0
VERTEX
  8
0
  5
C5D6
 10
43.5770
 20
106.233
 30
0.000000
  70
    32
  0
VERTEX
  8
0
  5
C5D7
 10
43.5763
 20
106.234
 30
0.000000
  70
    32
  0
VERTEX
  8
0
  5
C5D8
 10
43.5757
 20
106.236
 30
0.000000
  70
    32
  0
VERTEX
  8
0
  5
C5D9
 10
43.5750
 20
106.237
 30
0.000000
  70
    32
  0
VERTEX
  8
0
  5
C5DA
 10
43.5743
 20
106.238
 30
0.000000
  70
    32
  0
VERTEX
  8
0
  5
C5DB
 10
43.5736
 20
106.239
 30
0.000000
  70
    32
  0
VERTEX
  8
0
  5
C5DC
 10
43.5728
 20
106.240
 30
0.000000
  70
    32
  0
VERTEX
  8
0
  5
C5DD
 10
43.5720
 20
106.241
 30
0.000000
  70
    32
  0
VERTEX
  8
0
  5
C5DE
 10
43.5712
 20
106.243
 30
0.000000
  70
    32
  0
VERTEX
  8
0
  5
C5DF
 10
43.5704
 20
106.244
 30
0.000000
  70
    32
  0
VERTEX
  8
0
  5
C5E0
 10
43.5696
 20
106.245
 30
0.000000
  70
    32
  0
VERTEX
  8
0
  5
C5E1
 10
43.5687
 20
106.246
 30
0.000000
  70
    32
  0
VERTEX
  8
0
  5
C5E2
 10
43.5678
 20
106.247
 30
0.000000
  70
    32
  0
VERTEX
  8
0
  5
C5E3
 10
43.5669
 20
106.248
 30
0.000000
  70
    32
  0
VERTEX
  8
0
  5
C5E4
 10
43.5659
 20
106.249
 30
0.000000
  70
    32
  0
VERTEX
  8
0
  5
C5E5
 10
43.5650
 20
106.251
 30
0.000000
  70
    32
  0
VERTEX
  8
0
  5
C5E6
 10
43.5640
 20
106.252
 30
0.000000
  70
    32
  0
VERTEX
  8
0
  5
C5E7
 10
43.5630
 20
106.253
 30
0.000000
  70
    32
  0
VERTEX
  8
0
  5
C5E8
 10
43.5620
 20
106.254
 30
0.000000
  70
    32
  0
VERTEX
  8
0
  5
C5E9
 10
43.5609
 20
106.255
 30
0.000000
  70
    32
  0
VERTEX
  8
0
  5
C5EA
 10
43.5598
 20
106.256
 30
0.000000
  70
    32
  0
VERTEX
  8
0
  5
C5EB
 10
43.5587
 20
106.257
 30
0.000000
  70
    32
  0
VERTEX
  8
0
  5
C5EC
 10
43.5576
 20
106.259
 30
0.000000
  70
    32
  0
VERTEX
  8
0
  5
C5ED
 10
43.5564
 20
106.260
 30
0.000000
  70
    32
  0
VERTEX
  8
0
  5
C5EE
 10
43.5553
 20
106.261
 30
0.000000
  70
    32
  0
VERTEX
  8
0
  5
C5EF
 10
43.5541
 20
106.262
 30
0.000000
  70
    32
  0
VERTEX
  8
0
  5
C5F0
 10
43.5528
 20
106.263
 30
0.000000
  70
    32
  0
VERTEX
  8
0
  5
C5F1
 10
43.5516
 20
106.264
 30
0.000000
  70
    32
  0
VERTEX
  8
0
  5
C5F2
 10
43.5503
 20
106.265
 30
0.000000
  70
    32
  0
VERTEX
  8
0
  5
C5F3
 10
43.5490
 20
106.267
 30
0.000000
  70
    32
  0
VERTEX
  8
0
  5
C5F4
 10
43.5477
 20
106.268
 30
0.000000
  70
    32
  0
VERTEX
  8
0
  5
C5F5
 10
43.5464
 20
106.269
 30
0.000000
  70
    32
  0
VERTEX
  8
0
  5
C5F6
 10
43.5450
 20
106.270
 30
0.000000
  70
    32
  0
VERTEX
  8
0
  5
C5F7
 10
43.5437
 20
106.271
 30
0.000000
  70
    32
  0
VERTEX
  8
0
  5
C5F8
 10
43.5423
 20
106.272
 30
0.000000
  70
    32
  0
VERTEX
  8
0
  5
C5F9
 10
43.5408
 20
106.273
 30
0.000000
  70
    32
  0
VERTEX
  8
0
  5
C5FA
 10
43.5394
 20
106.274
 30
0.000000
  70
    32
  0
VERTEX
  8
0
  5
C5FB
 10
43.5379
 20
106.276
 30
0.000000
  70
    32
  0
VERTEX
  8
0
  5
C5FC
 10
43.5364
 20
106.277
 30
0.000000
  70
    32
  0
VERTEX
  8
0
  5
C5FD
 10
43.5349
 20
106.278
 30
0.000000
  70
    32
  0
VERTEX
  8
0
  5
C5FE
 10
43.5333
 20
106.279
 30
0.000000
  70
    32
  0
VERTEX
  8
0
  5
C5FF
 10
43.5318
 20
106.280
 30
0.000000
  70
    32
  0
VERTEX
  8
0
  5
C600
 10
43.5302
 20
106.281
 30
0.000000
  70
    32
  0
VERTEX
  8
0
  5
C601
 10
43.5286
 20
106.282
 30
0.000000
  70
    32
  0
VERTEX
  8
0
  5
C602
 10
43.5269
 20
106.283
 30
0.000000
  70
    32
  0
VERTEX
  8
0
  5
C603
 10
43.5253
 20
106.284
 30
0.000000
  70
    32
  0
VERTEX
  8
0
  5
C604
 10
43.5236
 20
106.286
 30
0.000000
  70
    32
  0
VERTEX
  8
0
  5
C605
 10
43.5219
 20
106.287
 30
0.000000
  70
    32
  0
VERTEX
  8
0
  5
C606
 10
43.5202
 20
106.288
 30
0.000000
  70
    32
  0
VERTEX
  8
0
  5
C607
 10
43.5185
 20
106.289
 30
0.000000
  70
    32
  0
VERTEX
  8
0
  5
C608
 10
43.5167
 20
106.290
 30
0.000000
  70
    32
  0
VERTEX
  8
0
  5
C609
 10
43.5149
 20
106.291
 30
0.000000
  70
    32
  0
VERTEX
  8
0
  5
C60A
 10
43.5131
 20
106.292
 30
0.000000
  70
    32
  0
VERTEX
  8
0
  5
C60B
 10
43.5112
 20
106.293
 30
0.000000
  70
    32
  0
VERTEX
  8
0
  5
C60C
 10
43.5094
 20
106.294
 30
0.000000
  70
    32
  0
VERTEX
  8
0
  5
C60D
 10
43.5075
 20
106.295
 30
0.000000
  70
    32
  0
VERTEX
  8
0
  5
C60E
 10
43.5056
 20
106.297
 30
0.000000
  70
    32
  0
VERTEX
  8
0
  5
C60F
 10
43.5037
 20
106.298
 30
0.000000
  70
    32
  0
VERTEX
  8
0
  5
C610
 10
43.5017
 20
106.299
 30
0.000000
  70
    32
  0
VERTEX
  8
0
  5
C611
 10
43.4998
 20
106.300
 30
0.000000
  70
    32
  0
VERTEX
  8
0
  5
C612
 10
43.4978
 20
106.301
 30
0.000000
  70
    32
  0
VERTEX
  8
0
  5
C613
 10
43.4958
 20
106.302
 30
0.000000
  70
    32
  0
VERTEX
  8
0
  5
C614
 10
43.4938
 20
106.303
 30
0.000000
  70
    32
  0
VERTEX
  8
0
  5
C615
 10
43.4917
 20
106.304
 30
0.000000
  70
    32
  0
VERTEX
  8
0
  5
C616
 10
43.4896
 20
106.305
 30
0.000000
  70
    32
  0
VERTEX
  8
0
  5
C617
 10
43.4875
 20
106.306
 30
0.000000
  70
    32
  0
VERTEX
  8
0
  5
C618
 10
43.4854
 20
106.307
 30
0.000000
  70
    32
  0
VERTEX
  8
0
  5
C619
 10
43.4833
 20
106.308
 30
0.000000
  70
    32
  0
VERTEX
  8
0
  5
C61A
 10
43.4811
 20
106.309
 30
0.000000
  70
    32
  0
VERTEX
  8
0
  5
C61B
 10
43.4789
 20
106.310
 30
0.000000
  70
    32
  0
VERTEX
  8
0
  5
C61C
 10
43.4767
 20
106.311
 30
0.000000
  70
    32
  0
VERTEX
  8
0
  5
C61D
 10
43.4745
 20
106.312
 30
0.000000
  70
    32
  0
VERTEX
  8
0
  5
C61E
 10
43.4722
 20
106.313
 30
0.000000
  70
    32
  0
VERTEX
  8
0
  5
C61F
 10
43.4700
 20
106.315
 30
0.000000
  70
    32
  0
VERTEX
  8
0
  5
C620
 10
43.4677
 20
106.316
 30
0.000000
  70
    32
  0
VERTEX
  8
0
  5
C621
 10
43.4654
 20
106.317
 30
0.000000
  70
    32
  0
VERTEX
  8
0
  5
C622
 10
43.4630
 20
106.318
 30
0.000000
  70
    32
  0
VERTEX
  8
0
  5
C623
 10
43.4607
 20
106.319
 30
0.000000
  70
    32
  0
VERTEX
  8
0
  5
C624
 10
43.4583
 20
106.320
 30
0.000000
  70
    32
  0
VERTEX
  8
0
  5
C625
 10
43.4559
 20
106.321
 30
0.000000
  70
    32
  0
VERTEX
  8
0
  5
C626
 10
43.4535
 20
106.322
 30
0.000000
  70
    32
  0
VERTEX
  8
0
  5
C627
 10
43.4511
 20
106.323
 30
0.000000
  70
    32
  0
VERTEX
  8
0
  5
C628
 10
43.4486
 20
106.324
 30
0.000000
  70
    32
  0
VERTEX
  8
0
  5
C629
 10
43.4461
 20
106.325
 30
0.000000
  70
    32
  0
VERTEX
  8
0
  5
C62A
 10
43.4436
 20
106.326
 30
0.000000
  70
    32
  0
VERTEX
  8
0
  5
C62B
 10
43.4411
 20
106.327
 30
0.000000
  70
    32
  0
VERTEX
  8
0
  5
C62C
 10
43.4386
 20
106.328
 30
0.000000
  70
    32
  0
VERTEX
  8
0
  5
C62D
 10
43.4360
 20
106.329
 30
0.000000
  70
    32
  0
VERTEX
  8
0
  5
C62E
 10
43.4334
 20
106.330
 30
0.000000
  70
    32
  0
VERTEX
  8
0
  5
C62F
 10
43.4308
 20
106.331
 30
0.000000
  70
    32
  0
VERTEX
  8
0
  5
C630
 10
43.4282
 20
106.332
 30
0.000000
  70
    32
  0
VERTEX
  8
0
  5
C631
 10
43.4256
 20
106.333
 30
0.000000
  70
    32
  0
VERTEX
  8
0
  5
C632
 10
43.4229
 20
106.334
 30
0.000000
  70
    32
  0
VERTEX
  8
0
  5
C633
 10
43.4202
 20
106.335
 30
0.000000
  70
    32
  0
VERTEX
  8
0
  5
C634
 10
43.4175
 20
106.336
 30
0.000000
  70
    32
  0
VERTEX
  8
0
  5
C635
 10
43.4148
 20
106.337
 30
0.000000
  70
    32
  0
VERTEX
  8
0
  5
C636
 10
43.4121
 20
106.338
 30
0.000000
  70
    32
  0
VERTEX
  8
0
  5
C637
 10
43.4093
 20
106.339
 30
0.000000
  70
    32
  0
VERTEX
  8
0
  5
C638
 10
43.4065
 20
106.340
 30
0.000000
  70
    32
  0
VERTEX
  8
0
  5
C639
 10
43.4037
 20
106.341
 30
0.000000
  70
    32
  0
VERTEX
  8
0
  5
C63A
 10
43.4009
 20
106.342
 30
0.000000
  70
    32
  0
VERTEX
  8
0
  5
C63B
 10
43.3981
 20
106.342
 30
0.000000
  70
    32
  0
VERTEX
  8
0
  5
C63C
 10
43.3952
 20
106.343
 30
0.000000
  70
    32
  0
SEQEND
  8
0
  5
C63D
  0
LINE
  5
BE34
  8
0
 10
40.627582193439451
 20
107.2610906776374
 30
0.0
 11
43.395223025144638
 21
106.3434264973998
 31
0.0
  0
POLYLINE
  5
BE37
  8
0
 66
     1
 10
0.0
 20
0.0
 30
0.0
 70
   128
  0
VERTEX
  5
C3AC
  8
0
 10
36.485040014350567
 20
97.210122972215231
 30
0.0
  0
VERTEX
  5
C3AD
  8
0
 10
36.421587773652483
 20
97.192334663366864
 30
0.0
  0
VERTEX
  5
C3AE
  8
0
 10
36.385585297184292
 20
97.103914929559096
 30
0.0
  0
VERTEX
  5
C3AF
  8
0
 10
36.385040014350437
 20
97.085672871964107
 30
0.0
  0
SEQEND
  5
C3B0
  8
0
  0
POLYLINE
  5
BE38
  8
0
 66
     1
 10
0.0
 20
0.0
 30
0.0
 70
   128
  0
VERTEX
  5
C3B1
  8
0
 10
43.585040014350483
 20
97.085672871964107
 30
0.0
  0
VERTEX
  5
C3B2
  8
0
 10
43.557727209537767
 20
97.183099708877762
 30
0.0
  0
VERTEX
  5
C3B3
  8
0
 10
43.485040014350567
 20
97.212696258443884
 30
0.0
  0
SEQEND
  5
C3B4
  8
0
  0
LINE
  5
BE39
  8
0
 10
39.342497835261469
 20
107.2610906776374
 30
0.0
 11
39.460497541335677
 21
107.351494594096
 31
0.0
  0
LINE
  5
BE3A
  8
0
 10
40.509582487365229
 20
107.351494594096
 30
0.0
 11
40.627582193439451
 21
107.2610906776374
 31
0.0
  0
POLYLINE
  5
BE3B
  8
0
 10
38.245223025144576
 20
107.8388794290867
 30
0.0
 66
     1
 70
     8
  0
VERTEX
  8
0
  5
C63E
 10
38.2452
 20
107.839
 30
0.000000
  70
    32
  0
VERTEX
  8
0
  5
C63F
 10
38.2481
 20
107.841
 30
0.000000
  70
    32
  0
VERTEX
  8
0
  5
C640
 10
38.2509
 20
107.843
 30
0.000000
  70
    32
  0
VERTEX
  8
0
  5
C641
 10
38.2537
 20
107.846
 30
0.000000
  70
    32
  0
VERTEX
  8
0
  5
C642
 10
38.2565
 20
107.848
 30
0.000000
  70
    32
  0
VERTEX
  8
0
  5
C643
 10
38.2593
 20
107.850
 30
0.000000
  70
    32
  0
VERTEX
  8
0
  5
C644
 10
38.2621
 20
107.852
 30
0.000000
  70
    32
  0
VERTEX
  8
0
  5
C645
 10
38.2648
 20
107.854
 30
0.000000
  70
    32
  0
VERTEX
  8
0
  5
C646
 10
38.2675
 20
107.857
 30
0.000000
  70
    32
  0
VERTEX
  8
0
  5
C647
 10
38.2702
 20
107.859
 30
0.000000
  70
    32
  0
VERTEX
  8
0
  5
C648
 10
38.2729
 20
107.861
 30
0.000000
  70
    32
  0
VERTEX
  8
0
  5
C649
 10
38.2756
 20
107.864
 30
0.000000
  70
    32
  0
VERTEX
  8
0
  5
C64A
 10
38.2782
 20
107.866
 30
0.000000
  70
    32
  0
VERTEX
  8
0
  5
C64B
 10
38.2808
 20
107.868
 30
0.000000
  70
    32
  0
VERTEX
  8
0
  5
C64C
 10
38.2834
 20
107.870
 30
0.000000
  70
    32
  0
VERTEX
  8
0
  5
C64D
 10
38.2860
 20
107.873
 30
0.000000
  70
    32
  0
VERTEX
  8
0
  5
C64E
 10
38.2886
 20
107.875
 30
0.000000
  70
    32
  0
VERTEX
  8
0
  5
C64F
 10
38.2911
 20
107.877
 30
0.000000
  70
    32
  0
VERTEX
  8
0
  5
C650
 10
38.2936
 20
107.880
 30
0.000000
  70
    32
  0
VERTEX
  8
0
  5
C651
 10
38.2961
 20
107.882
 30
0.000000
  70
    32
  0
VERTEX
  8
0
  5
C652
 10
38.2986
 20
107.884
 30
0.000000
  70
    32
  0
VERTEX
  8
0
  5
C653
 10
38.3011
 20
107.887
 30
0.000000
  70
    32
  0
VERTEX
  8
0
  5
C654
 10
38.3035
 20
107.889
 30
0.000000
  70
    32
  0
VERTEX
  8
0
  5
C655
 10
38.3059
 20
107.891
 30
0.000000
  70
    32
  0
VERTEX
  8
0
  5
C656
 10
38.3083
 20
107.894
 30
0.000000
  70
    32
  0
VERTEX
  8
0
  5
C657
 10
38.3107
 20
107.896
 30
0.000000
  70
    32
  0
VERTEX
  8
0
  5
C658
 10
38.3130
 20
107.898
 30
0.000000
  70
    32
  0
VERTEX
  8
0
  5
C659
 10
38.3154
 20
107.901
 30
0.000000
  70
    32
  0
VERTEX
  8
0
  5
C65A
 10
38.3177
 20
107.903
 30
0.000000
  70
    32
  0
VERTEX
  8
0
  5
C65B
 10
38.3200
 20
107.906
 30
0.000000
  70
    32
  0
VERTEX
  8
0
  5
C65C
 10
38.3222
 20
107.908
 30
0.000000
  70
    32
  0
VERTEX
  8
0
  5
C65D
 10
38.3245
 20
107.910
 30
0.000000
  70
    32
  0
VERTEX
  8
0
  5
C65E
 10
38.3267
 20
107.913
 30
0.000000
  70
    32
  0
VERTEX
  8
0
  5
C65F
 10
38.3289
 20
107.915
 30
0.000000
  70
    32
  0
VERTEX
  8
0
  5
C660
 10
38.3311
 20
107.918
 30
0.000000
  70
    32
  0
VERTEX
  8
0
  5
C661
 10
38.3333
 20
107.920
 30
0.000000
  70
    32
  0
VERTEX
  8
0
  5
C662
 10
38.3354
 20
107.923
 30
0.000000
  70
    32
  0
VERTEX
  8
0
  5
C663
 10
38.3375
 20
107.925
 30
0.000000
  70
    32
  0
VERTEX
  8
0
  5
C664
 10
38.3396
 20
107.928
 30
0.000000
  70
    32
  0
VERTEX
  8
0
  5
C665
 10
38.3417
 20
107.930
 30
0.000000
  70
    32
  0
VERTEX
  8
0
  5
C666
 10
38.3438
 20
107.932
 30
0.000000
  70
    32
  0
VERTEX
  8
0
  5
C667
 10
38.3458
 20
107.935
 30
0.000000
  70
    32
  0
VERTEX
  8
0
  5
C668
 10
38.3478
 20
107.937
 30
0.000000
  70
    32
  0
VERTEX
  8
0
  5
C669
 10
38.3498
 20
107.940
 30
0.000000
  70
    32
  0
VERTEX
  8
0
  5
C66A
 10
38.3517
 20
107.942
 30
0.000000
  70
    32
  0
VERTEX
  8
0
  5
C66B
 10
38.3537
 20
107.945
 30
0.000000
  70
    32
  0
VERTEX
  8
0
  5
C66C
 10
38.3556
 20
107.947
 30
0.000000
  70
    32
  0
VERTEX
  8
0
  5
C66D
 10
38.3575
 20
107.950
 30
0.000000
  70
    32
  0
VERTEX
  8
0
  5
C66E
 10
38.3594
 20
107.952
 30
0.000000
  70
    32
  0
VERTEX
  8
0
  5
C66F
 10
38.3612
 20
107.955
 30
0.000000
  70
    32
  0
VERTEX
  8
0
  5
C670
 10
38.3631
 20
107.957
 30
0.000000
  70
    32
  0
VERTEX
  8
0
  5
C671
 10
38.3649
 20
107.960
 30
0.000000
  70
    32
  0
VERTEX
  8
0
  5
C672
 10
38.3667
 20
107.962
 30
0.000000
  70
    32
  0
VERTEX
  8
0
  5
C673
 10
38.3685
 20
107.965
 30
0.000000
  70
    32
  0
VERTEX
  8
0
  5
C674
 10
38.3702
 20
107.967
 30
0.000000
  70
    32
  0
VERTEX
  8
0
  5
C675
 10
38.3719
 20
107.970
 30
0.000000
  70
    32
  0
VERTEX
  8
0
  5
C676
 10
38.3736
 20
107.973
 30
0.000000
  70
    32
  0
VERTEX
  8
0
  5
C677
 10
38.3753
 20
107.975
 30
0.000000
  70
    32
  0
VERTEX
  8
0
  5
C678
 10
38.3769
 20
107.978
 30
0.000000
  70
    32
  0
VERTEX
  8
0
  5
C679
 10
38.3786
 20
107.980
 30
0.000000
  70
    32
  0
VERTEX
  8
0
  5
C67A
 10
38.3802
 20
107.983
 30
0.000000
  70
    32
  0
VERTEX
  8
0
  5
C67B
 10
38.3818
 20
107.985
 30
0.000000
  70
    32
  0
VERTEX
  8
0
  5
C67C
 10
38.3833
 20
107.988
 30
0.000000
  70
    32
  0
VERTEX
  8
0
  5
C67D
 10
38.3849
 20
107.990
 30
0.000000
  70
    32
  0
VERTEX
  8
0
  5
C67E
 10
38.3864
 20
107.993
 30
0.000000
  70
    32
  0
VERTEX
  8
0
  5
C67F
 10
38.3879
 20
107.996
 30
0.000000
  70
    32
  0
VERTEX
  8
0
  5
C680
 10
38.3894
 20
107.998
 30
0.000000
  70
    32
  0
VERTEX
  8
0
  5
C681
 10
38.3908
 20
108.001
 30
0.000000
  70
    32
  0
VERTEX
  8
0
  5
C682
 10
38.3923
 20
108.003
 30
0.000000
  70
    32
  0
VERTEX
  8
0
  5
C683
 10
38.3937
 20
108.006
 30
0.000000
  70
    32
  0
VERTEX
  8
0
  5
C684
 10
38.3950
 20
108.009
 30
0.000000
  70
    32
  0
VERTEX
  8
0
  5
C685
 10
38.3964
 20
108.011
 30
0.000000
  70
    32
  0
VERTEX
  8
0
  5
C686
 10
38.3977
 20
108.014
 30
0.000000
  70
    32
  0
VERTEX
  8
0
  5
C687
 10
38.3990
 20
108.016
 30
0.000000
  70
    32
  0
VERTEX
  8
0
  5
C688
 10
38.4003
 20
108.019
 30
0.000000
  70
    32
  0
VERTEX
  8
0
  5
C689
 10
38.4016
 20
108.022
 30
0.000000
  70
    32
  0
VERTEX
  8
0
  5
C68A
 10
38.4028
 20
108.024
 30
0.000000
  70
    32
  0
VERTEX
  8
0
  5
C68B
 10
38.4041
 20
108.027
 30
0.000000
  70
    32
  0
VERTEX
  8
0
  5
C68C
 10
38.4053
 20
108.030
 30
0.000000
  70
    32
  0
VERTEX
  8
0
  5
C68D
 10
38.4064
 20
108.032
 30
0.000000
  70
    32
  0
VERTEX
  8
0
  5
C68E
 10
38.4076
 20
108.035
 30
0.000000
  70
    32
  0
VERTEX
  8
0
  5
C68F
 10
38.4087
 20
108.037
 30
0.000000
  70
    32
  0
VERTEX
  8
0
  5
C690
 10
38.4098
 20
108.040
 30
0.000000
  70
    32
  0
VERTEX
  8
0
  5
C691
 10
38.4109
 20
108.043
 30
0.000000
  70
    32
  0
VERTEX
  8
0
  5
C692
 10
38.4120
 20
108.045
 30
0.000000
  70
    32
  0
VERTEX
  8
0
  5
C693
 10
38.4130
 20
108.048
 30
0.000000
  70
    32
  0
VERTEX
  8
0
  5
C694
 10
38.4140
 20
108.051
 30
0.000000
  70
    32
  0
VERTEX
  8
0
  5
C695
 10
38.4150
 20
108.053
 30
0.000000
  70
    32
  0
VERTEX
  8
0
  5
C696
 10
38.4159
 20
108.056
 30
0.000000
  70
    32
  0
VERTEX
  8
0
  5
C697
 10
38.4169
 20
108.059
 30
0.000000
  70
    32
  0
VERTEX
  8
0
  5
C698
 10
38.4178
 20
108.061
 30
0.000000
  70
    32
  0
VERTEX
  8
0
  5
C699
 10
38.4187
 20
108.064
 30
0.000000
  70
    32
  0
VERTEX
  8
0
  5
C69A
 10
38.4196
 20
108.067
 30
0.000000
  70
    32
  0
VERTEX
  8
0
  5
C69B
 10
38.4204
 20
108.069
 30
0.000000
  70
    32
  0
VERTEX
  8
0
  5
C69C
 10
38.4212
 20
108.072
 30
0.000000
  70
    32
  0
VERTEX
  8
0
  5
C69D
 10
38.4220
 20
108.075
 30
0.000000
  70
    32
  0
VERTEX
  8
0
  5
C69E
 10
38.4228
 20
108.077
 30
0.000000
  70
    32
  0
VERTEX
  8
0
  5
C69F
 10
38.4236
 20
108.080
 30
0.000000
  70
    32
  0
VERTEX
  8
0
  5
C6A0
 10
38.4243
 20
108.083
 30
0.000000
  70
    32
  0
VERTEX
  8
0
  5
C6A1
 10
38.4250
 20
108.085
 30
0.000000
  70
    32
  0
VERTEX
  8
0
  5
C6A2
 10
38.4257
 20
108.088
 30
0.000000
  70
    32
  0
VERTEX
  8
0
  5
C6A3
 10
38.4263
 20
108.091
 30
0.000000
  70
    32
  0
VERTEX
  8
0
  5
C6A4
 10
38.4270
 20
108.093
 30
0.000000
  70
    32
  0
VERTEX
  8
0
  5
C6A5
 10
38.4276
 20
108.096
 30
0.000000
  70
    32
  0
VERTEX
  8
0
  5
C6A6
 10
38.4282
 20
108.099
 30
0.000000
  70
    32
  0
VERTEX
  8
0
  5
C6A7
 10
38.4287
 20
108.102
 30
0.000000
  70
    32
  0
VERTEX
  8
0
  5
C6A8
 10
38.4293
 20
108.104
 30
0.000000
  70
    32
  0
VERTEX
  8
0
  5
C6A9
 10
38.4298
 20
108.107
 30
0.000000
  70
    32
  0
VERTEX
  8
0
  5
C6AA
 10
38.4303
 20
108.110
 30
0.000000
  70
    32
  0
VERTEX
  8
0
  5
C6AB
 10
38.4307
 20
108.112
 30
0.000000
  70
    32
  0
VERTEX
  8
0
  5
C6AC
 10
38.4312
 20
108.115
 30
0.000000
  70
    32
  0
VERTEX
  8
0
  5
C6AD
 10
38.4316
 20
108.118
 30
0.000000
  70
    32
  0
VERTEX
  8
0
  5
C6AE
 10
38.4320
 20
108.120
 30
0.000000
  70
    32
  0
VERTEX
  8
0
  5
C6AF
 10
38.4323
 20
108.123
 30
0.000000
  70
    32
  0
VERTEX
  8
0
  5
C6B0
 10
38.4327
 20
108.126
 30
0.000000
  70
    32
  0
VERTEX
  8
0
  5
C6B1
 10
38.4330
 20
108.129
 30
0.000000
  70
    32
  0
VERTEX
  8
0
  5
C6B2
 10
38.4333
 20
108.131
 30
0.000000
  70
    32
  0
VERTEX
  8
0
  5
C6B3
 10
38.4336
 20
108.134
 30
0.000000
  70
    32
  0
VERTEX
  8
0
  5
C6B4
 10
38.4338
 20
108.137
 30
0.000000
  70
    32
  0
VERTEX
  8
0
  5
C6B5
 10
38.4341
 20
108.139
 30
0.000000
  70
    32
  0
VERTEX
  8
0
  5
C6B6
 10
38.4343
 20
108.142
 30
0.000000
  70
    32
  0
VERTEX
  8
0
  5
C6B7
 10
38.4345
 20
108.145
 30
0.000000
  70
    32
  0
VERTEX
  8
0
  5
C6B8
 10
38.4346
 20
108.148
 30
0.000000
  70
    32
  0
VERTEX
  8
0
  5
C6B9
 10
38.4347
 20
108.150
 30
0.000000
  70
    32
  0
VERTEX
  8
0
  5
C6BA
 10
38.4348
 20
108.153
 30
0.000000
  70
    32
  0
VERTEX
  8
0
  5
C6BB
 10
38.4349
 20
108.156
 30
0.000000
  70
    32
  0
VERTEX
  8
0
  5
C6BC
 10
38.4350
 20
108.158
 30
0.000000
  70
    32
  0
VERTEX
  8
0
  5
C6BD
 10
38.4350
 20
108.161
 30
0.000000
  70
    32
  0
VERTEX
  8
0
  5
C6BE
 10
38.4350
 20
108.164
 30
0.000000
  70
    32
  0
SEQEND
  8
0
  5
C6BF
  0
LINE
  5
BE3C
  8
0
 10
38.435040014350392
 20
109.97964746817981
 30
0.0
 11
38.435040014350392
 21
108.16380265241381
 31
0.0
  0
LINE
  5
BE3E
  8
0
 10
41.535040014350521
 20
108.16380265241381
 30
0.0
 11
41.535040014350521
 21
109.97964746817981
 31
0.0
  0
POLYLINE
  5
BE3F
  8
0
 10
41.535040014350571
 20
108.16380265241379
 30
0.0
 66
     1
 70
     8
  0
VERTEX
  8
0
  5
C6C0
 10
41.5350
 20
108.164
 30
0.000000
  70
    32
  0
VERTEX
  8
0
  5
C6C1
 10
41.5351
 20
108.161
 30
0.000000
  70
    32
  0
VERTEX
  8
0
  5
C6C2
 10
41.5351
 20
108.158
 30
0.000000
  70
    32
  0
VERTEX
  8
0
  5
C6C3
 10
41.5351
 20
108.156
 30
0.000000
  70
    32
  0
VERTEX
  8
0
  5
C6C4
 10
41.5352
 20
108.153
 30
0.000000
  70
    32
  0
VERTEX
  8
0
  5
C6C5
 10
41.5353
 20
108.150
 30
0.000000
  70
    32
  0
VERTEX
  8
0
  5
C6C6
 10
41.5355
 20
108.148
 30
0.000000
  70
    32
  0
VERTEX
  8
0
  5
C6C7
 10
41.5356
 20
108.145
 30
0.000000
  70
    32
  0
VERTEX
  8
0
  5
C6C8
 10
41.5358
 20
108.142
 30
0.000000
  70
    32
  0
VERTEX
  8
0
  5
C6C9
 10
41.5360
 20
108.139
 30
0.000000
  70
    32
  0
VERTEX
  8
0
  5
C6CA
 10
41.5362
 20
108.137
 30
0.000000
  70
    32
  0
VERTEX
  8
0
  5
C6CB
 10
41.5365
 20
108.134
 30
0.000000
  70
    32
  0
VERTEX
  8
0
  5
C6CC
 10
41.5368
 20
108.131
 30
0.000000
  70
    32
  0
VERTEX
  8
0
  5
C6CD
 10
41.5371
 20
108.129
 30
0.000000
  70
    32
  0
VERTEX
  8
0
  5
C6CE
 10
41.5374
 20
108.126
 30
0.000000
  70
    32
  0
VERTEX
  8
0
  5
C6CF
 10
41.5377
 20
108.123
 30
0.000000
  70
    32
  0
VERTEX
  8
0
  5
C6D0
 10
41.5381
 20
108.120
 30
0.000000
  70
    32
  0
VERTEX
  8
0
  5
C6D1
 10
41.5385
 20
108.118
 30
0.000000
  70
    32
  0
VERTEX
  8
0
  5
C6D2
 10
41.5389
 20
108.115
 30
0.000000
  70
    32
  0
VERTEX
  8
0
  5
C6D3
 10
41.5394
 20
108.112
 30
0.000000
  70
    32
  0
VERTEX
  8
0
  5
C6D4
 10
41.5398
 20
108.110
 30
0.000000
  70
    32
  0
VERTEX
  8
0
  5
C6D5
 10
41.5403
 20
108.107
 30
0.000000
  70
    32
  0
VERTEX
  8
0
  5
C6D6
 10
41.5408
 20
108.104
 30
0.000000
  70
    32
  0
VERTEX
  8
0
  5
C6D7
 10
41.5414
 20
108.102
 30
0.000000
  70
    32
  0
VERTEX
  8
0
  5
C6D8
 10
41.5419
 20
108.099
 30
0.000000
  70
    32
  0
VERTEX
  8
0
  5
C6D9
 10
41.5425
 20
108.096
 30
0.000000
  70
    32
  0
VERTEX
  8
0
  5
C6DA
 10
41.5431
 20
108.093
 30
0.000000
  70
    32
  0
VERTEX
  8
0
  5
C6DB
 10
41.5438
 20
108.091
 30
0.000000
  70
    32
  0
VERTEX
  8
0
  5
C6DC
 10
41.5444
 20
108.088
 30
0.000000
  70
    32
  0
VERTEX
  8
0
  5
C6DD
 10
41.5451
 20
108.085
 30
0.000000
  70
    32
  0
VERTEX
  8
0
  5
C6DE
 10
41.5458
 20
108.083
 30
0.000000
  70
    32
  0
VERTEX
  8
0
  5
C6DF
 10
41.5465
 20
108.080
 30
0.000000
  70
    32
  0
VERTEX
  8
0
  5
C6E0
 10
41.5473
 20
108.077
 30
0.000000
  70
    32
  0
VERTEX
  8
0
  5
C6E1
 10
41.5480
 20
108.075
 30
0.000000
  70
    32
  0
VERTEX
  8
0
  5
C6E2
 10
41.5488
 20
108.072
 30
0.000000
  70
    32
  0
VERTEX
  8
0
  5
C6E3
 10
41.5497
 20
108.069
 30
0.000000
  70
    32
  0
VERTEX
  8
0
  5
C6E4
 10
41.5505
 20
108.067
 30
0.000000
  70
    32
  0
VERTEX
  8
0
  5
C6E5
 10
41.5514
 20
108.064
 30
0.000000
  70
    32
  0
VERTEX
  8
0
  5
C6E6
 10
41.5523
 20
108.061
 30
0.000000
  70
    32
  0
VERTEX
  8
0
  5
C6E7
 10
41.5532
 20
108.059
 30
0.000000
  70
    32
  0
VERTEX
  8
0
  5
C6E8
 10
41.5541
 20
108.056
 30
0.000000
  70
    32
  0
VERTEX
  8
0
  5
C6E9
 10
41.5551
 20
108.053
 30
0.000000
  70
    32
  0
VERTEX
  8
0
  5
C6EA
 10
41.5561
 20
108.051
 30
0.000000
  70
    32
  0
VERTEX
  8
0
  5
C6EB
 10
41.5571
 20
108.048
 30
0.000000
  70
    32
  0
VERTEX
  8
0
  5
C6EC
 10
41.5581
 20
108.045
 30
0.000000
  70
    32
  0
VERTEX
  8
0
  5
C6ED
 10
41.5592
 20
108.043
 30
0.000000
  70
    32
  0
VERTEX
  8
0
  5
C6EE
 10
41.5603
 20
108.040
 30
0.000000
  70
    32
  0
VERTEX
  8
0
  5
C6EF
 10
41.5614
 20
108.037
 30
0.000000
  70
    32
  0
VERTEX
  8
0
  5
C6F0
 10
41.5625
 20
108.035
 30
0.000000
  70
    32
  0
VERTEX
  8
0
  5
C6F1
 10
41.5636
 20
108.032
 30
0.000000
  70
    32
  0
VERTEX
  8
0
  5
C6F2
 10
41.5648
 20
108.030
 30
0.000000
  70
    32
  0
VERTEX
  8
0
  5
C6F3
 10
41.5660
 20
108.027
 30
0.000000
  70
    32
  0
VERTEX
  8
0
  5
C6F4
 10
41.5672
 20
108.024
 30
0.000000
  70
    32
  0
VERTEX
  8
0
  5
C6F5
 10
41.5685
 20
108.022
 30
0.000000
  70
    32
  0
VERTEX
  8
0
  5
C6F6
 10
41.5697
 20
108.019
 30
0.000000
  70
    32
  0
VERTEX
  8
0
  5
C6F7
 10
41.5710
 20
108.016
 30
0.000000
  70
    32
  0
VERTEX
  8
0
  5
C6F8
 10
41.5723
 20
108.014
 30
0.000000
  70
    32
  0
VERTEX
  8
0
  5
C6F9
 10
41.5737
 20
108.011
 30
0.000000
  70
    32
  0
VERTEX
  8
0
  5
C6FA
 10
41.5750
 20
108.009
 30
0.000000
  70
    32
  0
VERTEX
  8
0
  5
C6FB
 10
41.5764
 20
108.006
 30
0.000000
  70
    32
  0
VERTEX
  8
0
  5
C6FC
 10
41.5778
 20
108.003
 30
0.000000
  70
    32
  0
VERTEX
  8
0
  5
C6FD
 10
41.5793
 20
108.001
 30
0.000000
  70
    32
  0
VERTEX
  8
0
  5
C6FE
 10
41.5807
 20
107.998
 30
0.000000
  70
    32
  0
VERTEX
  8
0
  5
C6FF
 10
41.5822
 20
107.996
 30
0.000000
  70
    32
  0
VERTEX
  8
0
  5
C700
 10
41.5837
 20
107.993
 30
0.000000
  70
    32
  0
VERTEX
  8
0
  5
C701
 10
41.5852
 20
107.990
 30
0.000000
  70
    32
  0
VERTEX
  8
0
  5
C702
 10
41.5867
 20
107.988
 30
0.000000
  70
    32
  0
VERTEX
  8
0
  5
C703
 10
41.5883
 20
107.985
 30
0.000000
  70
    32
  0
VERTEX
  8
0
  5
C704
 10
41.5899
 20
107.983
 30
0.000000
  70
    32
  0
VERTEX
  8
0
  5
C705
 10
41.5915
 20
107.980
 30
0.000000
  70
    32
  0
VERTEX
  8
0
  5
C706
 10
41.5931
 20
107.978
 30
0.000000
  70
    32
  0
VERTEX
  8
0
  5
C707
 10
41.5948
 20
107.975
 30
0.000000
  70
    32
  0
VERTEX
  8
0
  5
C708
 10
41.5965
 20
107.973
 30
0.000000
  70
    32
  0
VERTEX
  8
0
  5
C709
 10
41.5982
 20
107.970
 30
0.000000
  70
    32
  0
VERTEX
  8
0
  5
C70A
 10
41.5999
 20
107.967
 30
0.000000
  70
    32
  0
VERTEX
  8
0
  5
C70B
 10
41.6016
 20
107.965
 30
0.000000
  70
    32
  0
VERTEX
  8
0
  5
C70C
 10
41.6034
 20
107.962
 30
0.000000
  70
    32
  0
VERTEX
  8
0
  5
C70D
 10
41.6052
 20
107.960
 30
0.000000
  70
    32
  0
VERTEX
  8
0
  5
C70E
 10
41.6070
 20
107.957
 30
0.000000
  70
    32
  0
VERTEX
  8
0
  5
C70F
 10
41.6088
 20
107.955
 30
0.000000
  70
    32
  0
VERTEX
  8
0
  5
C710
 10
41.6107
 20
107.952
 30
0.000000
  70
    32
  0
VERTEX
  8
0
  5
C711
 10
41.6126
 20
107.950
 30
0.000000
  70
    32
  0
VERTEX
  8
0
  5
C712
 10
41.6145
 20
107.947
 30
0.000000
  70
    32
  0
VERTEX
  8
0
  5
C713
 10
41.6164
 20
107.945
 30
0.000000
  70
    32
  0
VERTEX
  8
0
  5
C714
 10
41.6183
 20
107.942
 30
0.000000
  70
    32
  0
VERTEX
  8
0
  5
C715
 10
41.6203
 20
107.940
 30
0.000000
  70
    32
  0
VERTEX
  8
0
  5
C716
 10
41.6223
 20
107.937
 30
0.000000
  70
    32
  0
VERTEX
  8
0
  5
C717
 10
41.6243
 20
107.935
 30
0.000000
  70
    32
  0
VERTEX
  8
0
  5
C718
 10
41.6263
 20
107.932
 30
0.000000
  70
    32
  0
VERTEX
  8
0
  5
C719
 10
41.6284
 20
107.930
 30
0.000000
  70
    32
  0
VERTEX
  8
0
  5
C71A
 10
41.6305
 20
107.928
 30
0.000000
  70
    32
  0
VERTEX
  8
0
  5
C71B
 10
41.6326
 20
107.925
 30
0.000000
  70
    32
  0
VERTEX
  8
0
  5
C71C
 10
41.6347
 20
107.923
 30
0.000000
  70
    32
  0
VERTEX
  8
0
  5
C71D
 10
41.6368
 20
107.920
 30
0.000000
  70
    32
  0
VERTEX
  8
0
  5
C71E
 10
41.6390
 20
107.918
 30
0.000000
  70
    32
  0
VERTEX
  8
0
  5
C71F
 10
41.6412
 20
107.915
 30
0.000000
  70
    32
  0
VERTEX
  8
0
  5
C720
 10
41.6434
 20
107.913
 30
0.000000
  70
    32
  0
VERTEX
  8
0
  5
C721
 10
41.6456
 20
107.910
 30
0.000000
  70
    32
  0
VERTEX
  8
0
  5
C722
 10
41.6478
 20
107.908
 30
0.000000
  70
    32
  0
VERTEX
  8
0
  5
C723
 10
41.6501
 20
107.906
 30
0.000000
  70
    32
  0
VERTEX
  8
0
  5
C724
 10
41.6524
 20
107.903
 30
0.000000
  70
    32
  0
VERTEX
  8
0
  5
C725
 10
41.6547
 20
107.901
 30
0.000000
  70
    32
  0
VERTEX
  8
0
  5
C726
 10
41.6570
 20
107.898
 30
0.000000
  70
    32
  0
VERTEX
  8
0
  5
C727
 10
41.6594
 20
107.896
 30
0.000000
  70
    32
  0
VERTEX
  8
0
  5
C728
 10
41.6618
 20
107.894
 30
0.000000
  70
    32
  0
VERTEX
  8
0
  5
C729
 10
41.6642
 20
107.891
 30
0.000000
  70
    32
  0
VERTEX
  8
0
  5
C72A
 10
41.6666
 20
107.889
 30
0.000000
  70
    32
  0
VERTEX
  8
0
  5
C72B
 10
41.6690
 20
107.887
 30
0.000000
  70
    32
  0
VERTEX
  8
0
  5
C72C
 10
41.6715
 20
107.884
 30
0.000000
  70
    32
  0
VERTEX
  8
0
  5
C72D
 10
41.6739
 20
107.882
 30
0.000000
  70
    32
  0
VERTEX
  8
0
  5
C72E
 10
41.6764
 20
107.880
 30
0.000000
  70
    32
  0
VERTEX
  8
0
  5
C72F
 10
41.6790
 20
107.877
 30
0.000000
  70
    32
  0
VERTEX
  8
0
  5
C730
 10
41.6815
 20
107.875
 30
0.000000
  70
    32
  0
VERTEX
  8
0
  5
C731
 10
41.6841
 20
107.873
 30
0.000000
  70
    32
  0
VERTEX
  8
0
  5
C732
 10
41.6866
 20
107.870
 30
0.000000
  70
    32
  0
VERTEX
  8
0
  5
C733
 10
41.6892
 20
107.868
 30
0.000000
  70
    32
  0
VERTEX
  8
0
  5
C734
 10
41.6919
 20
107.866
 30
0.000000
  70
    32
  0
VERTEX
  8
0
  5
C735
 10
41.6945
 20
107.864
 30
0.000000
  70
    32
  0
VERTEX
  8
0
  5
C736
 10
41.6972
 20
107.861
 30
0.000000
  70
    32
  0
VERTEX
  8
0
  5
C737
 10
41.6998
 20
107.859
 30
0.000000
  70
    32
  0
VERTEX
  8
0
  5
C738
 10
41.7025
 20
107.857
 30
0.000000
  70
    32
  0
VERTEX
  8
0
  5
C739
 10
41.7053
 20
107.854
 30
0.000000
  70
    32
  0
VERTEX
  8
0
  5
C73A
 10
41.7080
 20
107.852
 30
0.000000
  70
    32
  0
VERTEX
  8
0
  5
C73B
 10
41.7108
 20
107.850
 30
0.000000
  70
    32
  0
VERTEX
  8
0
  5
C73C
 10
41.7135
 20
107.848
 30
0.000000
  70
    32
  0
VERTEX
  8
0
  5
C73D
 10
41.7163
 20
107.846
 30
0.000000
  70
    32
  0
VERTEX
  8
0
  5
C73E
 10
41.7192
 20
107.843
 30
0.000000
  70
    32
  0
VERTEX
  8
0
  5
C73F
 10
41.7220
 20
107.841
 30
0.000000
  70
    32
  0
VERTEX
  8
0
  5
C740
 10
41.7249
 20
107.839
 30
0.000000
  70
    32
  0
SEQEND
  8
0
  5
C741
  0
POLYLINE
  5
BE40
  8
0
 10
40.045040014350462
 20
108.28762591506539
 30
0.0
 66
     1
 70
     8
  0
VERTEX
  8
0
  5
C742
 10
40.0450
 20
108.288
 30
0.000000
  70
    32
  0
VERTEX
  8
0
  5
C743
 10
40.0438
 20
108.280
 30
0.000000
  70
    32
  0
VERTEX
  8
0
  5
C744
 10
40.0427
 20
108.272
 30
0.000000
  70
    32
  0
VERTEX
  8
0
  5
C745
 10
40.0416
 20
108.264
 30
0.000000
  70
    32
  0
VERTEX
  8
0
  5
C746
 10
40.0407
 20
108.257
 30
0.000000
  70
    32
  0
VERTEX
  8
0
  5
C747
 10
40.0398
 20
108.249
 30
0.000000
  70
    32
  0
VERTEX
  8
0
  5
C748
 10
40.0389
 20
108.241
 30
0.000000
  70
    32
  0
VERTEX
  8
0
  5
C749
 10
40.0382
 20
108.234
 30
0.000000
  70
    32
  0
VERTEX
  8
0
  5
C74A
 10
40.0375
 20
108.226
 30
0.000000
  70
    32
  0
VERTEX
  8
0
  5
C74B
 10
40.0370
 20
108.218
 30
0.000000
  70
    32
  0
VERTEX
  8
0
  5
C74C
 10
40.0364
 20
108.210
 30
0.000000
  70
    32
  0
VERTEX
  8
0
  5
C74D
 10
40.0360
 20
108.203
 30
0.000000
  70
    32
  0
VERTEX
  8
0
  5
C74E
 10
40.0357
 20
108.195
 30
0.000000
  70
    32
  0
VERTEX
  8
0
  5
C74F
 10
40.0354
 20
108.187
 30
0.000000
  70
    32
  0
VERTEX
  8
0
  5
C750
 10
40.0352
 20
108.179
 30
0.000000
  70
    32
  0
VERTEX
  8
0
  5
C751
 10
40.0351
 20
108.172
 30
0.000000
  70
    32
  0
VERTEX
  8
0
  5
C752
 10
40.0350
 20
108.164
 30
0.000000
  70
    32
  0
VERTEX
  8
0
  5
C753
 10
40.0351
 20
108.156
 30
0.000000
  70
    32
  0
VERTEX
  8
0
  5
C754
 10
40.0352
 20
108.148
 30
0.000000
  70
    32
  0
VERTEX
  8
0
  5
C755
 10
40.0354
 20
108.141
 30
0.000000
  70
    32
  0
VERTEX
  8
0
  5
C756
 10
40.0357
 20
108.133
 30
0.000000
  70
    32
  0
VERTEX
  8
0
  5
C757
 10
40.0360
 20
108.125
 30
0.000000
  70
    32
  0
VERTEX
  8
0
  5
C758
 10
40.0364
 20
108.117
 30
0.000000
  70
    32
  0
VERTEX
  8
0
  5
C759
 10
40.0370
 20
108.110
 30
0.000000
  70
    32
  0
VERTEX
  8
0
  5
C75A
 10
40.0375
 20
108.102
 30
0.000000
  70
    32
  0
VERTEX
  8
0
  5
C75B
 10
40.0382
 20
108.094
 30
0.000000
  70
    32
  0
VERTEX
  8
0
  5
C75C
 10
40.0389
 20
108.086
 30
0.000000
  70
    32
  0
VERTEX
  8
0
  5
C75D
 10
40.0398
 20
108.079
 30
0.000000
  70
    32
  0
VERTEX
  8
0
  5
C75E
 10
40.0407
 20
108.071
 30
0.000000
  70
    32
  0
VERTEX
  8
0
  5
C75F
 10
40.0416
 20
108.063
 30
0.000000
  70
    32
  0
VERTEX
  8
0
  5
C760
 10
40.0427
 20
108.055
 30
0.000000
  70
    32
  0
VERTEX
  8
0
  5
C761
 10
40.0438
 20
108.048
 30
0.000000
  70
    32
  0
VERTEX
  8
0
  5
C762
 10
40.0450
 20
108.040
 30
0.000000
  70
    32
  0
VERTEX
  8
0
  5
C763
 10
40.0463
 20
108.032
 30
0.000000
  70
    32
  0
VERTEX
  8
0
  5
C764
 10
40.0477
 20
108.025
 30
0.000000
  70
    32
  0
VERTEX
  8
0
  5
C765
 10
40.0491
 20
108.017
 30
0.000000
  70
    32
  0
VERTEX
  8
0
  5
C766
 10
40.0507
 20
108.009
 30
0.000000
  70
    32
  0
VERTEX
  8
0
  5
C767
 10
40.0523
 20
108.001
 30
0.000000
  70
    32
  0
VERTEX
  8
0
  5
C768
 10
40.0539
 20
107.994
 30
0.000000
  70
    32
  0
VERTEX
  8
0
  5
C769
 10
40.0557
 20
107.986
 30
0.000000
  70
    32
  0
VERTEX
  8
0
  5
C76A
 10
40.0575
 20
107.978
 30
0.000000
  70
    32
  0
VERTEX
  8
0
  5
C76B
 10
40.0594
 20
107.971
 30
0.000000
  70
    32
  0
VERTEX
  8
0
  5
C76C
 10
40.0614
 20
107.963
 30
0.000000
  70
    32
  0
VERTEX
  8
0
  5
C76D
 10
40.0635
 20
107.955
 30
0.000000
  70
    32
  0
VERTEX
  8
0
  5
C76E
 10
40.0656
 20
107.948
 30
0.000000
  70
    32
  0
VERTEX
  8
0
  5
C76F
 10
40.0678
 20
107.940
 30
0.000000
  70
    32
  0
VERTEX
  8
0
  5
C770
 10
40.0701
 20
107.932
 30
0.000000
  70
    32
  0
VERTEX
  8
0
  5
C771
 10
40.0725
 20
107.925
 30
0.000000
  70
    32
  0
VERTEX
  8
0
  5
C772
 10
40.0750
 20
107.917
 30
0.000000
  70
    32
  0
VERTEX
  8
0
  5
C773
 10
40.0775
 20
107.910
 30
0.000000
  70
    32
  0
VERTEX
  8
0
  5
C774
 10
40.0801
 20
107.902
 30
0.000000
  70
    32
  0
VERTEX
  8
0
  5
C775
 10
40.0828
 20
107.894
 30
0.000000
  70
    32
  0
VERTEX
  8
0
  5
C776
 10
40.0855
 20
107.887
 30
0.000000
  70
    32
  0
VERTEX
  8
0
  5
C777
 10
40.0884
 20
107.879
 30
0.000000
  70
    32
  0
VERTEX
  8
0
  5
C778
 10
40.0913
 20
107.872
 30
0.000000
  70
    32
  0
VERTEX
  8
0
  5
C779
 10
40.0943
 20
107.864
 30
0.000000
  70
    32
  0
VERTEX
  8
0
  5
C77A
 10
40.0973
 20
107.856
 30
0.000000
  70
    32
  0
VERTEX
  8
0
  5
C77B
 10
40.1005
 20
107.849
 30
0.000000
  70
    32
  0
VERTEX
  8
0
  5
C77C
 10
40.1037
 20
107.841
 30
0.000000
  70
    32
  0
VERTEX
  8
0
  5
C77D
 10
40.1070
 20
107.834
 30
0.000000
  70
    32
  0
VERTEX
  8
0
  5
C77E
 10
40.1103
 20
107.826
 30
0.000000
  70
    32
  0
VERTEX
  8
0
  5
C77F
 10
40.1138
 20
107.819
 30
0.000000
  70
    32
  0
VERTEX
  8
0
  5
C780
 10
40.1173
 20
107.811
 30
0.000000
  70
    32
  0
VERTEX
  8
0
  5
C781
 10
40.1209
 20
107.804
 30
0.000000
  70
    32
  0
VERTEX
  8
0
  5
C782
 10
40.1246
 20
107.796
 30
0.000000
  70
    32
  0
VERTEX
  8
0
  5
C783
 10
40.1283
 20
107.789
 30
0.000000
  70
    32
  0
VERTEX
  8
0
  5
C784
 10
40.1321
 20
107.781
 30
0.000000
  70
    32
  0
VERTEX
  8
0
  5
C785
 10
40.1360
 20
107.774
 30
0.000000
  70
    32
  0
VERTEX
  8
0
  5
C786
 10
40.1400
 20
107.766
 30
0.000000
  70
    32
  0
VERTEX
  8
0
  5
C787
 10
40.1440
 20
107.759
 30
0.000000
  70
    32
  0
VERTEX
  8
0
  5
C788
 10
40.1482
 20
107.752
 30
0.000000
  70
    32
  0
VERTEX
  8
0
  5
C789
 10
40.1524
 20
107.744
 30
0.000000
  70
    32
  0
VERTEX
  8
0
  5
C78A
 10
40.1566
 20
107.737
 30
0.000000
  70
    32
  0
VERTEX
  8
0
  5
C78B
 10
40.1610
 20
107.730
 30
0.000000
  70
    32
  0
VERTEX
  8
0
  5
C78C
 10
40.1654
 20
107.722
 30
0.000000
  70
    32
  0
VERTEX
  8
0
  5
C78D
 10
40.1699
 20
107.715
 30
0.000000
  70
    32
  0
VERTEX
  8
0
  5
C78E
 10
40.1745
 20
107.708
 30
0.000000
  70
    32
  0
VERTEX
  8
0
  5
C78F
 10
40.1791
 20
107.700
 30
0.000000
  70
    32
  0
VERTEX
  8
0
  5
C790
 10
40.1838
 20
107.693
 30
0.000000
  70
    32
  0
VERTEX
  8
0
  5
C791
 10
40.1886
 20
107.686
 30
0.000000
  70
    32
  0
VERTEX
  8
0
  5
C792
 10
40.1935
 20
107.678
 30
0.000000
  70
    32
  0
VERTEX
  8
0
  5
C793
 10
40.1984
 20
107.671
 30
0.000000
  70
    32
  0
VERTEX
  8
0
  5
C794
 10
40.2034
 20
107.664
 30
0.000000
  70
    32
  0
VERTEX
  8
0
  5
C795
 10
40.2085
 20
107.657
 30
0.000000
  70
    32
  0
VERTEX
  8
0
  5
C796
 10
40.2136
 20
107.649
 30
0.000000
  70
    32
  0
VERTEX
  8
0
  5
C797
 10
40.2189
 20
107.642
 30
0.000000
  70
    32
  0
VERTEX
  8
0
  5
C798
 10
40.2242
 20
107.635
 30
0.000000
  70
    32
  0
VERTEX
  8
0
  5
C799
 10
40.2295
 20
107.628
 30
0.000000
  70
    32
  0
VERTEX
  8
0
  5
C79A
 10
40.2350
 20
107.621
 30
0.000000
  70
    32
  0
VERTEX
  8
0
  5
C79B
 10
40.2405
 20
107.614
 30
0.000000
  70
    32
  0
VERTEX
  8
0
  5
C79C
 10
40.2461
 20
107.607
 30
0.000000
  70
    32
  0
VERTEX
  8
0
  5
C79D
 10
40.2517
 20
107.599
 30
0.000000
  70
    32
  0
VERTEX
  8
0
  5
C79E
 10
40.2575
 20
107.592
 30
0.000000
  70
    32
  0
VERTEX
  8
0
  5
C79F
 10
40.2633
 20
107.585
 30
0.000000
  70
    32
  0
VERTEX
  8
0
  5
C7A0
 10
40.2691
 20
107.578
 30
0.000000
  70
    32
  0
VERTEX
  8
0
  5
C7A1
 10
40.2751
 20
107.571
 30
0.000000
  70
    32
  0
VERTEX
  8
0
  5
C7A2
 10
40.2811
 20
107.564
 30
0.000000
  70
    32
  0
VERTEX
  8
0
  5
C7A3
 10
40.2872
 20
107.557
 30
0.000000
  70
    32
  0
VERTEX
  8
0
  5
C7A4
 10
40.2933
 20
107.550
 30
0.000000
  70
    32
  0
VERTEX
  8
0
  5
C7A5
 10
40.2995
 20
107.543
 30
0.000000
  70
    32
  0
VERTEX
  8
0
  5
C7A6
 10
40.3058
 20
107.537
 30
0.000000
  70
    32
  0
VERTEX
  8
0
  5
C7A7
 10
40.3122
 20
107.530
 30
0.000000
  70
    32
  0
VERTEX
  8
0
  5
C7A8
 10
40.3186
 20
107.523
 30
0.000000
  70
    32
  0
VERTEX
  8
0
  5
C7A9
 10
40.3251
 20
107.516
 30
0.000000
  70
    32
  0
VERTEX
  8
0
  5
C7AA
 10
40.3317
 20
107.509
 30
0.000000
  70
    32
  0
VERTEX
  8
0
  5
C7AB
 10
40.3383
 20
107.502
 30
0.000000
  70
    32
  0
VERTEX
  8
0
  5
C7AC
 10
40.3451
 20
107.495
 30
0.000000
  70
    32
  0
VERTEX
  8
0
  5
C7AD
 10
40.3518
 20
107.489
 30
0.000000
  70
    32
  0
VERTEX
  8
0
  5
C7AE
 10
40.3587
 20
107.482
 30
0.000000
  70
    32
  0
VERTEX
  8
0
  5
C7AF
 10
40.3656
 20
107.475
 30
0.000000
  70
    32
  0
VERTEX
  8
0
  5
C7B0
 10
40.3726
 20
107.468
 30
0.000000
  70
    32
  0
VERTEX
  8
0
  5
C7B1
 10
40.3796
 20
107.462
 30
0.000000
  70
    32
  0
VERTEX
  8
0
  5
C7B2
 10
40.3867
 20
107.455
 30
0.000000
  70
    32
  0
VERTEX
  8
0
  5
C7B3
 10
40.3939
 20
107.448
 30
0.000000
  70
    32
  0
VERTEX
  8
0
  5
C7B4
 10
40.4012
 20
107.442
 30
0.000000
  70
    32
  0
VERTEX
  8
0
  5
C7B5
 10
40.4085
 20
107.435
 30
0.000000
  70
    32
  0
VERTEX
  8
0
  5
C7B6
 10
40.4159
 20
107.429
 30
0.000000
  70
    32
  0
VERTEX
  8
0
  5
C7B7
 10
40.4233
 20
107.422
 30
0.000000
  70
    32
  0
VERTEX
  8
0
  5
C7B8
 10
40.4308
 20
107.416
 30
0.000000
  70
    32
  0
VERTEX
  8
0
  5
C7B9
 10
40.4384
 20
107.409
 30
0.000000
  70
    32
  0
VERTEX
  8
0
  5
C7BA
 10
40.4461
 20
107.403
 30
0.000000
  70
    32
  0
VERTEX
  8
0
  5
C7BB
 10
40.4538
 20
107.396
 30
0.000000
  70
    32
  0
VERTEX
  8
0
  5
C7BC
 10
40.4616
 20
107.390
 30
0.000000
  70
    32
  0
VERTEX
  8
0
  5
C7BD
 10
40.4694
 20
107.383
 30
0.000000
  70
    32
  0
VERTEX
  8
0
  5
C7BE
 10
40.4773
 20
107.377
 30
0.000000
  70
    32
  0
VERTEX
  8
0
  5
C7BF
 10
40.4853
 20
107.370
 30
0.000000
  70
    32
  0
VERTEX
  8
0
  5
C7C0
 10
40.4933
 20
107.364
 30
0.000000
  70
    32
  0
VERTEX
  8
0
  5
C7C1
 10
40.5014
 20
107.358
 30
0.000000
  70
    32
  0
VERTEX
  8
0
  5
C7C2
 10
40.5096
 20
107.351
 30
0.000000
  70
    32
  0
SEQEND
  8
0
  5
C7C3
  0
LINE
  5
BE41
  8
0
 10
39.925040014350628
 20
108.28762591506531
 30
0.0
 11
40.045040014350512
 21
108.28762591506531
 31
0.0
  0
POLYLINE
  5
BE42
  8
0
 10
39.460497541335606
 20
107.35149459409614
 30
0.0
 66
     1
 70
     8
  0
VERTEX
  8
0
  5
C7C4
 10
39.4605
 20
107.351
 30
0.000000
  70
    32
  0
VERTEX
  8
0
  5
C7C5
 10
39.4687
 20
107.358
 30
0.000000
  70
    32
  0
VERTEX
  8
0
  5
C7C6
 10
39.4768
 20
107.364
 30
0.000000
  70
    32
  0
VERTEX
  8
0
  5
C7C7
 10
39.4848
 20
107.370
 30
0.000000
  70
    32
  0
VERTEX
  8
0
  5
C7C8
 10
39.4928
 20
107.377
 30
0.000000
  70
    32
  0
VERTEX
  8
0
  5
C7C9
 10
39.5007
 20
107.383
 30
0.000000
  70
    32
  0
VERTEX
  8
0
  5
C7CA
 10
39.5085
 20
107.390
 30
0.000000
  70
    32
  0
VERTEX
  8
0
  5
C7CB
 10
39.5163
 20
107.396
 30
0.000000
  70
    32
  0
VERTEX
  8
0
  5
C7CC
 10
39.5240
 20
107.403
 30
0.000000
  70
    32
  0
VERTEX
  8
0
  5
C7CD
 10
39.5317
 20
107.409
 30
0.000000
  70
    32
  0
VERTEX
  8
0
  5
C7CE
 10
39.5392
 20
107.416
 30
0.000000
  70
    32
  0
VERTEX
  8
0
  5
C7CF
 10
39.5468
 20
107.422
 30
0.000000
  70
    32
  0
VERTEX
  8
0
  5
C7D0
 10
39.5542
 20
107.429
 30
0.000000
  70
    32
  0
VERTEX
  8
0
  5
C7D1
 10
39.5616
 20
107.435
 30
0.000000
  70
    32
  0
VERTEX
  8
0
  5
C7D2
 10
39.5689
 20
107.442
 30
0.000000
  70
    32
  0
VERTEX
  8
0
  5
C7D3
 10
39.5762
 20
107.448
 30
0.000000
  70
    32
  0
VERTEX
  8
0
  5
C7D4
 10
39.5833
 20
107.455
 30
0.000000
  70
    32
  0
VERTEX
  8
0
  5
C7D5
 10
39.5905
 20
107.462
 30
0.000000
  70
    32
  0
VERTEX
  8
0
  5
C7D6
 10
39.5975
 20
107.468
 30
0.000000
  70
    32
  0
VERTEX
  8
0
  5
C7D7
 10
39.6045
 20
107.475
 30
0.000000
  70
    32
  0
VERTEX
  8
0
  5
C7D8
 10
39.6114
 20
107.482
 30
0.000000
  70
    32
  0
VERTEX
  8
0
  5
C7D9
 10
39.6182
 20
107.489
 30
0.000000
  70
    32
  0
VERTEX
  8
0
  5
C7DA
 10
39.6250
 20
107.495
 30
0.000000
  70
    32
  0
VERTEX
  8
0
  5
C7DB
 10
39.6317
 20
107.502
 30
0.000000
  70
    32
  0
VERTEX
  8
0
  5
C7DC
 10
39.6384
 20
107.509
 30
0.000000
  70
    32
  0
VERTEX
  8
0
  5
C7DD
 10
39.6449
 20
107.516
 30
0.000000
  70
    32
  0
VERTEX
  8
0
  5
C7DE
 10
39.6514
 20
107.523
 30
0.000000
  70
    32
  0
VERTEX
  8
0
  5
C7DF
 10
39.6579
 20
107.530
 30
0.000000
  70
    32
  0
VERTEX
  8
0
  5
C7E0
 10
39.6642
 20
107.537
 30
0.000000
  70
    32
  0
VERTEX
  8
0
  5
C7E1
 10
39.6705
 20
107.543
 30
0.000000
  70
    32
  0
VERTEX
  8
0
  5
C7E2
 10
39.6768
 20
107.550
 30
0.000000
  70
    32
  0
VERTEX
  8
0
  5
C7E3
 10
39.6829
 20
107.557
 30
0.000000
  70
    32
  0
VERTEX
  8
0
  5
C7E4
 10
39.6890
 20
107.564
 30
0.000000
  70
    32
  0
VERTEX
  8
0
  5
C7E5
 10
39.6950
 20
107.571
 30
0.000000
  70
    32
  0
VERTEX
  8
0
  5
C7E6
 10
39.7010
 20
107.578
 30
0.000000
  70
    32
  0
VERTEX
  8
0
  5
C7E7
 10
39.7068
 20
107.585
 30
0.000000
  70
    32
  0
VERTEX
  8
0
  5
C7E8
 10
39.7126
 20
107.592
 30
0.000000
  70
    32
  0
VERTEX
  8
0
  5
C7E9
 10
39.7184
 20
107.599
 30
0.000000
  70
    32
  0
VERTEX
  8
0
  5
C7EA
 10
39.7240
 20
107.607
 30
0.000000
  70
    32
  0
VERTEX
  8
0
  5
C7EB
 10
39.7296
 20
107.614
 30
0.000000
  70
    32
  0
VERTEX
  8
0
  5
C7EC
 10
39.7351
 20
107.621
 30
0.000000
  70
    32
  0
VERTEX
  8
0
  5
C7ED
 10
39.7406
 20
107.628
 30
0.000000
  70
    32
  0
VERTEX
  8
0
  5
C7EE
 10
39.7459
 20
107.635
 30
0.000000
  70
    32
  0
VERTEX
  8
0
  5
C7EF
 10
39.7512
 20
107.642
 30
0.000000
  70
    32
  0
VERTEX
  8
0
  5
C7F0
 10
39.7564
 20
107.649
 30
0.000000
  70
    32
  0
VERTEX
  8
0
  5
C7F1
 10
39.7616
 20
107.657
 30
0.000000
  70
    32
  0
VERTEX
  8
0
  5
C7F2
 10
39.7667
 20
107.664
 30
0.000000
  70
    32
  0
VERTEX
  8
0
  5
C7F3
 10
39.7717
 20
107.671
 30
0.000000
  70
    32
  0
VERTEX
  8
0
  5
C7F4
 10
39.7766
 20
107.678
 30
0.000000
  70
    32
  0
VERTEX
  8
0
  5
C7F5
 10
39.7815
 20
107.686
 30
0.000000
  70
    32
  0
VERTEX
  8
0
  5
C7F6
 10
39.7863
 20
107.693
 30
0.000000
  70
    32
  0
VERTEX
  8
0
  5
C7F7
 10
39.7910
 20
107.700
 30
0.000000
  70
    32
  0
VERTEX
  8
0
  5
C7F8
 10
39.7956
 20
107.708
 30
0.000000
  70
    32
  0
VERTEX
  8
0
  5
C7F9
 10
39.8002
 20
107.715
 30
0.000000
  70
    32
  0
VERTEX
  8
0
  5
C7FA
 10
39.8047
 20
107.722
 30
0.000000
  70
    32
  0
VERTEX
  8
0
  5
C7FB
 10
39.8091
 20
107.730
 30
0.000000
  70
    32
  0
VERTEX
  8
0
  5
C7FC
 10
39.8134
 20
107.737
 30
0.000000
  70
    32
  0
VERTEX
  8
0
  5
C7FD
 10
39.8177
 20
107.744
 30
0.000000
  70
    32
  0
VERTEX
  8
0
  5
C7FE
 10
39.8219
 20
107.752
 30
0.000000
  70
    32
  0
VERTEX
  8
0
  5
C7FF
 10
39.8260
 20
107.759
 30
0.000000
  70
    32
  0
VERTEX
  8
0
  5
C800
 10
39.8301
 20
107.766
 30
0.000000
  70
    32
  0
VERTEX
  8
0
  5
C801
 10
39.8340
 20
107.774
 30
0.000000
  70
    32
  0
VERTEX
  8
0
  5
C802
 10
39.8379
 20
107.781
 30
0.000000
  70
    32
  0
VERTEX
  8
0
  5
C803
 10
39.8418
 20
107.789
 30
0.000000
  70
    32
  0
VERTEX
  8
0
  5
C804
 10
39.8455
 20
107.796
 30
0.000000
  70
    32
  0
VERTEX
  8
0
  5
C805
 10
39.8492
 20
107.804
 30
0.000000
  70
    32
  0
VERTEX
  8
0
  5
C806
 10
39.8528
 20
107.811
 30
0.000000
  70
    32
  0
VERTEX
  8
0
  5
C807
 10
39.8563
 20
107.819
 30
0.000000
  70
    32
  0
VERTEX
  8
0
  5
C808
 10
39.8597
 20
107.826
 30
0.000000
  70
    32
  0
VERTEX
  8
0
  5
C809
 10
39.8631
 20
107.834
 30
0.000000
  70
    32
  0
VERTEX
  8
0
  5
C80A
 10
39.8664
 20
107.841
 30
0.000000
  70
    32
  0
VERTEX
  8
0
  5
C80B
 10
39.8696
 20
107.849
 30
0.000000
  70
    32
  0
VERTEX
  8
0
  5
C80C
 10
39.8728
 20
107.856
 30
0.000000
  70
    32
  0
VERTEX
  8
0
  5
C80D
 10
39.8758
 20
107.864
 30
0.000000
  70
    32
  0
VERTEX
  8
0
  5
C80E
 10
39.8788
 20
107.872
 30
0.000000
  70
    32
  0
VERTEX
  8
0
  5
C80F
 10
39.8817
 20
107.879
 30
0.000000
  70
    32
  0
VERTEX
  8
0
  5
C810
 10
39.8845
 20
107.887
 30
0.000000
  70
    32
  0
VERTEX
  8
0
  5
C811
 10
39.8873
 20
107.894
 30
0.000000
  70
    32
  0
VERTEX
  8
0
  5
C812
 10
39.8900
 20
107.902
 30
0.000000
  70
    32
  0
VERTEX
  8
0
  5
C813
 10
39.8926
 20
107.910
 30
0.000000
  70
    32
  0
VERTEX
  8
0
  5
C814
 10
39.8951
 20
107.917
 30
0.000000
  70
    32
  0
VERTEX
  8
0
  5
C815
 10
39.8976
 20
107.925
 30
0.000000
  70
    32
  0
VERTEX
  8
0
  5
C816
 10
39.8999
 20
107.932
 30
0.000000
  70
    32
  0
VERTEX
  8
0
  5
C817
 10
39.9022
 20
107.940
 30
0.000000
  70
    32
  0
VERTEX
  8
0
  5
C818
 10
39.9045
 20
107.948
 30
0.000000
  70
    32
  0
VERTEX
  8
0
  5
C819
 10
39.9066
 20
107.955
 30
0.000000
  70
    32
  0
VERTEX
  8
0
  5
C81A
 10
39.9087
 20
107.963
 30
0.000000
  70
    32
  0
VERTEX
  8
0
  5
C81B
 10
39.9106
 20
107.971
 30
0.000000
  70
    32
  0
VERTEX
  8
0
  5
C81C
 10
39.9126
 20
107.978
 30
0.000000
  70
    32
  0
VERTEX
  8
0
  5
C81D
 10
39.9144
 20
107.986
 30
0.000000
  70
    32
  0
VERTEX
  8
0
  5
C81E
 10
39.9161
 20
107.994
 30
0.000000
  70
    32
  0
VERTEX
  8
0
  5
C81F
 10
39.9178
 20
108.001
 30
0.000000
  70
    32
  0
VERTEX
  8
0
  5
C820
 10
39.9194
 20
108.009
 30
0.000000
  70
    32
  0
VERTEX
  8
0
  5
C821
 10
39.9209
 20
108.017
 30
0.000000
  70
    32
  0
VERTEX
  8
0
  5
C822
 10
39.9224
 20
108.025
 30
0.000000
  70
    32
  0
VERTEX
  8
0
  5
C823
 10
39.9238
 20
108.032
 30
0.000000
  70
    32
  0
VERTEX
  8
0
  5
C824
 10
39.9250
 20
108.040
 30
0.000000
  70
    32
  0
VERTEX
  8
0
  5
C825
 10
39.9262
 20
108.048
 30
0.000000
  70
    32
  0
VERTEX
  8
0
  5
C826
 10
39.9274
 20
108.055
 30
0.000000
  70
    32
  0
VERTEX
  8
0
  5
C827
 10
39.9284
 20
108.063
 30
0.000000
  70
    32
  0
VERTEX
  8
0
  5
C828
 10
39.9294
 20
108.071
 30
0.000000
  70
    32
  0
VERTEX
  8
0
  5
C829
 10
39.9303
 20
108.079
 30
0.000000
  70
    32
  0
VERTEX
  8
0
  5
C82A
 10
39.9311
 20
108.086
 30
0.000000
  70
    32
  0
VERTEX
  8
0
  5
C82B
 10
39.9319
 20
108.094
 30
0.000000
  70
    32
  0
VERTEX
  8
0
  5
C82C
 10
39.9325
 20
108.102
 30
0.000000
  70
    32
  0
VERTEX
  8
0
  5
C82D
 10
39.9331
 20
108.110
 30
0.000000
  70
    32
  0
VERTEX
  8
0
  5
C82E
 10
39.9336
 20
108.117
 30
0.000000
  70
    32
  0
VERTEX
  8
0
  5
C82F
 10
39.9341
 20
108.125
 30
0.000000
  70
    32
  0
VERTEX
  8
0
  5
C830
 10
39.9344
 20
108.133
 30
0.000000
  70
    32
  0
VERTEX
  8
0
  5
C831
 10
39.9347
 20
108.141
 30
0.000000
  70
    32
  0
VERTEX
  8
0
  5
C832
 10
39.9349
 20
108.148
 30
0.000000
  70
    32
  0
VERTEX
  8
0
  5
C833
 10
39.9350
 20
108.156
 30
0.000000
  70
    32
  0
VERTEX
  8
0
  5
C834
 10
39.9350
 20
108.164
 30
0.000000
  70
    32
  0
VERTEX
  8
0
  5
C835
 10
39.9350
 20
108.172
 30
0.000000
  70
    32
  0
VERTEX
  8
0
  5
C836
 10
39.9349
 20
108.179
 30
0.000000
  70
    32
  0
VERTEX
  8
0
  5
C837
 10
39.9347
 20
108.187
 30
0.000000
  70
    32
  0
VERTEX
  8
0
  5
C838
 10
39.9344
 20
108.195
 30
0.000000
  70
    32
  0
VERTEX
  8
0
  5
C839
 10
39.9341
 20
108.203
 30
0.000000
  70
    32
  0
VERTEX
  8
0
  5
C83A
 10
39.9336
 20
108.210
 30
0.000000
  70
    32
  0
VERTEX
  8
0
  5
C83B
 10
39.9331
 20
108.218
 30
0.000000
  70
    32
  0
VERTEX
  8
0
  5
C83C
 10
39.9325
 20
108.226
 30
0.000000
  70
    32
  0
VERTEX
  8
0
  5
C83D
 10
39.9319
 20
108.234
 30
0.000000
  70
    32
  0
VERTEX
  8
0
  5
C83E
 10
39.9311
 20
108.241
 30
0.000000
  70
    32
  0
VERTEX
  8
0
  5
C83F
 10
39.9303
 20
108.249
 30
0.000000
  70
    32
  0
VERTEX
  8
0
  5
C840
 10
39.9294
 20
108.257
 30
0.000000
  70
    32
  0
VERTEX
  8
0
  5
C841
 10
39.9284
 20
108.264
 30
0.000000
  70
    32
  0
VERTEX
  8
0
  5
C842
 10
39.9274
 20
108.272
 30
0.000000
  70
    32
  0
VERTEX
  8
0
  5
C843
 10
39.9263
 20
108.280
 30
0.000000
  70
    32
  0
VERTEX
  8
0
  5
C844
 10
39.9250
 20
108.288
 30
0.000000
  70
    32
  0
SEQEND
  8
0
  5
C845
  0
LINE
  5
BE43
  8
0
 10
42.47901573378212
 20
107.2610906776374
 30
0.0
 11
41.724857003556359
 21
107.8388794290868
 31
0.0
  0
LINE
  5
BE44
  8
0
 10
38.245223025144561
 20
107.8388794290868
 30
0.0
 11
37.4910642949188
 21
107.2610906776374
 31
0.0
  0
ARC
  5
BE47
  8
0
 10
38.31370632077423
 20
98.514647836275131
 30
0.0
 40
5.4955634318894662
 50
250.56403082646341
 51
269.17981088850348
  0
ARC
  5
BE49
  8
0
 10
38.315191374812997
 20
89.716333663734304
 30
0.0
 40
5.5038974436817369
 50
90.834408172750159
 51
109.4217498290962
  0
ARC
  5
BE4A
  8
0
 10
38.156373711633108
 20
89.724647130167796
 30
0.0
 40
5.495563401664934
 50
70.564031075538153
 51
89.179810922600126
  0
LINE
  5
BE4B
  8
0
 10
39.985040014350567
 20
94.907040076969665
 30
0.0
 11
39.985040002823638
 21
93.332254855455176
 31
0.0
  0
ARC
  5
BE4C
  8
0
 10
38.154888656970428
 20
98.522961247910644
 30
0.0
 40
5.5038974190208956
 50
270.83440814441218
 51
289.42174963124421
  0
ARC
  5
BE4D
  8
0
 10
41.81370631402055
 20
98.514647781655185
 30
0.0
 40
5.4955633771784731
 50
250.56403127392559
 51
269.17981095067739
  0
ARC
  5
BE4E
  8
0
 10
41.815191374812542
 20
89.716333663734758
 30
0.0
 40
5.5038974436812103
 50
90.834408172750159
 51
109.4217498290962
  0
ARC
  5
BE4F
  8
0
 10
41.656373711633108
 20
89.724647130167341
 30
0.0
 40
5.4955634016651409
 50
70.564031075538153
 51
89.179810922600126
  0
ARC
  5
BE51
  8
0
 10
41.654888663921689
 20
98.522961192385765
 30
0.0
 40
5.503897363400541
 50
270.83440808047919
 51
289.42174918499632
  0
LINE
  5
BE53
  8
0
 10
43.485040014342609
 20
93.019647468108374
 30
0.0
 11
43.485040014398663
 21
95.219647468179573
 31
0.0
  0
LINE
  5
BE55
  8
0
 10
36.48504001435046
 20
95.219647468179119
 30
0.0
 11
36.485040014350567
 21
93.019647468103827
 31
0.0
  0
LINE
  5
BE56
  8
0
 10
43.485040014342729
 20
93.019647468111785
 30
0.0
 11
36.485040014335112
 21
93.01964746811268
 31
0.0
  0
LINE
  5
BE63
  8
0
 10
235.22504001435149
 20
82.364729063305035
 30
0.0
 11
235.22504001435081
 21
83.719647468177087
 31
0.0
  0
POLYLINE
  5
BE64
  8
0
 66
     1
 10
0.0
 20
0.0
 30
0.0
 70
   128
  0
VERTEX
  5
C3B5
  8
0
 10
235.2250400143526
 20
82.364729063305035
 30
0.0
  0
VERTEX
  5
C3B6
  8
0
 10
234.35397424996481
 20
82.258279867355895
 30
0.0
  0
VERTEX
  5
C3B7
  8
0
 10
233.47504001435041
 20
82.219647468162975
 30
0.0
  0
SEQEND
  5
C3B8
  8
0
  0
POLYLINE
  5
BE65
  8
0
 66
     1
 10
0.0
 20
0.0
 30
0.0
 70
   128
  0
VERTEX
  5
C3B9
  8
0
 10
233.47504001435041
 20
82.219647468162975
 30
0.0
  0
VERTEX
  5
C3BA
  8
0
 10
232.60004001435041
 20
82.257941560722429
 30
0.0
  0
VERTEX
  5
C3BB
  8
0
 10
231.7250400143501
 20
82.364729063304807
 30
0.0
  0
SEQEND
  5
C3BC
  8
0
  0
LINE
  5
BE66
  8
0
 10
231.72504001435041
 20
82.364729063294376
 30
0.0
 11
231.72504001435041
 21
84.519647468178846
 31
0.0
  0
LINE
  5
BE67
  8
0
 10
230.1750400143504
 20
84.519647468178846
 30
0.0
 11
233.27504001435031
 21
84.519647468178846
 31
0.0
  0
POLYLINE
  5
BE68
  8
0
 66
     1
 10
0.0
 20
0.0
 30
0.0
 70
   128
  0
VERTEX
  5
C3BD
  8
0
 10
231.72504001435061
 20
82.364729063304807
 30
0.0
  0
VERTEX
  5
C3BE
  8
0
 10
230.8539742499639
 20
82.258279867355654
 30
0.0
  0
VERTEX
  5
C3BF
  8
0
 10
229.97504001435041
 20
82.219647468162975
 30
0.0
  0
SEQEND
  5
C3C0
  8
0
  0
POLYLINE
  5
BE69
  8
0
 66
     1
 10
0.0
 20
0.0
 30
0.0
 70
   128
  0
VERTEX
  5
C3C1
  8
0
 10
229.97504001435041
 20
82.219647468162975
 30
0.0
  0
VERTEX
  5
C3C2
  8
0
 10
229.10004001434919
 20
82.257941560722429
 30
0.0
  0
VERTEX
  5
C3C3
  8
0
 10
228.22504001434811
 20
82.364729063305035
 30
0.0
  0
SEQEND
  5
C3C4
  8
0
  0
LINE
  5
BE6A
  8
0
 10
228.22504001434919
 20
82.364729063305035
 30
0.0
 11
228.2250400143499
 21
83.719647468177087
 31
0.0
  0
LINE
  5
BE6C
  8
0
 10
235.2250400143503
 20
82.219647468162975
 30
0.0
 11
235.2250400143503
 21
82.364729063305035
 31
0.0
  0
LINE
  5
BE6E
  8
0
 10
228.2250400143503
 20
82.364729063305035
 30
0.0
 11
228.2250400143503
 21
82.219647468162975
 31
0.0
  0
LINE
  5
BE6F
  8
0
 10
228.22504001435399
 20
82.219647468161824
 30
0.0
 11
235.2250400143501
 21
82.219647468161597
 31
0.0
  0
LINE
  5
BE70
  8
0
 10
230.1750400143504
 20
85.019647468178846
 30
0.0
 11
233.27504001435031
 21
85.019647468178846
 31
0.0
  0
LINE
  5
BE71
  8
0
 10
228.22504000346601
 20
97.212696258442975
 30
0.0
 11
228.22504000346601
 21
96.719647468165491
 31
0.0
  0
LINE
  5
BE72
  8
0
 10
235.22504000346601
 20
96.719647468166841
 30
0.0
 11
235.22504000346601
 21
97.210122972214094
 31
0.0
  0
LINE
  5
BE84
  8
0
 10
236.35049753045089
 20
97.219647468178664
 30
0.0
 11
235.27478875648319
 21
97.219647468178664
 31
0.0
  0
LINE
  5
BE88
  8
0
 10
228.17529127221781
 20
97.219647468178891
 30
0.0
 11
226.6755502606826
 21
97.219647468178664
 31
0.0
  0
LINE
  5
BE8A
  8
0
 10
236.82504000346589
 20
97.219647468178664
 30
0.0
 11
236.82504000346589
 21
100.0291389557585
 31
0.0
  0
LINE
  5
BE8B
  8
0
 10
236.82321391146371
 20
97.134201383850268
 30
0.0
 11
236.82504000346589
 21
97.219647468178664
 31
0.0
  0
POLYLINE
  5
BE8C
  8
0
 66
     1
 10
0.0
 20
0.0
 30
0.0
 70
   128
  0
VERTEX
  5
C3C5
  8
0
 10
236.7745297462489
 20
97.219647468178664
 30
0.0
  0
VERTEX
  5
C3C6
  8
0
 10
236.8177821046589
 20
97.17050123566743
 30
0.0
  0
VERTEX
  5
C3C7
  8
0
 10
236.82321391146371
 20
97.134201383850268
 30
0.0
  0
SEQEND
  5
C3C8
  8
0
  0
LINE
  5
BE8E
  8
0
 10
236.35049753045089
 20
97.219647468178664
 30
0.0
 11
236.7745297462489
 21
97.219647468178664
 31
0.0
  0
POLYLINE
  5
BE8F
  8
0
 66
     1
 10
0.0
 20
0.0
 30
0.0
 70
   128
  0
VERTEX
  5
C3C9
  8
0
 10
226.62686609546799
 20
97.134201383850268
 30
0.0
  0
VERTEX
  5
C3CA
  8
0
 10
226.65726379908449
 20
97.214645025253958
 30
0.0
  0
VERTEX
  5
C3CB
  8
0
 10
226.6755502606826
 20
97.219647468178664
 30
0.0
  0
SEQEND
  5
C3CC
  8
0
  0
LINE
  5
BE90
  8
0
 10
226.62686609545071
 20
97.134201383849813
 30
0.0
 11
226.6250400034659
 21
97.219647468178664
 31
0.0
  0
LINE
  5
BE91
  8
0
 10
226.6250400034659
 20
97.219647468178664
 30
0.0
 11
226.6250400034659
 21
100.0291389557585
 31
0.0
  0
POLYLINE
  5
BE94
  8
0
 66
     1
 10
0.0
 20
0.0
 30
0.0
 70
   128
  0
VERTEX
  5
C3CD
  8
0
 10
235.19106540725039
 20
97.219647468178664
 30
0.0
  0
VERTEX
  5
C3CE
  8
0
 10
235.2884922441639
 20
97.192334663365955
 30
0.0
  0
VERTEX
  5
C3CF
  8
0
 10
235.32449472063229
 20
97.103914929558186
 30
0.0
  0
VERTEX
  5
C3D0
  8
0
 10
235.32504000346589
 20
97.085672871963197
 30
0.0
  0
SEQEND
  5
C3D1
  8
0
  0
POLYLINE
  5
BE95
  8
0
 66
     1
 10
0.0
 20
0.0
 30
0.0
 70
   128
  0
VERTEX
  5
C3D2
  8
0
 10
228.12504000346581
 20
97.085672871963197
 30
0.0
  0
VERTEX
  5
C3D3
  8
0
 10
228.15235280827849
 20
97.183099708876867
 30
0.0
  0
VERTEX
  5
C3D4
  8
0
 10
228.24077254208629
 20
97.219102185345037
 30
0.0
  0
VERTEX
  5
C3D5
  8
0
 10
228.25901459968151
 20
97.219647468178664
 30
0.0
  0
SEQEND
  5
C3D6
  8
0
  0
ARC
  5
BE96
  8
0
 10
234.82504000346589
 20
97.219647468178664
 30
0.0
 40
1.9999999999999509
 50
329.99999999999989
 51
357.55140472395931
  0
LINE
  5
BE97
  8
0
 10
236.5570908110347
 20
96.219647468178664
 30
0.0
 11
235.32504000346589
 21
96.219647468178664
 31
0.0
  0
LINE
  5
BE98
  8
0
 10
235.32504000346589
 20
97.085672871963197
 30
0.0
 11
235.32504000346589
 21
96.219647468178664
 31
0.0
  0
ARC
  5
BE99
  8
0
 10
228.6250400034661
 20
97.219647468178664
 30
0.0
 40
2.0000000000001319
 50
182.44859527604069
 51
210.0
  0
LINE
  5
BE9A
  8
0
 10
228.12504000346581
 20
96.219647468178664
 30
0.0
 11
228.12504000346581
 21
97.085672871963197
 31
0.0
  0
LINE
  5
BE9B
  8
0
 10
228.12504000346581
 20
96.219647468178664
 30
0.0
 11
226.892989195897
 21
96.219647468178664
 31
0.0
  0
LINE
  5
BE9C
  8
0
 10
228.12504000346581
 20
96.719647468178664
 30
0.0
 11
228.6750400143504
 21
96.719647468178664
 31
0.0
  0
LINE
  5
BE9D
  8
0
 10
234.77504001435051
 20
96.719647468178437
 30
0.0
 11
235.32504000346589
 21
96.719647468178664
 31
0.0
  0
LINE
  5
BE9E
  8
0
 10
228.22504000346601
 20
95.219647468159096
 30
0.0
 11
228.6750400143504
 21
95.219647468159096
 31
0.0
  0
ARC
  5
BE9F
  8
0
 10
234.82504000346589
 20
97.219647468178664
 30
0.0
 40
2.0000000000000071
 50
270.0
 51
329.99999999999989
  0
ARC
  5
BEA0
  8
0
 10
228.6250400034659
 20
97.219647468178664
 30
0.0
 40
2.0000000000000071
 50
210.00000000000119
 51
270.0
  0
ARC
  5
BEA5
  8
0
 10
233.39637370074851
 20
89.724647130166886
 30
0.0
 40
5.4955634016646693
 50
70.564031075538153
 51
75.471060877073981
  0
ARC
  5
BEAA
  8
0
 10
230.0551913639284
 20
89.716333663732712
 30
0.0
 40
5.5038974436823782
 50
104.52242538128409
 51
109.4217498290962
  0
LINE
  5
BEAD
  8
0
 10
228.22504000346601
 20
95.219647468159096
 30
0.0
 11
228.22504000346601
 21
93.719647468177286
 31
0.0
  0
LINE
  5
BEAE
  8
0
 10
235.22504000346601
 20
93.719647468177286
 30
0.0
 11
235.22504000346601
 21
95.219647468159096
 31
0.0
  0
LINE
  5
BEB3
  8
0
 10
124.3250400143658
 20
32.169647468177352
 30
0.0
 11
124.3250400143658
 21
35.269647468177482
 31
0.0
  0
LINE
  5
BEB6
  8
0
 10
91.96431407220345
 20
37.219647468179573
 30
0.0
 11
89.943588130038364
 21
33.7196474681773
 31
0.0
  0
LINE
  5
BEB9
  8
0
 10
96.005765956532031
 20
37.2196474681773
 30
0.0
 11
91.964314072202086
 21
37.2196474681773
 31
0.0
  0
LINE
  5
BEBA
  8
0
 10
96.005765956528165
 20
30.21964746817503
 30
0.0
 11
98.026491898693124
 21
33.7196474681773
 31
0.0
  0
LINE
  5
BEBD
  8
0
 10
91.964314072199585
 20
30.2196474681773
 30
0.0
 11
96.005765956529316
 21
30.2196474681773
 31
0.0
  0
LINE
  5
BEC2
  8
0
 10
89.943588130040965
 20
33.71964746817298
 30
0.0
 11
91.964314072202086
 21
30.2196474681773
 31
0.0
  0
LINE
  5
BEC5
  8
0
 10
98.026491898693365
 20
33.7196474681773
 30
0.0
 11
96.005765956529316
 21
37.2196474681773
 31
0.0
  0
ARC
  5
BEC6
  8
0
 10
93.985040014365921
 20
33.7196474681773
 30
0.0
 40
3.6535898385068379
 50
325.86865005721643
 51
346.67217453670412
  0
ARC
  5
BEC7
  8
0
 10
93.985040014365921
 20
33.7196474681773
 30
0.0
 40
3.6535898385068379
 50
13.327825463295669
 51
34.13134994278343
  0
ARC
  5
BEC8
  8
0
 10
93.985040014365921
 20
33.7196474681773
 30
0.0
 40
4.0000000000000062
 50
1.0449756281393241
 51
30.830497431792239
  0
ARC
  5
BEC9
  8
0
 10
93.985040014365921
 20
33.7196474681773
 30
0.0
 40
4.0000000000000071
 50
329.1695025682078
 51
358.9550243718607
  0
LINE
  5
BECB
  8
0
 10
111.48504001436589
 20
38.819647468177209
 30
0.0
 11
89.985040014365907
 21
38.819647468177209
 31
0.0
  0
LINE
  5
BECC
  8
0
 10
111.5805760044352
 20
38.817821376192569
 30
0.0
 11
111.48504001436589
 21
38.819647468177209
 31
0.0
  0
POLYLINE
  5
BECD
  8
0
 66
     1
 10
0.0
 20
0.0
 30
0.0
 70
   128
  0
VERTEX
  5
C3D7
  8
0
 10
110.98504001436589
 20
38.551698275746269
 30
0.0
  0
VERTEX
  5
C3D8
  8
0
 10
111.0304791359671
 20
38.692404379169147
 30
0.0
  0
VERTEX
  5
C3D9
  8
0
 10
111.0904490375212
 20
38.741467017020568
 30
0.0
  0
VERTEX
  5
C3DA
  8
0
 10
111.1752623524155
 20
38.776485114438181
 30
0.0
  0
VERTEX
  5
C3DB
  8
0
 10
111.39570893336
 20
38.810399680801538
 30
0.0
  0
VERTEX
  5
C3DC
  8
0
 10
111.5805760044347
 20
38.817821376192569
 30
0.0
  0
SEQEND
  5
C3DD
  8
0
  0
ARC
  5
BECF
  8
0
 10
106.98504001436589
 20
33.7196474681773
 30
0.0
 40
2.0499999999999998
 50
270.0
 51
90.0
  0
LINE
  5
BED0
  8
0
 10
96.842923846851775
 20
35.769647468177482
 30
0.0
 11
106.98504001436589
 21
35.769647468177482
 31
0.0
  0
LINE
  5
BED1
  8
0
 10
106.98504001436589
 20
31.669647468177349
 30
0.0
 11
96.842923846854518
 21
31.669647468177349
 31
0.0
  0
LINE
  5
BED2
  8
0
 10
89.985040014366135
 20
28.619647468177391
 30
0.0
 11
89.985040014365694
 21
33.647850698453112
 31
0.0
  0
LINE
  5
BED3
  8
0
 10
89.985040014365694
 20
33.791444237901942
 30
0.0
 11
89.985040014365694
 21
38.819647468177209
 31
0.0
  0
LINE
  5
BED5
  8
0
 10
110.98504001436569
 20
38.551698275745601
 30
0.0
 11
110.98504001436569
 21
28.887596660608551
 31
0.0
  0
POLYLINE
  5
BED6
  8
0
 66
     1
 10
0.0
 20
0.0
 30
0.0
 70
   128
  0
VERTEX
  5
C3DE
  8
0
 10
111.5805760044347
 20
28.62147356016203
 30
0.0
  0
VERTEX
  5
C3DF
  8
0
 10
111.308850953955
 20
28.637051208582761
 30
0.0
  0
VERTEX
  5
C3E0
  8
0
 10
111.109965013353
 20
28.687361016363191
 30
0.0
  0
VERTEX
  5
C3E1
  8
0
 10
111.0058149275948
 20
28.78540801313466
 30
0.0
  0
VERTEX
  5
C3E2
  8
0
 10
110.98504001436589
 20
28.887596660608551
 30
0.0
  0
SEQEND
  5
C3E3
  8
0
  0
LINE
  5
BED7
  8
0
 10
111.5805760044347
 20
28.621473560179311
 30
0.0
 11
111.48504001436589
 21
28.619647468177391
 31
0.0
  0
LINE
  5
BED8
  8
0
 10
89.985040014365907
 20
28.619647468177391
 30
0.0
 11
111.48504001436589
 21
28.619647468177391
 31
0.0
  0
POLYLINE
  5
BEDA
  8
0
 66
     1
 10
0.0
 20
0.0
 30
0.0
 70
   128
  0
VERTEX
  5
C3E4
  8
0
 10
111.5805760044345
 20
38.817821376175289
 30
0.0
  0
VERTEX
  5
C3E5
  8
0
 10
111.8851407580411
 20
38.787423672558589
 30
0.0
  0
VERTEX
  5
C3E6
  8
0
 10
111.98504001436569
 20
38.769137210960707
 30
0.0
  0
SEQEND
  5
C3E7
  8
0
  0
ARC
  5
BEDC
  8
0
 10
111.48504001436589
 20
36.319647468177671
 30
0.0
 40
0.9999999999997832
 50
59.999999999992703
 51
90.0
  0
LINE
  5
BEDD
  8
0
 10
110.98504001436569
 20
37.319647468177209
 30
0.0
 11
111.48504001436569
 21
37.319647468177209
 31
0.0
  0
ARC
  5
BEDE
  8
0
 10
111.48504001436589
 20
31.11964746817716
 30
0.0
 40
0.9999999999997804
 50
270.0
 51
300.00000000000728
  0
POLYLINE
  5
BEE0
  8
0
 66
     1
 10
0.0
 20
0.0
 30
0.0
 70
   128
  0
VERTEX
  5
C3E8
  8
0
 10
111.98504001436569
 20
28.67015772539435
 30
0.0
  0
VERTEX
  5
C3E9
  8
0
 10
111.67539971845341
 20
28.626905366984371
 30
0.0
  0
VERTEX
  5
C3EA
  8
0
 10
111.5805760044345
 20
28.621473560179311
 30
0.0
  0
SEQEND
  5
C3EB
  8
0
  0
LINE
  5
BEE1
  8
0
 10
111.48504001436589
 20
30.119647468177391
 30
0.0
 11
110.98504001436569
 21
30.119647468177391
 31
0.0
  0
POLYLINE
  5
BEEC
  8
0
 66
     1
 10
0.0
 20
0.0
 30
0.0
 70
   128
  0
VERTEX
  5
C3EC
  8
0
 10
117.2850400143659
 20
33.658100803082561
 30
0.0
  0
VERTEX
  5
C3ED
  8
0
 10
117.59705145953581
 20
33.668610123313563
 30
0.0
  0
VERTEX
  5
C3EE
  8
0
 10
117.74842309340281
 20
33.659647468177361
 30
0.0
  0
SEQEND
  5
C3EF
  8
0
  0
LINE
  5
BEED
  8
0
 10
117.74842309340281
 20
33.659647468177361
 30
0.0
 11
117.74842309340281
 21
33.779647468177238
 31
0.0
  0
POLYLINE
  5
BEEE
  8
0
 66
     1
 10
0.0
 20
0.0
 30
0.0
 70
   128
  0
VERTEX
  5
C3F0
  8
0
 10
117.74842309340281
 20
33.779647468177238
 30
0.0
  0
VERTEX
  5
C3F1
  8
0
 10
117.4486663063378
 20
33.770814329145878
 30
0.0
  0
VERTEX
  5
C3F2
  8
0
 10
117.2850400143659
 20
33.781194133272258
 30
0.0
  0
SEQEND
  5
C3F3
  8
0
  0
LINE
  5
BEF5
  8
0
 10
112.9504825435626
 20
29.094189941192099
 30
0.0
 11
113.6850400143655
 21
29.625650978272461
 31
0.0
  0
LINE
  5
BEF6
  8
0
 10
116.05959748516889
 20
33.195104995162637
 30
0.0
 11
114.6422640686381
 21
32.169647468177118
 31
0.0
  0
ARC
  5
BEF8
  8
0
 10
111.48504001436589
 20
31.119647468177391
 30
0.0
 40
2.4999999999999081
 50
281.53695903281812
 51
305.88618407977373
  0
ARC
  5
BEF9
  8
0
 10
111.48504001436589
 20
31.119647468177391
 30
0.0
 40
0.9999999999999193
 50
299.99999999999318
 51
305.88618407977373
  0
ARC
  5
BEFA
  8
0
 10
117.5250400143659
 20
31.169647468177349
 30
0.0
 40
2.5000000000000031
 50
95.508878671203277
 51
125.8861840797737
  0
LINE
  5
BEFB
  8
0
 10
113.6850400143657
 20
37.813643958082373
 30
0.0
 11
112.9504825435626
 21
38.345104995162728
 31
0.0
  0
LINE
  5
BEFC
  8
0
 10
112.07121702604459
 20
37.129830478971598
 30
0.0
 11
113.6850400143656
 21
35.962210417739698
 31
0.0
  0
ARC
  5
BEFE
  8
0
 10
111.48504001436589
 20
36.319647468177443
 30
0.0
 40
2.49999999999994
 50
54.113815920226251
 51
78.463040967181854
  0
ARC
  5
BEFF
  8
0
 10
111.48504001436589
 20
36.319647468177443
 30
0.0
 40
0.9999999999998879
 50
54.113815920226251
 51
60.00000000000675
  0
ARC
  5
BF00
  8
0
 10
117.5250400143659
 20
36.269647468177482
 30
0.0
 40
2.5000000000000688
 50
234.1138159202263
 51
264.49112132879668
  0
CIRCLE
  5
BF0A
  8
0
 10
121.5250400143504
 20
107.17964746817729
 30
0.0
 40
2.0000000000004401
  0
ARC
  5
BF0B
  8
0
 10
161.49107762332639
 20
52.306312492656161
 30
0.0
 40
61.723778391320572
 50
89.782821304527772
 51
99.10368905300156
  0
ARC
  5
BF0C
  8
0
 10
161.9590101573117
 20
52.306412253439248
 30
0.0
 40
61.723678660637979
 50
80.896303400202399
 51
90.217186242270046
  0
ARC
  5
BF0E
  8
0
 10
161.9369014201111
 20
144.16327625749591
 30
0.0
 40
44.134137301737312
 50
269.7249564225225
 51
282.81369519299028
  0
ARC
  5
BF0F
  8
0
 10
161.51316194516221
 20
144.16312457760381
 30
0.0
 40
44.133985703586937
 50
257.18628222913901
 51
270.27506615537101
  0
ARC
  5
BF11
  8
0
 10
153.8659146171035
 20
116.77803755802179
 30
0.0
 40
15.79555424962331
 50
233.20238759901341
 51
262.21035408160577
  0
ARC
  5
BF13
  8
0
 10
155.47113734909809
 20
86.651978475041687
 30
0.0
 40
26.863098009124691
 50
98.016103910049537
 51
114.3282141215234
  0
ARC
  5
BF15
  8
0
 10
167.97821898078109
 20
86.649482961865488
 30
0.0
 40
26.865670061785561
 50
65.672572035505524
 51
81.983109932919987
  0
ARC
  5
BF16
  8
0
 10
169.5854585275074
 20
116.77488361677661
 30
0.0
 40
15.792254170477021
 50
277.78654858120109
 51
306.80070973819551
  0
LINE
  5
BF17
  8
0
 10
141.7313389583278
 20
108.17964746817729
 30
0.0
 11
141.72504001435021
 21
108.2296474681775
 31
0.0
  0
ARC
  5
BF18
  8
0
 10
145.5179238517849
 20
107.4130394936842
 30
0.0
 40
3.8797959209576312
 50
106.6767470317094
 51
167.84969033574279
  0
ARC
  5
BF19
  8
0
 10
147.00475705600999
 20
108.7547572437288
 30
0.0
 40
5.3059222663726837
 50
216.0901623410715
 51
240.65541462307729
  0
LINE
  5
BF1A
  8
0
 10
142.71708883096471
 20
108.3296474681779
 30
0.0
 11
142.71708883096559
 21
105.6292633165653
 31
0.0
  0
LINE
  5
BF1B
  8
0
 10
141.96929091630409
 20
108.3296474681779
 30
0.0
 11
142.71708883096471
 21
108.3296474681779
 31
0.0
  0
LINE
  5
BF1C
  8
0
 10
141.96929091630409
 20
108.17964746817729
 30
0.0
 11
141.96929091630409
 21
108.3296474681779
 31
0.0
  0
ARC
  5
BF1D
  8
0
 10
176.44567883394569
 20
108.7543223857847
 30
0.0
 40
5.305368813035634
 50
299.34353681099981
 51
354.32445168655471
  0
ARC
  5
BF1E
  8
0
 10
177.93071407464871
 20
107.4117070449324
 30
0.0
 40
3.8814862968549328
 50
12.16505724831144
 51
73.308505384225782
  0
ARC
  5
BF20
  8
0
 10
146.36561803346009
 20
98.7796474681777
 30
0.0
 40
4.0000000000000711
 50
90.0
 51
139.9999999999977
  0
LINE
  5
BF21
  8
0
 10
140.58921778682631
 20
98.118497029431197
 30
0.0
 11
143.30144026098421
 21
101.350797906924
 31
0.0
  0
ARC
  5
BF22
  8
0
 10
137.5250400143504
 20
100.6896474681775
 30
0.0
 40
3.9999999999999849
 50
270.0
 51
319.99999999999761
  0
LINE
  5
BF23
  8
0
 10
128.14504001435029
 20
96.689647468177554
 30
0.0
 11
137.5250400143504
 21
96.689647468177554
 31
0.0
  0
ARC
  5
BF24
  8
0
 10
128.14504001435029
 20
99.289647468177918
 30
0.0
 40
2.6000000000000512
 50
221.11056602775849
 51
270.0
  0
LINE
  5
BF25
  8
0
 10
119.4154019898069
 20
105.33860770614
 30
0.0
 11
126.18609042013161
 21
97.580110546285596
 31
0.0
  0
ARC
  5
BF26
  8
0
 10
121.5250400143504
 20
107.17964746817729
 30
0.0
 40
2.8000000000000371
 50
60.000000000000469
 51
221.11056602775849
  0
LINE
  5
BF27
  8
0
 10
124.9288875916436
 20
108.4475966606087
 30
0.0
 11
122.9250400143501
 21
109.60451859877411
 31
0.0
  0
ARC
  5
BF28
  8
0
 10
125.9288875916436
 20
110.17964746817781
 30
0.0
 40
2.0000000000000262
 50
240.00000000000051
 51
270.0
  0
LINE
  5
BF29
  8
0
 10
142.71708883096471
 20
108.17964746817729
 30
0.0
 11
125.9288875916436
 21
108.17964746817729
 31
0.0
  0
LINE
  5
BF2A
  8
0
 10
146.36561803346009
 20
102.7796474681777
 30
0.0
 11
146.58325210489511
 21
102.7796474681777
 31
0.0
  0
ARC
  5
BF2B
  8
0
 10
121.5250400143516
 20
180.38009091407511
 30
0.0
 40
19.999999999998408
 50
264.26082952272537
 51
270.0
  0
ARC
  5
BF2C
  8
0
 10
121.5250400143516
 20
180.38009091407511
 30
0.0
 40
19.999999999998408
 50
270.0
 51
275.73917047727463
  0
ARC
  5
BF2D
  8
0
 10
121.5250400143516
 20
147.68009091407799
 30
0.0
 40
19.999999999999211
 50
92.149095626858795
 51
95.739170477274641
  0
ARC
  5
BF2E
  8
0
 10
121.5250400143516
 20
147.68009091407799
 30
0.0
 40
19.999999999999211
 50
84.260829522725345
 51
87.850904373141205
  0
LINE
  5
BF2F
  8
0
 10
119.5250400143516
 20
167.57983965620909
 30
0.0
 11
119.5250400143516
 21
167.08009091407669
 31
0.0
  0
LINE
  5
BF30
  8
0
 10
123.5250400143516
 20
167.08009091407669
 30
0.0
 11
123.5250400143516
 21
167.57983965620909
 31
0.0
  0
LINE
  5
BF31
  8
0
 10
119.5250400143516
 20
160.98009091407681
 30
0.0
 11
119.5250400143516
 21
160.48034217194439
 31
0.0
  0
LINE
  5
BF32
  8
0
 10
123.5250400143516
 20
160.48034217194439
 30
0.0
 11
123.5250400143516
 21
160.98009091407681
 31
0.0
  0
LINE
  5
BF35
  8
0
 10
118.72504001435141
 20
162.48009091407681
 30
0.0
 11
118.72504001435141
 21
160.98009091407681
 31
0.0
  0
LINE
  5
BF36
  8
0
 10
118.72504001435141
 20
167.08009091407669
 30
0.0
 11
118.72504001435141
 21
165.58009091407669
 31
0.0
  0
LINE
  5
BF37
  8
0
 10
118.6850400143509
 20
160.48034217194439
 30
0.0
 11
123.5250400143516
 21
160.48034217194439
 31
0.0
  0
LINE
  5
BF38
  8
0
 10
122.2750400143516
 20
167.6660234667502
 30
0.0
 11
119.93504001435279
 21
167.6660234667506
 31
0.0
  0
LINE
  5
BF39
  8
0
 10
119.52526530516499
 20
167.57983965620909
 30
0.0
 11
119.52504001435069
 21
167.57983965620909
 31
0.0
  0
LINE
  5
BF3A
  8
0
 10
123.5250400143516
 20
167.57983965620909
 30
0.0
 11
118.685040014351
 21
167.57983965620909
 31
0.0
  0
ARC
  5
BF3D
  8
0
 10
161.72526798527809
 20
192.02217356900891
 30
0.0
 40
37.992082655615917
 50
254.7388633776219
 51
269.999656197523
  0
ARC
  5
BF3E
  8
0
 10
161.72526798527809
 20
136.03800825914371
 30
0.0
 40
37.992082655617182
 50
90.000343802476991
 51
105.2611366223917
  0
ARC
  5
BF40
  8
0
 10
161.72504001435121
 20
192.0204719708436
 30
0.0
 40
37.990381056766758
 50
270.0
 51
285.26148042486341
  0
ARC
  5
BF41
  8
0
 10
161.72504001435121
 20
136.03970985730899
 30
0.0
 40
37.990381056767767
 50
74.73851957513655
 51
90.0
  0
ARC
  5
BF42
  8
0
 10
156.6038016033456
 20
174.27799514883191
 30
0.0
 40
19.527436183583308
 50
231.33802367386511
 51
255.53187397197939
  0
ARC
  5
BF44
  8
0
 10
156.6038016033456
 20
153.78218667932109
 30
0.0
 40
19.52743618358388
 50
104.46812602802061
 51
128.66197632613489
  0
ARC
  5
BF45
  8
0
 10
166.84549867089851
 20
153.7806271704053
 30
0.0
 40
19.529141053795719
 50
51.339095695049643
 51
75.530801950800651
  0
ARC
  5
BF47
  8
0
 10
166.84549867089851
 20
174.27955465774821
 30
0.0
 40
19.529141053795449
 50
284.46919804921282
 51
308.66090430495041
  0
ARC
  5
BF48
  8
0
 10
148.4535724721261
 20
164.4179328934465
 30
0.0
 40
6.7397010643121993
 50
183.29895810948651
 51
233.07461275455489
  0
ARC
  5
BF49
  8
0
 10
148.4535724721261
 20
163.6422489347074
 30
0.0
 40
6.7397010643120048
 50
126.9253872454603
 51
176.70104189051349
  0
ARC
  5
BF4A
  8
0
 10
175.37039192626619
 20
164.2175688636049
 30
0.0
 40
6.3574130198505348
 50
305.31630719441529
 51
358.31012194155147
  0
ARC
  5
BF4B
  8
0
 10
175.37039192626571
 20
163.84261296454909
 30
0.0
 40
6.3574130198507337
 50
1.68987805844849
 51
54.683692805584727
  0
LINE
  5
BF4D
  8
0
 10
141.99847069916521
 20
162.48009091407681
 30
0.0
 11
117.5250400143517
 21
162.48009091407681
 31
0.0
  0
LINE
  5
BF4E
  8
0
 10
142.6566066311733
 20
160.98009091407681
 30
0.0
 11
115.1279970095884
 21
160.98009091407681
 31
0.0
  0
LINE
  5
BF50
  8
0
 10
117.5250400143517
 20
165.58009091407669
 30
0.0
 11
141.99847069916521
 21
165.58009091407669
 31
0.0
  0
LINE
  5
BF51
  8
0
 10
142.65660663117319
 20
167.08009091407669
 30
0.0
 11
115.12799700958951
 21
167.08009091407669
 31
0.0
  0
ARC
  5
BF62
  8
0
 10
23.63504000454347
 20
107.179647135621
 30
0.0
 40
19.999999999998391
 50
359.13735997629283
 51
0.0
  0
ARC
  5
BF63
  8
0
 10
23.63504000454347
 20
107.179647135621
 30
0.0
 40
19.999999999998391
 50
0.0
 51
5.739170477274663
  0
ARC
  5
BF65
  8
0
 10
56.335040004541007
 20
107.17964713562149
 30
0.0
 40
19.99999999999919
 50
174.26082952272529
 51
177.85090437314111
  0
LINE
  5
BF67
  8
0
 10
36.935040004541833
 20
109.179647135621
 30
0.0
 11
36.435291262409443
 21
109.179647135621
 31
0.0
  0
LINE
  5
BF69
  8
0
 10
43.534788746674138
 20
109.179647135621
 30
0.0
 11
43.035040004541742
 21
109.179647135621
 31
0.0
  0
LINE
  5
BF6C
  8
0
 10
29.98504000454156
 20
114.03010170559649
 30
0.0
 11
29.98504000454156
 21
100.0291226216295
 31
0.0
  0
LINE
  5
BF6D
  8
0
 10
49.985040004541439
 20
100.0291226216293
 30
0.0
 11
49.98504000454156
 21
114.0301017055972
 31
0.0
  0
LINE
  5
BF6E
  8
0
 10
49.98504000454156
 20
114.0301017055972
 30
0.0
 11
29.98504000454167
 21
114.03010170559649
 31
0.0
  0
LINE
  5
BF6F
  8
0
 10
29.98504000454156
 20
100.0291226216295
 30
0.0
 11
34.885040014350672
 21
100.0291226216295
 31
0.0
  0
LINE
  5
BF71
  8
0
 10
45.085040014350483
 20
100.0291226216295
 30
0.0
 11
49.985040004541439
 21
100.0291226216295
 31
0.0
  0
LINE
  5
BF72
  8
0
 10
43.035040004541742
 20
109.97964713562121
 30
0.0
 11
36.935040004541833
 21
109.97964713562121
 31
0.0
  0
LINE
  5
BF74
  8
0
 10
43.534788746674138
 20
106.9110289697403
 30
0.0
 11
43.534788746674138
 21
109.17964713562191
 31
0.0
  0
LINE
  5
BF75
  8
0
 10
36.349107451868782
 20
107.929647135621
 30
0.0
 11
36.349107451868782
 21
106.8824530747233
 31
0.0
  0
LINE
  5
BF76
  8
0
 10
36.435291262409443
 20
109.179647135621
 30
0.0
 11
36.435291262409443
 21
106.91102896323579
 31
0.0
  0
ARC
  5
BF7B
  8
0
 10
29.437950025970139
 20
98.962372653103557
 30
0.0
 40
13.37208942399424
 50
55.477201800559357
 51
65.491642476970171
  0
ARC
  5
BF7D
  8
0
 10
50.532129983114793
 20
98.962372653100843
 30
0.0
 40
13.37208942399773
 50
114.5083575230298
 51
124.5227981994406
  0
ARC
  5
BF89
  8
0
 10
-71.548158289575468
 20
-68.331415874781655
 30
0.0
 40
208.69977353988111
 50
59.305425454215218
 51
60.467108243813477
  0
ARC
  5
BF8A
  8
0
 10
18.684841191326971
 20
120.2753719975349
 30
0.0
 40
22.942992670245449
 50
303.43072403442568
 51
314.9190150281479
  0
ARC
  5
BF8C
  8
0
 10
61.28523881774796
 20
120.2753719975244
 30
0.0
 40
22.942992670232119
 50
225.08098504103711
 51
236.56927596559109
  0
ARC
  5
BF8D
  8
0
 10
151.51823829954759
 20
-68.331415876305073
 30
0.0
 40
208.6997735416447
 50
119.5328917561865
 51
120.69457454577559
  0
ARC
  5
BF9A
  8
0
 10
8.3689243255734862
 20
127.7569779313817
 30
0.0
 40
35.15766388860385
 50
307.93983578423888
 51
310.76366946828421
  0
ARC
  5
BF9C
  8
0
 10
18.060286719317411
 20
91.926247933660306
 30
0.0
 40
25.114935739410509
 50
58.119333792054981
 51
61.653199905972549
  0
ARC
  5
BF9D
  8
0
 10
62.701240619735891
 20
90.580219535976994
 30
0.0
 40
26.675948336985989
 50
118.4793724789005
 51
121.7972226570041
  0
LINE
  5
BF9E
  8
0
 10
49.98504000454156
 20
114.0296471356214
 30
0.0
 11
49.98114422840306
 21
114.0281575293215
 31
0.0
  0
ARC
  5
BF9F
  8
0
 10
72.791451619692424
 20
129.18813436785689
 30
0.0
 40
37.01884200845852
 50
229.28728054074921
 51
231.96925520396621
  0
LINE
  5
BFA2
  8
0
 10
36.935040004541833
 20
109.97964713562121
 30
0.0
 11
36.935040004541719
 21
107.0767302039892
 31
0.0
  0
LINE
  5
BFA4
  8
0
 10
43.035040004541742
 20
109.97964713562121
 30
0.0
 11
43.035040004541628
 21
107.07673021049391
 31
0.0
  0
LINE
  5
BFB2
  8
0
 10
221.72504001435061
 20
114.0301179579844
 30
0.0
 11
221.72504001435061
 21
100.02913887401699
 31
0.0
  0
LINE
  5
BFB3
  8
0
 10
241.72504001435061
 20
100.02913887401721
 30
0.0
 11
241.72504001435061
 21
114.0301179579842
 31
0.0
  0
LINE
  5
BFB4
  8
0
 10
221.72504001435061
 20
100.02913887401699
 30
0.0
 11
241.72504001435061
 21
100.02913887401699
 31
0.0
  0
LINE
  5
BFB5
  8
0
 10
241.72504001435061
 20
114.0301179579842
 30
0.0
 11
221.72504001435061
 21
114.0301179579846
 31
0.0
  0
POLYLINE
  5
BFB6
  8
0
 66
     1
 10
0.0
 20
0.0
 30
0.0
 70
   128
  0
VERTEX
  5
C3F4
  8
0
 10
236.72504001435061
 20
111.12966338800879
 30
0.0
  0
VERTEX
  5
C3F5
  8
0
 10
236.333852150285
 20
110.9425860191777
 30
0.0
  0
VERTEX
  5
C3F6
  8
0
 10
235.90619849169599
 20
110.7027648399739
 30
0.0
  0
VERTEX
  5
C3F7
  8
0
 10
235.45224494174531
 20
110.4234521920089
 30
0.0
  0
VERTEX
  5
C3F8
  8
0
 10
234.82289972057731
 20
110.0105763058159
 30
0.0
  0
VERTEX
  5
C3F9
  8
0
 10
234.16093857917471
 20
109.5622998250446
 30
0.0
  0
VERTEX
  5
C3FA
  8
0
 10
233.47312517588199
 20
109.0998892993648
 30
0.0
  0
VERTEX
  5
C3FB
  8
0
 10
232.9271270177272
 20
108.7481360395477
 30
0.0
  0
VERTEX
  5
C3FC
  8
0
 10
232.35052416945689
 20
108.4324281558211
 30
0.0
  0
VERTEX
  5
C3FD
  8
0
 10
232.04541137000919
 20
108.3071847341743
 30
0.0
  0
VERTEX
  5
C3FE
  8
0
 10
231.72504001435061
 20
108.2296633880091
 30
0.0
  0
SEQEND
  5
C3FF
  8
0
  0
POLYLINE
  5
BFB7
  8
0
 66
     1
 10
0.0
 20
0.0
 30
0.0
 70
   128
  0
VERTEX
  5
C400
  8
0
 10
226.72504001435061
 20
111.12966338800879
 30
0.0
  0
VERTEX
  5
C401
  8
0
 10
227.1162278784162
 20
110.9425860191777
 30
0.0
  0
VERTEX
  5
C402
  8
0
 10
227.5438815370056
 20
110.7027648399739
 30
0.0
  0
VERTEX
  5
C403
  8
0
 10
227.99783508695629
 20
110.4234521920089
 30
0.0
  0
VERTEX
  5
C404
  8
0
 10
228.62718030812391
 20
110.0105763058163
 30
0.0
  0
VERTEX
  5
C405
  8
0
 10
229.28914144952651
 20
109.5622998250446
 30
0.0
  0
VERTEX
  5
C406
  8
0
 10
229.9769548528192
 20
109.0998892993648
 30
0.0
  0
VERTEX
  5
C407
  8
0
 10
230.52295301097439
 20
108.7481360395477
 30
0.0
  0
VERTEX
  5
C408
  8
0
 10
231.09955585924521
 20
108.4324281558206
 30
0.0
  0
VERTEX
  5
C409
  8
0
 10
231.404668658692
 20
108.3071847341743
 30
0.0
  0
VERTEX
  5
C40A
  8
0
 10
231.72504001435061
 20
108.2296633880087
 30
0.0
  0
SEQEND
  5
C40B
  8
0
  0
POLYLINE
  5
BFBA
  8
0
 66
     1
 10
0.0
 20
0.0
 30
0.0
 70
   128
  0
VERTEX
  5
C40C
  8
0
 10
231.7250400143501
 20
108.22966338800779
 30
0.0
  0
VERTEX
  5
C40D
  8
0
 10
231.92089817834619
 20
108.14822564940729
 30
0.0
  0
VERTEX
  5
C40E
  8
0
 10
232.1035210716139
 20
108.03885841735421
 30
0.0
  0
VERTEX
  5
C40F
  8
0
 10
232.46069949762651
 20
107.7781164814773
 30
0.0
  0
VERTEX
  5
C410
  8
0
 10
233.10022029765821
 20
107.2506449713796
 30
0.0
  0
VERTEX
  5
C411
  8
0
 10
233.7161609302874
 20
106.7137922944589
 30
0.0
  0
VERTEX
  5
C412
  8
0
 10
234.33292905113589
 20
106.1724295233402
 30
0.0
  0
VERTEX
  5
C413
  8
0
 10
234.9301237788921
 20
105.6486342248117
 30
0.0
  0
VERTEX
  5
C414
  8
0
 10
235.40872401112651
 20
105.23235440759071
 30
0.0
  0
VERTEX
  5
C415
  8
0
 10
235.86638986787449
 20
104.839591634865
 30
0.0
  0
VERTEX
  5
C416
  8
0
 10
236.31357166266099
 20
104.463897920913
 30
0.0
  0
VERTEX
  5
C417
  8
0
 10
236.72504001435061
 20
104.1296633880083
 30
0.0
  0
SEQEND
  5
C418
  8
0
  0
POLYLINE
  5
BFBB
  8
0
 66
     1
 10
0.0
 20
0.0
 30
0.0
 70
   128
  0
VERTEX
  5
C419
  8
0
 10
231.72504001435061
 20
108.2296633880087
 30
0.0
  0
VERTEX
  5
C41A
  8
0
 10
231.5291818503527
 20
108.1482256494064
 30
0.0
  0
VERTEX
  5
C41B
  8
0
 10
231.3465589570836
 20
108.0388584173524
 30
0.0
  0
VERTEX
  5
C41C
  8
0
 10
230.9893805310688
 20
107.77811648147321
 30
0.0
  0
VERTEX
  5
C41D
  8
0
 10
230.34985973103301
 20
107.250644971371
 30
0.0
  0
VERTEX
  5
C41E
  8
0
 10
229.73391909839879
 20
106.7137922944457
 30
0.0
  0
VERTEX
  5
C41F
  8
0
 10
229.11715097754569
 20
106.172429523323
 30
0.0
  0
VERTEX
  5
C420
  8
0
 10
228.519956249785
 20
105.6486342247908
 30
0.0
  0
VERTEX
  5
C421
  8
0
 10
228.04135601755689
 20
105.2323544075752
 30
0.0
  0
VERTEX
  5
C422
  8
0
 10
227.5836901608148
 20
104.8395916348554
 30
0.0
  0
VERTEX
  5
C423
  8
0
 10
227.13650836603509
 20
104.46389792090849
 30
0.0
  0
VERTEX
  5
C424
  8
0
 10
226.72504001435061
 20
104.1296633880083
 30
0.0
  0
SEQEND
  5
C425
  8
0
  0
POLYLINE
  5
BFBE
  8
0
 66
     1
 10
0.0
 20
0.0
 30
0.0
 70
   128
  0
VERTEX
  5
C426
  8
0
 10
240.38529405219501
 20
113.25261072995821
 30
0.0
  0
VERTEX
  5
C427
  8
0
 10
239.9462869272173
 20
113.0052817936139
 30
0.0
  0
VERTEX
  5
C428
  8
0
 10
239.39982930089749
 20
112.68674024114711
 30
0.0
  0
VERTEX
  5
C429
  8
0
 10
238.73016831770281
 20
112.29197265445229
 30
0.0
  0
VERTEX
  5
C42A
  8
0
 10
237.96077914755989
 20
111.8402951515295
 30
0.0
  0
VERTEX
  5
C42B
  8
0
 10
237.3655362324447
 20
111.4951265165236
 30
0.0
  0
VERTEX
  5
C42C
  8
0
 10
236.72504001435061
 20
111.12966338800879
 30
0.0
  0
SEQEND
  5
C42D
  8
0
  0
ARC
  5
BFC0
  8
0
 10
252.47626767772081
 20
119.6059112379171
 30
0.0
 40
22.0820157688355
 50
224.49548353488001
 51
236.8010112126
  0
ARC
  5
BFC1
  8
0
 10
210.9738123509745
 20
119.6059112379243
 30
0.0
 40
22.082015768845331
 50
303.19898878741679
 51
315.50451646511988
  0
POLYLINE
  5
BFC3
  8
0
 66
     1
 10
0.0
 20
0.0
 30
0.0
 70
   128
  0
VERTEX
  5
C42E
  8
0
 10
223.06478597650661
 20
113.25261072995821
 30
0.0
  0
VERTEX
  5
C42F
  8
0
 10
223.50379310148429
 20
113.0052817936139
 30
0.0
  0
VERTEX
  5
C430
  8
0
 10
224.05025072780461
 20
112.68674024114711
 30
0.0
  0
VERTEX
  5
C431
  8
0
 10
224.7199117109993
 20
112.2919726544519
 30
0.0
  0
VERTEX
  5
C432
  8
0
 10
225.48930088114261
 20
111.84029515152901
 30
0.0
  0
VERTEX
  5
C433
  8
0
 10
226.08454379625741
 20
111.4951265165236
 30
0.0
  0
VERTEX
  5
C434
  8
0
 10
226.72504001435061
 20
111.12966338800879
 30
0.0
  0
SEQEND
  5
C435
  8
0
  0
ARC
  5
BFC6
  8
0
 10
202.3236049900018
 20
79.065688679154391
 30
0.0
 40
39.986775664245677
 50
58.754841807302057
 51
60.97402343063311
  0
ARC
  5
BFC7
  8
0
 10
198.22224589542139
 20
130.0370024934796
 30
0.0
 40
38.116498722620051
 50
308.0756069094831
 51
310.67389673884958
  0
LINE
  5
BFC8
  8
0
 10
221.72504001435061
 20
100.0296633880089
 30
0.0
 11
221.72872075885749
 21
100.0317843745233
 31
0.0
  0
ARC
  5
BFCA
  8
0
 10
264.02480100476112
 20
128.59070797820999
 30
0.0
 40
36.23551584168338
 50
229.2783371596779
 51
232.0181575877877
  0
ARC
  5
BFCB
  8
0
 10
259.83198250930889
 20
81.267317272715445
 30
0.0
 40
37.433042749608248
 50
118.92834882876021
 51
121.29911747320629
  0
LINE
  5
BFD2
  8
0
 10
234.77504001435079
 20
96.689663388008739
 30
0.0
 11
233.27504001435071
 21
96.689663388008739
 31
0.0
  0
LINE
  5
BFD5
  8
0
 10
228.67504001435091
 20
96.689663388008739
 30
0.0
 11
230.17504001435091
 21
96.689663388008739
 31
0.0
  0
ARC
  5
BFEA
  8
0
 10
161.72504001435081
 20
5.7292664114095251
 30
0.0
 40
37.990381056766218
 50
74.73851957513655
 51
90.0
  0
ARC
  5
BFEB
  8
0
 10
161.72504001435081
 20
61.710028524942338
 30
0.0
 40
37.990381056766459
 50
270.00000000001302
 51
285.26148042486341
  0
ARC
  5
BFED
  8
0
 10
161.72504001435081
 20
5.7292664114090712
 30
0.0
 40
37.990381056766687
 50
90.0
 51
105.26148042486339
  0
ARC
  5
BFEE
  8
0
 10
161.72504001435081
 20
61.7100285249428
 30
0.0
 40
37.990381056766871
 50
254.73851957513651
 51
270.00000000001302
  0
ARC
  5
BFEF
  8
0
 10
166.84763527854199
 20
23.47445693979239
 30
0.0
 40
19.524469549865131
 50
51.336157800107593
 51
75.533739845741835
  0
ARC
  5
BFF1
  8
0
 10
166.84763527854199
 20
43.964837996559481
 30
0.0
 40
19.524469549865191
 50
284.46626015425818
 51
308.66384219989237
  0
ARC
  5
BFF2
  8
0
 10
156.60472207632719
 20
43.969392648896019
 30
0.0
 40
19.52944872422362
 50
231.33928913759681
 51
255.53060850824241
  0
ARC
  5
BFFE
  8
0
 10
156.60472207632719
 20
23.469902287456311
 30
0.0
 40
19.529448724223119
 50
104.4693914917441
 51
128.66071086240319
  0
ARC
  5
BFFF
  8
0
 10
175.37116403860961
 20
33.532583292406571
 30
0.0
 40
6.3566290532761647
 50
1.6863553434115981
 51
54.68721552061151
  0
ARC
  5
C000
  8
0
 10
175.37116403860961
 20
33.9067116439453
 30
0.0
 40
6.3566290532760821
 50
305.31278447939582
 51
358.31364465660153
  0
ARC
  5
C001
  8
0
 10
148.45357247212141
 20
33.331805488809323
 30
0.0
 40
6.7397010643069049
 50
126.92538724544509
 51
148.33676164312851
  0
ARC
  5
C003
  8
0
 10
148.4535724721209
 20
34.107489447541177
 30
0.0
 40
6.7397010643060771
 50
211.6632383568714
 51
233.07461275455481
  0
ARC
  5
C005
  8
0
 10
148.45357247212769
 20
34.107489447545731
 30
0.0
 40
6.7397010643141408
 50
183.29895810948651
 51
195.82433765731059
  0
ARC
  5
C006
  8
0
 10
148.4535724721255
 20
33.33180548880614
 30
0.0
 40
6.739701064311987
 50
164.17566234268941
 51
176.70104189051349
  0
LINE
  5
C009
  8
0
 10
142.71708883096571
 20
30.569647468175159
 30
0.0
 11
142.65660663117299
 21
30.66964746817553
 31
0.0
  0
LINE
  5
C00A
  8
0
 10
141.99847069916461
 20
32.169647468175533
 30
0.0
 11
141.9692909163046
 21
32.26964746817589
 31
0.0
  0
LINE
  5
C00B
  8
0
 10
141.9692909163046
 20
35.169647468175533
 30
0.0
 11
141.99847069916461
 21
35.26964746817589
 31
0.0
  0
LINE
  5
C00C
  8
0
 10
142.65660663117299
 20
36.76964746817589
 30
0.0
 11
142.7170888309652
 21
36.869647468175799
 31
0.0
  0
LINE
  5
C028
  8
0
 10
146.36561803346049
 20
32.169647468175761
 30
0.0
 11
141.62153168746889
 21
32.169647468175761
 31
0.0
  0
LINE
  5
C029
  8
0
 10
137.68504001436571
 20
30.669647468175981
 30
0.0
 11
146.36561803346049
 21
30.66964746817575
 31
0.0
  0
LINE
  5
C02B
  8
0
 10
137.68504001436571
 20
36.76964746817589
 30
0.0
 11
146.36561803346049
 21
36.76964746817589
 31
0.0
  0
LINE
  5
C02C
  8
0
 10
141.62153168746971
 20
35.26964746817589
 30
0.0
 11
146.36561803346049
 21
35.26964746817589
 31
0.0
  0
LINE
  5
C02D
  8
0
 10
146.36561803346061
 20
32.169647468175533
 30
0.0
 11
146.36561803346061
 21
30.66964746817553
 31
0.0
  0
LINE
  5
C030
  8
0
 10
146.36561803346061
 20
36.76964746817589
 30
0.0
 11
146.36561803346061
 21
35.26964746817589
 31
0.0
  0
CIRCLE
  5
C063
  8
0
 10
93.985040014365694
 20
33.7196474681773
 30
0.0
 40
3.499999999996227
  0
LINE
  5
C07A
  8
0
 10
113.6850400143656
 20
31.47708451861536
 30
0.0
 11
112.07121702604459
 21
30.309464457383228
 31
0.0
  0
LINE
  5
C07B
  8
0
 10
114.6422640686388
 20
35.269647468177247
 30
0.0
 11
116.05959748516889
 21
34.24418994119219
 31
0.0
  0
CIRCLE
  5
C09A
  8
0
 10
93.985040014351753
 20
164.03009091407719
 30
0.0
 40
1.6209999999999991
  0
CIRCLE
  5
C09B
  8
3
 10
93.985040014351753
 20
164.03009091407719
 30
0.0
 40
2.0
  0
LINE
  5
C0A0
  8
0
 10
113.6850400143509
 20
168.124087403982
 30
0.0
 11
113.685040014351
 21
172.03009091407739
 31
0.0
  0
LINE
  5
C0FD
  8
0
 10
234.77504001435051
 20
95.219647468159096
 30
0.0
 11
235.22504000346601
 21
95.219647468159096
 31
0.0
  0
LINE
  5
C11B
  8
3
 10
92.364040014351303
 20
93.019647468022413
 30
0.0
 11
92.364040014351303
 21
85.019647468177482
 31
0.0
  0
LINE
  5
C11C
  8
3
 10
95.606040014351265
 20
93.019647468083804
 30
0.0
 11
95.606040014351265
 21
85.019647468177482
 31
0.0
  0
LINE
  5
C11D
  8
3
 10
38.364040014351389
 20
93.019647468024687
 30
0.0
 11
38.364040014351389
 21
85.019647468179755
 31
0.0
  0
LINE
  5
C11E
  8
3
 10
41.606040014351343
 20
93.019647468086063
 30
0.0
 11
41.606040014351343
 21
85.019647468179755
 31
0.0
  0
LINE
  5
C127
  8
1
 10
39.98504001435046
 20
119.03010170559671
 30
0.0
 11
39.98504001435046
 21
77.219647468162748
 31
0.0
  0
LINE
  5
C12A
  8
1
 10
231.72504001435061
 20
119.0301179579844
 30
0.0
 11
231.72504001435061
 21
77.219663720550443
 31
0.0
  0
LINE
  5
C12B
  8
1
 10
93.985040014350474
 20
104.9196474681773
 30
0.0
 11
93.985040014350474
 21
79.219647468166386
 31
0.0
  0
LINE
  5
C12E
  8
1
 10
84.943588130023755
 20
164.03009091407731
 30
0.0
 11
186.725040014336
 21
164.03009091407731
 31
0.0
  0
LINE
  5
C12F
  8
1
 10
186.72504001435061
 20
33.7196474681773
 30
0.0
 11
84.943588130038364
 21
33.7196474681773
 31
0.0
  0
LINE
  5
C145
  8
1
 10
121.5250400143504
 20
110.17964746817781
 30
0.0
 11
121.5250400143504
 21
104.1796474681769
 31
0.0
  0
LINE
  5
C146
  8
1
 10
118.52504001435
 20
107.17964746817729
 30
0.0
 11
124.52504001435091
 21
107.17964746817729
 31
0.0
  0
LINE
  5
C148
  8
1
 10
120.68504001435051
 20
102.2196474681777
 30
0.0
 11
120.68504001435051
 21
96.219647468176859
 31
0.0
  0
LINE
  5
C149
  8
1
 10
117.68504001434999
 20
99.2196474681773
 30
0.0
 11
123.685040014351
 21
99.2196474681773
 31
0.0
  0
LINE
  5
C14A
  8
1
 10
128.31687954942271
 20
102.3839955380208
 30
0.0
 11
128.31687954942271
 21
96.383995538019946
 31
0.0
  0
LINE
  5
C14B
  8
1
 10
125.3168795494223
 20
99.383995538020372
 30
0.0
 11
131.31687954942319
 21
99.383995538020372
 31
0.0
  0
LINE
  5
C14C
  8
1
 10
135.88504001435049
 20
94.719647468177754
 30
0.0
 11
135.88504001435049
 21
88.719647468176859
 31
0.0
  0
LINE
  5
C14D
  8
1
 10
132.8850400143501
 20
91.7196474681773
 30
0.0
 11
138.88504001435101
 21
91.7196474681773
 31
0.0
  0
LINE
  5
C14E
  8
1
 10
115.0073254215657
 20
173.59209109320199
 30
0.0
 11
123.3627546071361
 21
168.7180907349528
 31
0.0
  0
LINE
  5
C14F
  8
1
 10
122.2470401934758
 20
172.95780550686251
 30
0.0
 11
119.12303983522619
 21
167.6023763212923
 31
0.0
  0
LINE
  5
C150
  8
1
 10
116.12303983522619
 20
169.3523763212923
 30
0.0
 11
119.2470401934758
 21
174.70780550686251
 31
0.0
  0
LINE
  5
C153
  8
1
 10
136.36275460713631
 20
173.59209109320199
 30
0.0
 11
128.00732542156581
 21
168.7180907349528
 31
0.0
  0
LINE
  5
C154
  8
1
 10
129.12303983522619
 20
172.95780550686251
 30
0.0
 11
132.24704019347581
 21
167.6023763212923
 31
0.0
  0
LINE
  5
C155
  8
1
 10
135.2470401934757
 20
169.3523763212923
 30
0.0
 11
132.12303983522619
 21
174.70780550686251
 31
0.0
  0
LINE
  5
C156
  8
1
 10
115.0073254215653
 20
154.46809073495299
 30
0.0
 11
123.3627546071359
 21
159.34209109320179
 31
0.0
  0
LINE
  5
C157
  8
1
 10
122.2470401934754
 20
155.1023763212921
 30
0.0
 11
119.12303983522609
 21
160.45780550686251
 31
0.0
  0
LINE
  5
C158
  8
1
 10
116.123039835226
 20
158.7078055068626
 30
0.0
 11
119.2470401934753
 21
153.3523763212923
 31
0.0
  0
LINE
  5
C159
  8
1
 10
136.3627546071358
 20
154.4680907349522
 30
0.0
 11
128.00732542156561
 21
159.34209109320159
 31
0.0
  0
LINE
  5
C15A
  8
1
 10
129.12303983522591
 20
155.10237632129181
 30
0.0
 11
132.24704019347561
 21
160.457805506862
 31
0.0
  0
LINE
  5
C15B
  8
1
 10
135.2470401934755
 20
158.7078055068618
 30
0.0
 11
132.1230398352258
 21
153.35237632129181
 31
0.0
  0
LINE
  5
C15C
  8
1
 10
115.0073254215804
 20
43.281647647301916
 30
0.0
 11
123.3627546071509
 21
38.40764728905279
 31
0.0
  0
LINE
  5
C15D
  8
1
 10
122.24704019349051
 20
42.647362060962507
 30
0.0
 11
119.1230398352409
 21
37.29193287539227
 31
0.0
  0
LINE
  5
C15E
  8
1
 10
116.1230398352409
 20
39.041932875392291
 30
0.0
 11
119.24704019349051
 21
44.397362060962443
 31
0.0
  0
LINE
  5
C15F
  8
1
 10
136.362754607151
 20
43.281647647301916
 30
0.0
 11
128.00732542158059
 21
38.40764728905279
 31
0.0
  0
LINE
  5
C160
  8
1
 10
129.123039835241
 20
42.647362060962507
 30
0.0
 11
132.24704019349051
 21
37.29193287539227
 31
0.0
  0
LINE
  5
C161
  8
1
 10
135.24704019349051
 20
39.041932875392291
 30
0.0
 11
132.123039835241
 21
44.397362060962443
 31
0.0
  0
LINE
  5
C162
  8
1
 10
115.00732542158001
 20
24.157647289052989
 30
0.0
 11
123.36275460715061
 21
29.031647647301781
 31
0.0
  0
LINE
  5
C163
  8
1
 10
122.24704019349009
 20
24.791932875392089
 30
0.0
 11
119.1230398352408
 21
30.147362060962479
 31
0.0
  0
LINE
  5
C164
  8
1
 10
116.1230398352407
 20
28.397362060962571
 30
0.0
 11
119.24704019348999
 21
23.041932875392291
 31
0.0
  0
LINE
  5
C165
  8
1
 10
136.36275460715049
 20
24.157647289052111
 30
0.0
 11
128.0073254215803
 21
29.031647647301579
 31
0.0
  0
LINE
  5
C166
  8
1
 10
129.1230398352406
 20
24.791932875391812
 30
0.0
 11
132.24704019349039
 21
30.147362060961939
 31
0.0
  0
LINE
  5
C167
  8
1
 10
135.24704019349019
 20
28.3973620609618
 30
0.0
 11
132.12303983524049
 21
23.041932875391751
 31
0.0
  0
LINE
  5
C168
  8
1
 10
93.985040014351654
 20
168.53009091407719
 30
0.0
 11
93.985040014351654
 21
159.53009091407719
 31
0.0
  0
LINE
  5
C169
  8
1
 10
106.9850400143518
 20
167.0800909140772
 30
0.0
 11
106.9850400143517
 21
160.98009091407721
 31
0.0
  0
LINE
  5
C16D
  8
1
 10
93.985040014366248
 20
38.219647468177158
 30
0.0
 11
93.985040014366248
 21
29.219647468177129
 31
0.0
  0
LINE
  5
C16E
  8
1
 10
106.9850400143665
 20
36.769647468177169
 30
0.0
 11
106.98504001436631
 21
30.66964746817715
 31
0.0
  0
LINE
  5
C19B
  8
1
 10
117.685040014351
 20
82.719647468177286
 30
0.0
 11
117.685040014351
 21
86.219647468177286
 31
0.0
  0
LINE
  5
C19C
  8
1
 10
120.685040014351
 20
82.719647468177314
 30
0.0
 11
120.685040014351
 21
86.219647468177286
 31
0.0
  0
LINE
  5
C19D
  8
1
 10
130.68504001435099
 20
82.719647468177286
 30
0.0
 11
130.68504001435099
 21
86.219647468177286
 31
0.0
  0
LINE
  5
C19E
  8
1
 10
133.68504001435099
 20
82.719647468177286
 30
0.0
 11
133.68504001435099
 21
86.219647468177286
 31
0.0
  0
LINE
  5
C245
  8
1
 10
31.98504001435046
 20
86.219647634129373
 30
0.0
 11
31.98504001435046
 21
82.719647634129274
 31
0.0
  0
LINE
  5
C246
  8
1
 10
33.735040014350538
 20
86.219647634129373
 30
0.0
 11
33.735040014350538
 21
82.719647634129217
 31
0.0
  0
LINE
  5
C247
  8
1
 10
46.235040014350901
 20
86.219647634129373
 30
0.0
 11
46.235040014350901
 21
82.719647634129146
 31
0.0
  0
LINE
  5
C248
  8
1
 10
47.985040014350943
 20
86.219647634129373
 30
0.0
 11
47.985040014350943
 21
82.719647634129146
 31
0.0
  0
LINE
  5
C24D
  8
1
 10
223.72504001435061
 20
86.219647634129373
 30
0.0
 11
223.72504001435061
 21
82.719647634129274
 31
0.0
  0
LINE
  5
C24E
  8
1
 10
225.4750400143507
 20
86.219647634129373
 30
0.0
 11
225.4750400143507
 21
82.719647634129217
 31
0.0
  0
LINE
  5
C24F
  8
1
 10
237.97504001435101
 20
86.219647634129373
 30
0.0
 11
237.97504001435101
 21
82.719647634129146
 31
0.0
  0
LINE
  5
C250
  8
1
 10
239.72504001435109
 20
86.219647634129373
 30
0.0
 11
239.72504001435109
 21
82.719647634129146
 31
0.0
  0
TEXT
  5
C317
  8
0
 62
     3
 10
0.0
 20
0.0
 30
0.0
 40
10.0
  1
TCDHF04080
  7
STANDARD1
  0
ENDSEC
  0
EOF
