  0
SECTION
  2
HEADER
  9
$ACADVER
  1
AC1009
  9
$INSBASE
 10
0.0
 20
0.0
 30
0.0
  9
$EXTMIN
 10
0.0
 20
-2.960436562073669
 30
0.0
  9
$EXTMAX
 10
229.4687952111785
 20
213.2116391048842
 30
0.0
  9
$LIMMIN
 10
0.0
 20
0.0
  9
$LIMMAX
 10
420.0
 20
297.0
  9
$ORTHOMODE
 70
     1
  9
$REGENMODE
 70
     1
  9
$FILLMODE
 70
     1
  9
$QTEXTMODE
 70
     0
  9
$MIRRTEXT
 70
     0
  9
$DRAGMODE
 70
     2
  9
$LTSCALE
 40
5.0
  9
$OSMODE
 70
    37
  9
$ATTMODE
 70
     1
  9
$TEXTSIZE
 40
2.5
  9
$TRACEWID
 40
1.0
  9
$TEXTSTYLE
  7
STANDARD
  9
$CLAYER
  8
0
  9
$CELTYPE
  6
BYLAYER
  9
$CECOLOR
 62
   256
  9
$DIMSCALE
 40
1.0
  9
$DIMASZ
 40
2.5
  9
$DIMEXO
 40
0.625
  9
$DIMDLI
 40
3.75
  9
$DIMRND
 40
0.0
  9
$DIMDLE
 40
0.0
  9
$DIMEXE
 40
1.25
  9
$DIMTP
 40
0.0
  9
$DIMTM
 40
0.0
  9
$DIMTXT
 40
2.5
  9
$DIMCEN
 40
2.5
  9
$DIMTSZ
 40
0.0
  9
$DIMTOL
 70
     0
  9
$DIMLIM
 70
     0
  9
$DIMTIH
 70
     0
  9
$DIMTOH
 70
     0
  9
$DIMSE1
 70
     0
  9
$DIMSE2
 70
     0
  9
$DIMTAD
 70
     1
  9
$DIMZIN
 70
     8
  9
$DIMBLK
  1

  9
$DIMASO
 70
     1
  9
$DIMSHO
 70
     1
  9
$DIMPOST
  1

  9
$DIMAPOST
  1

  9
$DIMALT
 70
     0
  9
$DIMALTD
 70
     3
  9
$DIMALTF
 40
0.03937007874016
  9
$DIMLFAC
 40
1.0
  9
$DIMTOFL
 70
     1
  9
$DIMTVP
 40
0.0
  9
$DIMTIX
 70
     0
  9
$DIMSOXD
 70
     0
  9
$DIMSAH
 70
     0
  9
$DIMBLK1
  1

  9
$DIMBLK2
  1

  9
$DIMSTYLE
  2
ISO-25
  9
$DIMCLRD
 70
     0
  9
$DIMCLRE
 70
     0
  9
$DIMCLRT
 70
     0
  9
$DIMTFAC
 40
1.0
  9
$DIMGAP
 40
0.625
  9
$LUNITS
 70
     2
  9
$LUPREC
 70
     4
  9
$SKETCHINC
 40
1.0
  9
$FILLETRAD
 40
0.0
  9
$AUNITS
 70
     0
  9
$AUPREC
 70
     0
  9
$MENU
  1
.
  9
$ELEVATION
 40
0.0
  9
$PELEVATION
 40
0.0
  9
$THICKNESS
 40
0.0
  9
$LIMCHECK
 70
     0
  9
$BLIPMODE
 70
     0
  9
$CHAMFERA
 40
0.0
  9
$CHAMFERB
 40
0.0
  9
$SKPOLY
 70
     0
  9
$TDCREATE
 40
2454979.4917406249
  9
$TDUPDATE
 40
2456776.587808623
  9
$TDINDWG
 40
0.2169704051
  9
$TDUSRTIMER
 40
0.2169702315
  9
$USRTIMER
 70
     1
  9
$ANGBASE
 50
0.0
  9
$ANGDIR
 70
     0
  9
$PDMODE
 70
     0
  9
$PDSIZE
 40
0.0
  9
$PLINEWID
 40
0.0
  9
$COORDS
 70
     1
  9
$SPLFRAME
 70
     0
  9
$SPLINETYPE
 70
     6
  9
$SPLINESEGS
 70
     8
  9
$ATTDIA
 70
     0
  9
$ATTREQ
 70
     1
  9
$HANDLING
 70
     1
  9
$HANDSEED
  5
167F
  9
$SURFTAB1
 70
     6
  9
$SURFTAB2
 70
     6
  9
$SURFTYPE
 70
     6
  9
$SURFU
 70
     6
  9
$SURFV
 70
     6
  9
$UCSNAME
  2

  9
$UCSORG
 10
0.0
 20
0.0
 30
0.0
  9
$UCSXDIR
 10
1.0
 20
0.0
 30
0.0
  9
$UCSYDIR
 10
0.0
 20
1.0
 30
0.0
  9
$PUCSNAME
  2

  9
$PUCSORG
 10
0.0
 20
0.0
 30
0.0
  9
$PUCSXDIR
 10
1.0
 20
0.0
 30
0.0
  9
$PUCSYDIR
 10
0.0
 20
1.0
 30
0.0
  9
$USERI1
 70
     0
  9
$USERI2
 70
     0
  9
$USERI3
 70
     0
  9
$USERI4
 70
     0
  9
$USERI5
 70
     0
  9
$USERR1
 40
0.0
  9
$USERR2
 40
0.0
  9
$USERR3
 40
0.0
  9
$USERR4
 40
0.0
  9
$USERR5
 40
0.0
  9
$WORLDVIEW
 70
     1
  9
$SHADEDGE
 70
     3
  9
$SHADEDIF
 70
    70
  9
$TILEMODE
 70
     1
  9
$MAXACTVP
 70
    64
  9
$PLIMCHECK
 70
     0
  9
$PEXTMIN
 10
0.0
 20
0.0
 30
0.0
  9
$PEXTMAX
 10
0.0
 20
0.0
 30
0.0
  9
$PLIMMIN
 10
0.0
 20
0.0
  9
$PLIMMAX
 10
12.0
 20
9.0
  9
$UNITMODE
 70
     0
  9
$VISRETAIN
 70
     1
  9
$PLINEGEN
 70
     0
  9
$PSLTSCALE
 70
     1
  0
ENDSEC
  0
SECTION
  2
TABLES
  0
TABLE
  2
VPORT
 70
     1
  0
VPORT
  2
*ACTIVE
 70
     0
 10
0.0
 20
0.0
 11
1.0
 21
1.0
 12
235.63977746870651
 22
135.0
 13
0.0
 23
0.0
 14
10.0
 24
10.0
 15
10.0
 25
10.0
 16
0.0
 26
0.0
 36
1.0
 17
0.0
 27
0.0
 37
0.0
 40
270.0
 41
1.7454798331015291
 42
50.0
 43
0.0
 44
0.0
 50
0.0
 51
0.0
 71
     0
 72
  1000
 73
     1
 74
     3
 75
     0
 76
     0
 77
     0
 78
     0
  0
ENDTAB
  0
TABLE
  2
LTYPE
 70
     3
  0
LTYPE
  2
CONTINUOUS
 70
     0
  3
Solid line
 72
    65
 73
     0
 40
0.0
  0
LTYPE
  2
CENTER
 70
     0
  3
____ _ ____ _ ____ _ ____ _ ____ _ ____ _ ____
 72
    65
 73
     4
 40
2.0
 49
1.25
 49
-0.25
 49
0.25
 49
-0.25
  0
LTYPE
  2
HIDDEN
 70
     0
  3
_ _ _ _ _ _ _ _ _ _ _ _ _ _ _ _ _ _ _ _ _ _ _
 72
    65
 73
     2
 40
0.375
 49
0.25
 49
-0.125
  0
ENDTAB
  0
TABLE
  2
LAYER
 70
     3
  0
LAYER
  2
0
 70
     0
 62
     7
  6
CONTINUOUS
  0
LAYER
  2
1
 70
     0
 62
     1
  6
CENTER
  0
LAYER
  2
2
 70
     0
 62
     2
  6
HIDDEN
  0
ENDTAB
  0
TABLE
  2
STYLE
 70
     2
  0
STYLE
  2
STANDARD
 70
     0
 40
0.0
 41
1.0
 50
0.0
 71
     0
 42
2.5
  3
txt
  4

  0
STYLE
  2
STANDARD1
 70
     0
 40
0.0
 41
1.0
 50
0.0
 71
     0
 42
3.0
  3
txt
  4

  0
ENDTAB
  0
TABLE
  2
VIEW
 70
     0
  0
ENDTAB
  0
TABLE
  2
UCS
 70
     0
  0
ENDTAB
  0
TABLE
  2
APPID
 70
     5
  0
APPID
  2
ACAD
 70
     0
  0
APPID
  2
ACAD_MLEADERVER
 70
     0
  0
APPID
  2
ACAD_NAV_VCDISPLAY
 70
     0
  0
APPID
  2
ACAD_EXEMPT_FROM_CAD_STANDARDS
 70
     0
  0
APPID
  2
ACADANNOTATIVE
 70
     0
  0
ENDTAB
  0
TABLE
  2
DIMSTYLE
 70
     2
  0
DIMSTYLE
  2
ISO-25
 70
     0
  3

  4

  5

  6

  7

 40
1.0
 41
2.5
 42
0.625
 43
3.75
 44
1.25
 45
0.0
 46
0.0
 47
0.0
 48
0.0
140
2.5
141
2.5
142
0.0
143
0.03937007874016
144
1.0
145
0.0
146
1.0
147
0.625
 71
     0
 72
     0
 73
     0
 74
     0
 75
     0
 76
     0
 77
     1
 78
     8
170
     0
171
     3
172
     1
173
     0
174
     0
175
     0
176
     0
177
     0
178
     0
  0
DIMSTYLE
  2
STANDARD
 70
     0
  3

  4

  5

  6

  7

 40
1.0
 41
0.18
 42
0.0625
 43
0.38
 44
0.18
 45
0.0
 46
0.0
 47
0.0
 48
0.0
140
0.18
141
0.09
142
0.0
143
25.399999999999999
144
1.0
145
0.0
146
1.0
147
0.09
 71
     0
 72
     0
 73
     1
 74
     1
 75
     0
 76
     0
 77
     0
 78
     0
170
     0
171
     2
172
     0
173
     0
174
     0
175
     0
176
     0
177
     0
178
     0
  0
ENDTAB
  0
ENDSEC
  0
SECTION
  2
BLOCKS
  0
BLOCK
  8
0
  2
$MODEL_SPACE
 70
     0
 10
0.0
 20
0.0
 30
0.0
  3
$MODEL_SPACE
  1

  0
ENDBLK
  5
21
  8
0
  0
BLOCK
 67
     1
  8
0
  2
$PAPER_SPACE
 70
     0
 10
0.0
 20
0.0
 30
0.0
  3
$PAPER_SPACE
  1

  0
ENDBLK
  5
53
 67
     1
  8
0
  0
ENDSEC
  0
SECTION
  2
ENTITIES
  0
TEXT
  5
749
  8
0
 62
     3
 10
0.0
 20
0.0
 30
0.0
 40
10.0
  1
TBKM16
  7
STANDARD1
  0
LINE
  5
105E
  8
1
 10
90.368795211178437
 20
179.2116391048842
 30
0.0
 11
90.368795211178437
 21
213.2116391048842
 31
0.0
  0
LINE
  5
105F
  8
1
 10
25.368795211178451
 20
196.21163910488411
 30
0.0
 11
155.36879521117839
 21
196.21163910488411
 31
0.0
  0
ARC
  5
1060
  8
0
 10
31.668795211178409
 20
188.4116391048841
 30
0.0
 40
1.299999999999975
 50
180.0
 51
270.0
  0
ARC
  5
1061
  8
0
 10
31.668795211178409
 20
204.01163910488421
 30
0.0
 40
1.2999999999999781
 50
90.0
 51
180.0
  0
LINE
  5
1062
  8
0
 10
40.96879521117841
 20
205.31163910488411
 30
0.0
 11
31.668795211178409
 21
205.31163910488411
 31
0.0
  0
LINE
  5
1063
  8
0
 10
31.668795211178409
 20
187.11163910488409
 30
0.0
 11
40.96879521117841
 21
187.11163910488409
 31
0.0
  0
ARC
  5
1064
  8
0
 10
40.96879521117841
 20
188.4116391048841
 30
0.0
 40
1.299999999999996
 50
270.0
 51
0.0
  0
ARC
  5
1065
  8
0
 10
40.96879521117841
 20
204.01163910488421
 30
0.0
 40
1.2999999999999949
 50
0.0
 51
90.0
  0
LINE
  5
1066
  8
0
 10
138.46879521117839
 20
202.7116391048842
 30
0.0
 11
100.4559157120944
 21
202.7116391048842
 31
0.0
  0
LINE
  5
1067
  8
0
 10
100.4559157120944
 20
189.71163910488411
 30
0.0
 11
138.46879521117839
 21
189.71163910488411
 31
0.0
  0
ARC
  5
1068
  8
0
 10
139.7687952111784
 20
188.4116391048841
 30
0.0
 40
1.299999999999996
 50
180.0
 51
270.0
  0
ARC
  5
1069
  8
0
 10
139.7687952111784
 20
204.01163910488421
 30
0.0
 40
1.2999999999999921
 50
90.0
 51
180.0
  0
LINE
  5
106A
  8
0
 10
149.06879521117841
 20
205.31163910488411
 30
0.0
 11
139.7687952111784
 21
205.31163910488411
 31
0.0
  0
LINE
  5
106B
  8
0
 10
139.7687952111784
 20
187.11163910488409
 30
0.0
 11
149.06879521117841
 21
187.11163910488409
 31
0.0
  0
ARC
  5
106C
  8
0
 10
149.06879521117841
 20
188.4116391048841
 30
0.0
 40
1.2999999999999921
 50
270.0
 51
0.0
  0
ARC
  5
106D
  8
0
 10
149.06879521117841
 20
204.01163910488421
 30
0.0
 40
1.299999999999996
 50
0.0
 51
90.0
  0
LINE
  5
106E
  8
0
 10
80.28167471026245
 20
202.7116391048842
 30
0.0
 11
42.268795211178428
 21
202.7116391048842
 31
0.0
  0
LINE
  5
106F
  8
0
 10
42.268795211178428
 20
189.7116391048842
 30
0.0
 11
80.28167471026245
 21
189.71163910488411
 31
0.0
  0
CIRCLE
  5
1072
  8
0
 10
90.368795211178437
 20
196.21163910488411
 30
0.0
 40
12.0
  0
LINE
  5
1073
  8
0
 10
30.368795211178451
 20
188.4116391048841
 30
0.0
 11
30.368795211178451
 21
204.01163910488421
 31
0.0
  0
LINE
  5
1076
  8
0
 10
42.268795211178428
 20
188.4116391048841
 30
0.0
 11
42.268795211178428
 21
204.01163910488421
 31
0.0
  0
LINE
  5
1077
  8
0
 10
138.46879521117839
 20
188.4116391048841
 30
0.0
 11
138.46879521117839
 21
204.01163910488421
 31
0.0
  0
LINE
  5
107A
  8
0
 10
150.36879521117839
 20
188.4116391048841
 30
0.0
 11
150.36879521117839
 21
204.01163910488421
 31
0.0
  0
LINE
  5
1092
  8
2
 10
222.2862952111785
 20
90.511639104884168
 30
0.0
 11
215.36879521117851
 21
94.505459592003405
 31
0.0
  0
LINE
  5
1093
  8
2
 10
215.36879521117851
 20
94.505459592003405
 30
0.0
 11
208.4512952111784
 21
90.511639104884168
 31
0.0
  0
LINE
  5
1094
  8
2
 10
222.2862952111785
 20
47.294139104884167
 30
0.0
 11
222.2862952111785
 21
90.511639104884168
 31
0.0
  0
LINE
  5
1095
  8
2
 10
208.4512952111784
 20
90.511639104884168
 30
0.0
 11
208.4512952111784
 21
47.294139104884167
 31
0.0
  0
LINE
  5
1096
  8
2
 10
223.36879521117851
 20
46.211639104884171
 30
0.0
 11
222.2862952111785
 21
47.294139104884167
 31
0.0
  0
LINE
  5
1097
  8
2
 10
208.4512952111784
 20
47.294139104884167
 30
0.0
 11
207.36879521117851
 21
46.211639104884171
 31
0.0
  0
LINE
  5
1098
  8
2
 10
208.4512952111784
 20
90.511639104884168
 30
0.0
 11
222.2862952111785
 21
90.511639104884168
 31
0.0
  0
LINE
  5
1099
  8
2
 10
208.4512952111784
 20
47.294139104884167
 30
0.0
 11
222.2862952111785
 21
47.294139104884167
 31
0.0
  0
LINE
  5
1120
  8
2
 10
223.36879521117851
 20
46.211639104884171
 30
0.0
 11
223.36879521117851
 21
81.211639104884185
 31
0.0
  0
LINE
  5
1121
  8
2
 10
223.36879521117851
 20
81.211639104884185
 30
0.0
 11
207.36879521117851
 21
81.211639104884185
 31
0.0
  0
LINE
  5
1122
  8
2
 10
207.36879521117851
 20
46.211639104884171
 30
0.0
 11
207.36879521117851
 21
81.211639104884185
 31
0.0
  0
LINE
  5
1123
  8
1
 10
201.2687952111784
 20
118.2116391048841
 30
0.0
 11
229.4687952111785
 21
118.2116391048841
 31
0.0
  0
LINE
  5
1124
  8
1
 10
215.36879521117851
 20
136.2116391048842
 30
0.0
 11
215.36879521117851
 21
41.211639104884171
 31
0.0
  0
LINE
  5
1125
  8
0
 10
227.36879521117851
 20
130.25163910488411
 30
0.0
 11
226.40879521117839
 21
131.2116391048842
 31
0.0
  0
LINE
  5
1126
  8
0
 10
204.3287952111784
 20
131.2116391048842
 30
0.0
 11
203.36879521117839
 21
130.25163910488411
 31
0.0
  0
LINE
  5
1127
  8
0
 10
226.40879521117839
 20
46.211639104884178
 30
0.0
 11
227.36879521117851
 21
47.171639104884157
 31
0.0
  0
LINE
  5
1128
  8
0
 10
203.36879521117839
 20
47.171639104884157
 30
0.0
 11
204.3287952111784
 21
46.211639104884178
 31
0.0
  0
LINE
  5
1129
  8
0
 10
227.36879521117851
 20
47.171639104884157
 30
0.0
 11
227.36879521117851
 21
130.25163910488411
 31
0.0
  0
LINE
  5
112A
  8
0
 10
203.36879521117839
 20
130.25163910488411
 30
0.0
 11
203.36879521117839
 21
47.171639104884157
 31
0.0
  0
LINE
  5
112B
  8
0
 10
204.3287952111784
 20
131.2116391048842
 30
0.0
 11
226.40879521117839
 21
131.2116391048842
 31
0.0
  0
LINE
  5
112C
  8
0
 10
204.3287952111784
 20
46.211639104884171
 30
0.0
 11
226.40879521117839
 21
46.211639104884171
 31
0.0
  0
LINE
  5
112D
  8
0
 10
203.36879521117839
 20
130.25163910488411
 30
0.0
 11
227.36879521117851
 21
130.25163910488411
 31
0.0
  0
LINE
  5
112E
  8
0
 10
203.36879521117839
 20
47.171639104884157
 30
0.0
 11
227.36879521117851
 21
47.171639104884157
 31
0.0
  0
CIRCLE
  5
112F
  8
0
 10
215.36879521117851
 20
118.2116391048841
 30
0.0
 40
9.0999999999999943
  0
LINE
  5
1149
  8
2
 10
97.286295211178469
 20
90.511639104884168
 30
0.0
 11
90.368795211178437
 21
94.505459592003405
 31
0.0
  0
LINE
  5
114A
  8
2
 10
90.368795211178437
 20
94.505459592003405
 30
0.0
 11
83.451295211178433
 21
90.511639104884168
 31
0.0
  0
LINE
  5
114B
  8
2
 10
97.286295211178469
 20
47.294139104884167
 30
0.0
 11
97.286295211178469
 21
90.511639104884168
 31
0.0
  0
LINE
  5
114C
  8
2
 10
83.451295211178433
 20
90.511639104884168
 30
0.0
 11
83.451295211178433
 21
47.294139104884167
 31
0.0
  0
LINE
  5
114D
  8
2
 10
98.368795211178451
 20
46.211639104884171
 30
0.0
 11
97.286295211178469
 21
47.294139104884167
 31
0.0
  0
LINE
  5
114E
  8
2
 10
83.451295211178433
 20
47.294139104884167
 30
0.0
 11
82.368795211178451
 21
46.211639104884171
 31
0.0
  0
LINE
  5
1157
  8
2
 10
83.451295211178433
 20
90.511639104884168
 30
0.0
 11
97.286295211178469
 21
90.511639104884168
 31
0.0
  0
LINE
  5
1158
  8
2
 10
83.451295211178433
 20
47.294139104884167
 30
0.0
 11
97.286295211178469
 21
47.294139104884167
 31
0.0
  0
LINE
  5
115B
  8
2
 10
98.368795211178451
 20
46.211639104884171
 30
0.0
 11
98.368795211178451
 21
81.211639104884185
 31
0.0
  0
LINE
  5
115C
  8
2
 10
98.368795211178451
 20
81.211639104884185
 30
0.0
 11
82.368795211178451
 21
81.211639104884185
 31
0.0
  0
LINE
  5
115D
  8
2
 10
82.368795211178451
 20
46.211639104884171
 30
0.0
 11
82.368795211178451
 21
81.211639104884185
 31
0.0
  0
LINE
  5
115E
  8
1
 10
90.368795211178508
 20
136.21163910488411
 30
0.0
 11
90.368795211178394
 21
41.211639104884171
 31
0.0
  0
LINE
  5
115F
  8
1
 10
25.368795211178451
 20
118.2116391048841
 30
0.0
 11
155.36879521117839
 21
118.2116391048841
 31
0.0
  0
LINE
  5
1160
  8
0
 10
102.36879521117839
 20
130.25163910488411
 30
0.0
 11
101.4087952111784
 21
131.2116391048842
 31
0.0
  0
LINE
  5
1161
  8
0
 10
79.328795211178431
 20
131.2116391048842
 30
0.0
 11
78.368795211178451
 21
130.25163910488411
 31
0.0
  0
LINE
  5
1162
  8
0
 10
101.4087952111784
 20
46.211639104884178
 30
0.0
 11
102.36879521117839
 21
47.171639104884157
 31
0.0
  0
LINE
  5
1163
  8
0
 10
78.368795211178451
 20
47.171639104884157
 30
0.0
 11
79.328795211178431
 21
46.211639104884178
 31
0.0
  0
LINE
  5
1164
  8
0
 10
102.36879521117839
 20
124.7116391048841
 30
0.0
 11
102.36879521117839
 21
130.25163910488411
 31
0.0
  0
LINE
  5
1165
  8
0
 10
102.36879521117839
 20
47.171639104884157
 30
0.0
 11
102.36879521117839
 21
111.7116391048841
 31
0.0
  0
LINE
  5
1166
  8
0
 10
78.368795211178451
 20
111.7116391048841
 30
0.0
 11
78.368795211178451
 21
47.171639104884157
 31
0.0
  0
LINE
  5
1167
  8
0
 10
78.368795211178451
 20
130.25163910488411
 30
0.0
 11
78.368795211178451
 21
124.7116391048841
 31
0.0
  0
ARC
  5
1168
  8
0
 10
31.668795211178409
 20
110.4116391048841
 30
0.0
 40
1.2999999999999721
 50
180.0
 51
270.0
  0
ARC
  5
1169
  8
0
 10
31.668795211178409
 20
126.0116391048841
 30
0.0
 40
1.299999999999996
 50
90.0
 51
180.0
  0
LINE
  5
116A
  8
0
 10
40.96879521117841
 20
127.31163910488409
 30
0.0
 11
31.668795211178409
 21
127.31163910488409
 31
0.0
  0
LINE
  5
116B
  8
0
 10
31.668795211178409
 20
109.11163910488411
 30
0.0
 11
40.96879521117841
 21
109.11163910488411
 31
0.0
  0
ARC
  5
116C
  8
0
 10
40.96879521117841
 20
110.4116391048842
 30
0.0
 40
1.299999999999996
 50
270.0
 51
0.0
  0
ARC
  5
116D
  8
0
 10
40.96879521117841
 20
126.0116391048842
 30
0.0
 40
1.2999999999999849
 50
0.0
 51
90.0
  0
LINE
  5
116E
  8
0
 10
138.46879521117839
 20
124.7116391048841
 30
0.0
 11
102.36879521117849
 21
124.7116391048841
 31
0.0
  0
LINE
  5
116F
  8
0
 10
102.36879521117839
 20
111.7116391048841
 30
0.0
 11
138.46879521117839
 21
111.7116391048841
 31
0.0
  0
ARC
  5
1170
  8
0
 10
139.7687952111784
 20
110.4116391048841
 30
0.0
 40
1.299999999999996
 50
180.0
 51
270.0
  0
ARC
  5
1171
  8
0
 10
139.7687952111784
 20
126.0116391048841
 30
0.0
 40
1.299999999999996
 50
90.0
 51
180.0
  0
LINE
  5
1172
  8
0
 10
149.06879521117841
 20
127.31163910488409
 30
0.0
 11
139.7687952111784
 21
127.31163910488409
 31
0.0
  0
LINE
  5
1173
  8
0
 10
139.7687952111784
 20
109.11163910488411
 30
0.0
 11
149.06879521117841
 21
109.11163910488411
 31
0.0
  0
ARC
  5
1174
  8
0
 10
149.06879521117841
 20
110.4116391048841
 30
0.0
 40
1.2999999999999821
 50
270.0
 51
0.0
  0
ARC
  5
1175
  8
0
 10
149.06879521117841
 20
126.0116391048841
 30
0.0
 40
1.299999999999996
 50
0.0
 51
90.0
  0
LINE
  5
1176
  8
0
 10
78.368795211178451
 20
124.7116391048841
 30
0.0
 11
42.268795211178428
 21
124.7116391048841
 31
0.0
  0
LINE
  5
1177
  8
0
 10
42.268795211178428
 20
111.7116391048841
 30
0.0
 11
78.368795211178451
 21
111.7116391048841
 31
0.0
  0
LINE
  5
1178
  8
0
 10
79.328795211178431
 20
131.2116391048842
 30
0.0
 11
101.4087952111784
 21
131.2116391048842
 31
0.0
  0
LINE
  5
1179
  8
0
 10
79.328795211178431
 20
46.211639104884171
 30
0.0
 11
101.4087952111784
 21
46.211639104884171
 31
0.0
  0
LINE
  5
117A
  8
0
 10
78.368795211178451
 20
130.25163910488411
 30
0.0
 11
102.36879521117839
 21
130.25163910488411
 31
0.0
  0
LINE
  5
117B
  8
0
 10
78.368795211178451
 20
47.171639104884157
 30
0.0
 11
102.36879521117839
 21
47.171639104884157
 31
0.0
  0
LINE
  5
117C
  8
0
 10
30.368795211178451
 20
110.4116391048842
 30
0.0
 11
30.368795211178451
 21
126.0116391048841
 31
0.0
  0
LINE
  5
117F
  8
0
 10
42.268795211178428
 20
110.4116391048842
 30
0.0
 11
42.268795211178428
 21
126.0116391048841
 31
0.0
  0
POLYLINE
  5
1180
  8
0
 66
     1
 10
0.0
 20
0.0
 30
0.0
 70
     8
  0
VERTEX
  5
1181
  8
0
 10
100.4559157120944
 20
118.2116391048841
 30
0.0
 70
    32
  0
VERTEX
  5
1182
  8
0
 10
100.45602290021731
 20
118.25814126089099
 30
0.0
 70
    32
  0
VERTEX
  5
1183
  8
0
 10
100.4568836411384
 20
118.3513823361811
 30
0.0
 70
    32
  0
VERTEX
  5
1184
  8
0
 10
100.4586125509534
 20
118.4449070838766
 30
0.0
 70
    32
  0
VERTEX
  5
1185
  8
0
 10
100.4598045645846
 20
118.49176366741089
 30
0.0
 70
    32
  0
VERTEX
  5
1186
  8
0
 10
100.46121580566999
 20
118.53867649742079
 30
0.0
 70
    32
  0
VERTEX
  5
1187
  8
0
 10
100.4646978982348
 20
118.6326510601928
 30
0.0
 70
    32
  0
VERTEX
  5
1188
  8
0
 10
100.46906161368381
 20
118.7267909286978
 30
0.0
 70
    32
  0
VERTEX
  5
1189
  8
0
 10
100.4743080180414
 20
118.8210561129102
 30
0.0
 70
    32
  0
VERTEX
  5
118A
  8
0
 10
100.4804364608457
 20
118.91540665313531
 30
0.0
 70
    32
  0
VERTEX
  5
118B
  8
0
 10
100.4874445910436
 20
119.00980279276089
 30
0.0
 70
    32
  0
VERTEX
  5
118C
  8
0
 10
100.4912773460555
 20
119.05700563539359
 30
0.0
 70
    32
  0
VERTEX
  5
118D
  8
0
 10
100.49532838587599
 20
119.1042051462787
 30
0.0
 70
    32
  0
VERTEX
  5
118E
  8
0
 10
100.50408219224759
 20
119.1985748619777
 30
0.0
 70
    32
  0
VERTEX
  5
118F
  8
0
 10
100.5136987799625
 20
119.29287377873101
 30
0.0
 70
    32
  0
VERTEX
  5
1190
  8
0
 10
100.5241694061025
 20
119.38706457633219
 30
0.0
 70
    32
  0
VERTEX
  5
1191
  8
0
 10
100.5354838897253
 20
119.48111091886589
 30
0.0
 70
    32
  0
VERTEX
  5
1192
  8
0
 10
100.5476306817058
 20
119.5749774840352
 30
0.0
 70
    32
  0
VERTEX
  5
1193
  8
0
 10
100.5540122019067
 20
119.62183240660529
 30
0.0
 70
    32
  0
VERTEX
  5
1194
  8
0
 10
100.56059682854971
 20
119.6686292242233
 30
0.0
 70
    32
  0
VERTEX
  5
1195
  8
0
 10
100.5743679397542
 20
119.7620308999639
 30
0.0
 70
    32
  0
VERTEX
  5
1196
  8
0
 10
100.5889282293946
 20
119.8551472156135
 30
0.0
 70
    32
  0
VERTEX
  5
1197
  8
0
 10
100.5964990143908
 20
119.9015873544603
 30
0.0
 70
    32
  0
VERTEX
  5
1198
  8
0
 10
100.6042605693268
 20
119.9479429659219
 30
0.0
 70
    32
  0
VERTEX
  5
1199
  8
0
 10
100.620346550363
 20
120.0403831711596
 30
0.0
 70
    32
  0
VERTEX
  5
119A
  8
0
 10
100.6371665503886
 20
120.1324332010624
 30
0.0
 70
    32
  0
VERTEX
  5
119B
  8
0
 10
100.6458453620687
 20
120.1783012019192
 30
0.0
 70
    32
  0
VERTEX
  5
119C
  8
0
 10
100.6546998084098
 20
120.2240588879675
 30
0.0
 70
    32
  0
VERTEX
  5
119D
  8
0
 10
100.6729245035619
 20
120.3152266296037
 30
0.0
 70
    32
  0
VERTEX
  5
119E
  8
0
 10
100.6918178381525
 20
120.40590348207721
 30
0.0
 70
    32
  0
VERTEX
  5
119F
  8
0
 10
100.711356123869
 20
120.49605724364829
 30
0.0
 70
    32
  0
VERTEX
  5
11A0
  8
0
 10
100.73151487034301
 20
120.5856565299333
 30
0.0
 70
    32
  0
VERTEX
  5
11A1
  8
0
 10
100.75226887532691
 20
120.67467084119301
 30
0.0
 70
    32
  0
VERTEX
  5
11A2
  8
0
 10
100.762861051816
 20
120.7189493568294
 30
0.0
 70
    32
  0
VERTEX
  5
11A3
  8
0
 10
100.7735928899742
 20
120.7630729638495
 30
0.0
 70
    32
  0
VERTEX
  5
11A4
  8
0
 10
100.79546503828369
 20
120.850851806329
 30
0.0
 70
    32
  0
VERTEX
  5
11A5
  8
0
 10
100.81785975476861
 20
120.9379827802328
 30
0.0
 70
    32
  0
VERTEX
  5
11A6
  8
0
 10
100.8407500004535
 20
121.0244379083221
 30
0.0
 70
    32
  0
VERTEX
  5
11A7
  8
0
 10
100.864108180831
 20
121.1101894892933
 30
0.0
 70
    32
  0
VERTEX
  5
11A8
  8
0
 10
100.8879062151927
 20
121.19521017237599
 30
0.0
 70
    32
  0
VERTEX
  5
11A9
  8
0
 10
100.8999612867117
 20
121.23743799285771
 30
0.0
 70
    32
  0
VERTEX
  5
11AA
  8
0
 10
100.91211560681231
 20
121.2794730255828
 30
0.0
 70
    32
  0
VERTEX
  5
11AB
  8
0
 10
100.9367075135667
 20
121.36295159827
 30
0.0
 70
    32
  0
VERTEX
  5
11AC
  8
0
 10
100.961652818641
 20
121.4456199786644
 30
0.0
 70
    32
  0
VERTEX
  5
11AD
  8
0
 10
100.9869222010181
 20
121.5274528469936
 30
0.0
 70
    32
  0
VERTEX
  5
11AE
  8
0
 10
101.01248620550869
 20
121.60842552483869
 30
0.0
 70
    32
  0
VERTEX
  5
11AF
  8
0
 10
101.03831531211959
 20
121.68851402129791
 30
0.0
 70
    32
  0
VERTEX
  5
11B0
  8
0
 10
101.0513200528913
 20
121.7282194031019
 30
0.0
 70
    32
  0
VERTEX
  5
11B1
  8
0
 10
101.0643800046052
 20
121.7676950765167
 30
0.0
 70
    32
  0
VERTEX
  5
11B2
  8
0
 10
101.0906508380825
 20
121.8459462031047
 30
0.0
 70
    32
  0
VERTEX
  5
11B3
  8
0
 10
101.11709849981899
 20
121.9232457091193
 30
0.0
 70
    32
  0
VERTEX
  5
11B4
  8
0
 10
101.1436937853363
 20
121.9995724838375
 30
0.0
 70
    32
  0
VERTEX
  5
11B5
  8
0
 10
101.1704075461563
 20
122.0749057323829
 30
0.0
 70
    32
  0
VERTEX
  5
11B6
  8
0
 10
101.1972107338791
 20
122.1492250064569
 30
0.0
 70
    32
  0
VERTEX
  5
11B7
  8
0
 10
101.2106368268515
 20
122.18599812481931
 30
0.0
 70
    32
  0
VERTEX
  5
11B8
  8
0
 10
101.2240744582197
 20
122.2225102735013
 30
0.0
 70
    32
  0
VERTEX
  5
11B9
  8
0
 10
101.2509700450204
 20
122.2947419831256
 30
0.0
 70
    32
  0
VERTEX
  5
11BA
  8
0
 10
101.2778690940866
 20
122.3659011311349
 30
0.0
 70
    32
  0
VERTEX
  5
11BB
  8
0
 10
101.3047435367176
 20
122.4359693214821
 30
0.0
 70
    32
  0
VERTEX
  5
11BC
  8
0
 10
101.33156569282809
 20
122.5049288264531
 30
0.0
 70
    32
  0
VERTEX
  5
11BD
  8
0
 10
101.35830832757431
 20
122.5727626453767
 30
0.0
 70
    32
  0
VERTEX
  5
11BE
  8
0
 10
101.37164144910111
 20
122.6062523228329
 30
0.0
 70
    32
  0
VERTEX
  5
11BF
  8
0
 10
101.3849447074125
 20
122.6394545621247
 30
0.0
 70
    32
  0
VERTEX
  5
11C0
  8
0
 10
101.41144865553321
 20
122.7049892016517
 30
0.0
 70
    32
  0
VERTEX
  5
11C1
  8
0
 10
101.43779460662491
 20
122.7693520857984
 30
0.0
 70
    32
  0
VERTEX
  5
11C2
  8
0
 10
101.4509005246486
 20
122.80108985403091
 30
0.0
 70
    32
  0
VERTEX
  5
11C3
  8
0
 10
101.4639795084129
 20
122.8325821460391
 30
0.0
 70
    32
  0
VERTEX
  5
11C4
  8
0
 10
101.4901871244551
 20
122.89515894456611
 30
0.0
 70
    32
  0
VERTEX
  5
11C5
  8
0
 10
101.5164431333957
 20
122.957169022366
 30
0.0
 70
    32
  0
VERTEX
  5
11C6
  8
0
 10
101.5295809308756
 20
122.9879491744877
 30
0.0
 70
    32
  0
VERTEX
  5
11C7
  8
0
 10
101.542720774175
 20
123.0185728975828
 30
0.0
 70
    32
  0
VERTEX
  5
11C8
  8
0
 10
101.5689930876831
 20
123.0793318306898
 30
0.0
 70
    32
  0
VERTEX
  5
11C9
  8
0
 10
101.59523298191419
 20
123.139407871801
 30
0.0
 70
    32
  0
VERTEX
  5
11CA
  8
0
 10
101.62141329625339
 20
123.1987639046617
 30
0.0
 70
    32
  0
VERTEX
  5
11CB
  8
0
 10
101.6475068647985
 20
123.2573636876875
 30
0.0
 70
    32
  0
VERTEX
  5
11CC
  8
0
 10
101.6734865786007
 20
123.3151718923434
 30
0.0
 70
    32
  0
VERTEX
  5
11CD
  8
0
 10
101.6864252990468
 20
123.34376837116579
 30
0.0
 70
    32
  0
VERTEX
  5
11CE
  8
0
 10
101.6993254466979
 20
123.3721541390665
 30
0.0
 70
    32
  0
VERTEX
  5
11CF
  8
0
 10
101.7249966557966
 20
123.42827703086159
 30
0.0
 70
    32
  0
VERTEX
  5
11D0
  8
0
 10
101.75047362843441
 20
123.4835081846157
 30
0.0
 70
    32
  0
VERTEX
  5
11D1
  8
0
 10
101.77573007944
 20
123.53781626010159
 30
0.0
 70
    32
  0
VERTEX
  5
11D2
  8
0
 10
101.8007400704751
 20
123.591170986563
 30
0.0
 70
    32
  0
VERTEX
  5
11D3
  8
0
 10
101.8254780563167
 20
123.6435431738167
 30
0.0
 70
    32
  0
VERTEX
  5
11D4
  8
0
 10
101.8377371624602
 20
123.6693519483626
 30
0.0
 70
    32
  0
VERTEX
  5
11D5
  8
0
 10
101.84991883916911
 20
123.6949045335503
 30
0.0
 70
    32
  0
VERTEX
  5
11D6
  8
0
 10
101.8740374985599
 20
123.74522746067559
 30
0.0
 70
    32
  0
VERTEX
  5
11D7
  8
0
 10
101.89780943385399
 20
123.7944850589345
 30
0.0
 70
    32
  0
VERTEX
  5
11D8
  8
0
 10
101.9212104217045
 20
123.8426511983176
 30
0.0
 70
    32
  0
VERTEX
  5
11D9
  8
0
 10
101.9442166720966
 20
123.88970056967
 30
0.0
 70
    32
  0
VERTEX
  5
11DA
  8
0
 10
101.9668048828068
 20
123.93560873645851
 30
0.0
 70
    32
  0
VERTEX
  5
11DB
  8
0
 10
101.9779350877193
 20
123.9581274824145
 30
0.0
 70
    32
  0
VERTEX
  5
11DC
  8
0
 10
101.9889522920755
 20
123.9803521836152
 30
0.0
 70
    32
  0
VERTEX
  5
11DD
  8
0
 10
102.01063672927179
 20
124.0239083633066
 30
0.0
 70
    32
  0
VERTEX
  5
11DE
  8
0
 10
102.0318366633016
 20
124.0662557374181
 30
0.0
 70
    32
  0
VERTEX
  5
11DF
  8
0
 10
102.0525312484848
 20
124.10737381647439
 30
0.0
 70
    32
  0
VERTEX
  5
11E0
  8
0
 10
102.0727003676012
 20
124.147243194658
 30
0.0
 70
    32
  0
VERTEX
  5
11E1
  8
0
 10
102.09232467177711
 20
124.1858455805197
 30
0.0
 70
    32
  0
VERTEX
  5
11E2
  8
0
 10
102.10192669086319
 20
124.20466624645201
 30
0.0
 70
    32
  0
VERTEX
  5
11E3
  8
0
 10
102.1113861304751
 20
124.2231648261922
 30
0.0
 70
    32
  0
VERTEX
  5
11E4
  8
0
 10
102.12987064931281
 20
124.2591919538874
 30
0.0
 70
    32
  0
VERTEX
  5
11E5
  8
0
 10
102.14776142805211
 20
124.2939121288654
 30
0.0
 70
    32
  0
VERTEX
  5
11E6
  8
0
 10
102.1650415465576
 20
124.3273097635238
 30
0.0
 70
    32
  0
VERTEX
  5
11E7
  8
0
 10
102.1816948377646
 20
124.35937019755571
 30
0.0
 70
    32
  0
VERTEX
  5
11E8
  8
0
 10
102.1977059401548
 20
124.3900797685219
 30
0.0
 70
    32
  0
VERTEX
  5
11E9
  8
0
 10
102.2054661024745
 20
124.4049239997405
 30
0.0
 70
    32
  0
VERTEX
  5
11EA
  8
0
 10
102.21306034677229
 20
124.4194258765318
 30
0.0
 70
    32
  0
VERTEX
  5
11EB
  8
0
 10
102.22774445044701
 20
124.4473970427413
 30
0.0
 70
    32
  0
VERTEX
  5
11EC
  8
0
 10
102.2417455848812
 20
124.4739829613336
 30
0.0
 70
    32
  0
VERTEX
  5
11ED
  8
0
 10
102.2484863467899
 20
124.4867535642008
 30
0.0
 70
    32
  0
VERTEX
  5
11EE
  8
0
 10
102.2550520612503
 20
124.4991745446158
 30
0.0
 70
    32
  0
VERTEX
  5
11EF
  8
0
 10
102.2676531999619
 20
124.5229639608265
 30
0.0
 70
    32
  0
VERTEX
  5
11F0
  8
0
 10
102.2795393572129
 20
124.5453446642146
 30
0.0
 70
    32
  0
VERTEX
  5
11F1
  8
0
 10
102.2852115926123
 20
124.5560050602579
 30
0.0
 70
    32
  0
VERTEX
  5
11F2
  8
0
 10
102.2907019459835
 20
124.5663114169228
 30
0.0
 70
    32
  0
VERTEX
  5
11F3
  8
0
 10
102.3011334511061
 20
124.5858603021788
 30
0.0
 70
    32
  0
VERTEX
  5
11F4
  8
0
 10
102.3108274345726
 20
124.6039887217766
 30
0.0
 70
    32
  0
VERTEX
  5
11F5
  8
0
 10
102.31977848471961
 20
124.62069529159859
 30
0.0
 70
    32
  0
VERTEX
  5
11F6
  8
0
 10
102.32798217118091
 20
124.6359797515414
 30
0.0
 70
    32
  0
VERTEX
  5
11F7
  8
0
 10
102.3354350798469
 20
124.64984302728421
 30
0.0
 70
    32
  0
VERTEX
  5
11F8
  8
0
 10
102.3388792132852
 20
124.65624235236901
 30
0.0
 70
    32
  0
VERTEX
  5
11F9
  8
0
 10
102.3421348521683
 20
124.6622873016547
 30
0.0
 70
    32
  0
VERTEX
  5
11FA
  8
0
 10
102.3480802179474
 20
124.67331607556289
 30
0.0
 70
    32
  0
VERTEX
  5
11FB
  8
0
 10
102.3532710214232
 20
124.68293421841
 30
0.0
 70
    32
  0
VERTEX
  5
11FC
  8
0
 10
102.3577082404842
 20
124.6911480078997
 30
0.0
 70
    32
  0
VERTEX
  5
11FD
  8
0
 10
102.361393998875
 20
124.6979651591819
 30
0.0
 70
    32
  0
VERTEX
  5
11FE
  8
0
 10
102.36433157129311
 20
124.7033948432674
 30
0.0
 70
    32
  0
VERTEX
  5
11FF
  8
0
 10
102.3655211254523
 20
124.7055926512385
 30
0.0
 70
    32
  0
VERTEX
  5
1200
  8
0
 10
102.3665253812959
 20
124.7074476946554
 30
0.0
 70
    32
  0
VERTEX
  5
1201
  8
0
 10
102.367980991967
 20
124.71013580811309
 30
0.0
 70
    32
  0
VERTEX
  5
1202
  8
0
 10
102.3687050893098
 20
124.711472724545
 30
0.0
 70
    32
  0
VERTEX
  5
1203
  8
0
 10
102.36879521117839
 20
124.7116391048841
 30
0.0
 70
    32
  0
SEQEND
  5
1204
  8
0
  0
POLYLINE
  5
1205
  8
0
 66
     1
 10
0.0
 20
0.0
 30
0.0
 70
     8
  0
VERTEX
  5
1206
  8
0
 10
102.36879521117839
 20
111.7116391048841
 30
0.0
 70
    32
  0
VERTEX
  5
1207
  8
0
 10
102.3687050893098
 20
111.71180548522329
 30
0.0
 70
    32
  0
VERTEX
  5
1208
  8
0
 10
102.367980991967
 20
111.7131424016552
 30
0.0
 70
    32
  0
VERTEX
  5
1209
  8
0
 10
102.3665253812959
 20
111.7158305151129
 30
0.0
 70
    32
  0
VERTEX
  5
120A
  8
0
 10
102.3655211254523
 20
111.71768555852979
 30
0.0
 70
    32
  0
VERTEX
  5
120B
  8
0
 10
102.36433157129311
 20
111.71988336650089
 30
0.0
 70
    32
  0
VERTEX
  5
120C
  8
0
 10
102.361393998875
 20
111.72531305058639
 30
0.0
 70
    32
  0
VERTEX
  5
120D
  8
0
 10
102.3577082404842
 20
111.7321302018686
 30
0.0
 70
    32
  0
VERTEX
  5
120E
  8
0
 10
102.3532710214232
 20
111.7403439913583
 30
0.0
 70
    32
  0
VERTEX
  5
120F
  8
0
 10
102.3480802179474
 20
111.7499621342054
 30
0.0
 70
    32
  0
VERTEX
  5
1210
  8
0
 10
102.3421348521683
 20
111.7609909081135
 30
0.0
 70
    32
  0
VERTEX
  5
1211
  8
0
 10
102.3388792132852
 20
111.76703585739931
 30
0.0
 70
    32
  0
VERTEX
  5
1212
  8
0
 10
102.3354350798469
 20
111.77343518248411
 30
0.0
 70
    32
  0
VERTEX
  5
1213
  8
0
 10
102.32798217118091
 20
111.7872984582269
 30
0.0
 70
    32
  0
VERTEX
  5
1214
  8
0
 10
102.31977848471961
 20
111.8025829181698
 30
0.0
 70
    32
  0
VERTEX
  5
1215
  8
0
 10
102.3108274345726
 20
111.8192894879917
 30
0.0
 70
    32
  0
VERTEX
  5
1216
  8
0
 10
102.3011334511061
 20
111.8374179075895
 30
0.0
 70
    32
  0
VERTEX
  5
1217
  8
0
 10
102.2907019459835
 20
111.8569667928455
 30
0.0
 70
    32
  0
VERTEX
  5
1218
  8
0
 10
102.2852115926123
 20
111.8672731495104
 30
0.0
 70
    32
  0
VERTEX
  5
1219
  8
0
 10
102.2795393572129
 20
111.8779335455537
 30
0.0
 70
    32
  0
VERTEX
  5
121A
  8
0
 10
102.2676531999619
 20
111.9003142489418
 30
0.0
 70
    32
  0
VERTEX
  5
121B
  8
0
 10
102.2550520612503
 20
111.9241036651525
 30
0.0
 70
    32
  0
VERTEX
  5
121C
  8
0
 10
102.2484863467899
 20
111.9365246455675
 30
0.0
 70
    32
  0
VERTEX
  5
121D
  8
0
 10
102.2417455848812
 20
111.94929524843469
 30
0.0
 70
    32
  0
VERTEX
  5
121E
  8
0
 10
102.22774445044701
 20
111.975881167027
 30
0.0
 70
    32
  0
VERTEX
  5
121F
  8
0
 10
102.21306034677229
 20
112.00385233323649
 30
0.0
 70
    32
  0
VERTEX
  5
1220
  8
0
 10
102.2054661024745
 20
112.01835421002779
 30
0.0
 70
    32
  0
VERTEX
  5
1221
  8
0
 10
102.1977059401548
 20
112.0331984412464
 30
0.0
 70
    32
  0
VERTEX
  5
1222
  8
0
 10
102.1816948377646
 20
112.06390801221249
 30
0.0
 70
    32
  0
VERTEX
  5
1223
  8
0
 10
102.1650415465576
 20
112.0959684462444
 30
0.0
 70
    32
  0
VERTEX
  5
1224
  8
0
 10
102.14776142805211
 20
112.1293660809029
 30
0.0
 70
    32
  0
VERTEX
  5
1225
  8
0
 10
102.12987064931281
 20
112.1640862558809
 30
0.0
 70
    32
  0
VERTEX
  5
1226
  8
0
 10
102.1113861304751
 20
112.2001133835761
 30
0.0
 70
    32
  0
VERTEX
  5
1227
  8
0
 10
102.10192669086319
 20
112.21861196331631
 30
0.0
 70
    32
  0
VERTEX
  5
1228
  8
0
 10
102.09232467177711
 20
112.2374326292486
 30
0.0
 70
    32
  0
VERTEX
  5
1229
  8
0
 10
102.0727003676012
 20
112.2760350151103
 30
0.0
 70
    32
  0
VERTEX
  5
122A
  8
0
 10
102.0525312484848
 20
112.31590439329391
 30
0.0
 70
    32
  0
VERTEX
  5
122B
  8
0
 10
102.0318366633016
 20
112.3570224723502
 30
0.0
 70
    32
  0
VERTEX
  5
122C
  8
0
 10
102.01063672927179
 20
112.3993698464617
 30
0.0
 70
    32
  0
VERTEX
  5
122D
  8
0
 10
101.9889522920755
 20
112.4429260261531
 30
0.0
 70
    32
  0
VERTEX
  5
122E
  8
0
 10
101.9779350877193
 20
112.4651507273538
 30
0.0
 70
    32
  0
VERTEX
  5
122F
  8
0
 10
101.9668048828068
 20
112.48766947330979
 30
0.0
 70
    32
  0
VERTEX
  5
1230
  8
0
 10
101.9442166720966
 20
112.5335776400983
 30
0.0
 70
    32
  0
VERTEX
  5
1231
  8
0
 10
101.9212104217045
 20
112.5806270114507
 30
0.0
 70
    32
  0
VERTEX
  5
1232
  8
0
 10
101.89780943385399
 20
112.6287931508338
 30
0.0
 70
    32
  0
VERTEX
  5
1233
  8
0
 10
101.8740374985599
 20
112.67805074909271
 30
0.0
 70
    32
  0
VERTEX
  5
1234
  8
0
 10
101.84991883916911
 20
112.728373676218
 30
0.0
 70
    32
  0
VERTEX
  5
1235
  8
0
 10
101.8377371624602
 20
112.7539262614057
 30
0.0
 70
    32
  0
VERTEX
  5
1236
  8
0
 10
101.8254780563167
 20
112.7797350359516
 30
0.0
 70
    32
  0
VERTEX
  5
1237
  8
0
 10
101.8007400704751
 20
112.8321072232053
 30
0.0
 70
    32
  0
VERTEX
  5
1238
  8
0
 10
101.77573007944
 20
112.88546194966671
 30
0.0
 70
    32
  0
VERTEX
  5
1239
  8
0
 10
101.75047362843431
 20
112.9397700251526
 30
0.0
 70
    32
  0
VERTEX
  5
123A
  8
0
 10
101.7249966557966
 20
112.9950011789067
 30
0.0
 70
    32
  0
VERTEX
  5
123B
  8
0
 10
101.6993254466979
 20
113.0511240707018
 30
0.0
 70
    32
  0
VERTEX
  5
123C
  8
0
 10
101.6864252990468
 20
113.0795098386025
 30
0.0
 70
    32
  0
VERTEX
  5
123D
  8
0
 10
101.6734865786007
 20
113.1081063174249
 30
0.0
 70
    32
  0
VERTEX
  5
123E
  8
0
 10
101.6475068647985
 20
113.1659145220808
 30
0.0
 70
    32
  0
VERTEX
  5
123F
  8
0
 10
101.62141329625339
 20
113.2245143051066
 30
0.0
 70
    32
  0
VERTEX
  5
1240
  8
0
 10
101.59523298191419
 20
113.2838703379672
 30
0.0
 70
    32
  0
VERTEX
  5
1241
  8
0
 10
101.5689930876831
 20
113.3439463790785
 30
0.0
 70
    32
  0
VERTEX
  5
1242
  8
0
 10
101.542720774175
 20
113.4047053121855
 30
0.0
 70
    32
  0
VERTEX
  5
1243
  8
0
 10
101.5295809308756
 20
113.4353290352806
 30
0.0
 70
    32
  0
VERTEX
  5
1244
  8
0
 10
101.5164431333957
 20
113.4661091874023
 30
0.0
 70
    32
  0
VERTEX
  5
1245
  8
0
 10
101.4901871244551
 20
113.52811926520221
 30
0.0
 70
    32
  0
VERTEX
  5
1246
  8
0
 10
101.4639795084129
 20
113.5906960637292
 30
0.0
 70
    32
  0
VERTEX
  5
1247
  8
0
 10
101.4509005246486
 20
113.62218835573741
 30
0.0
 70
    32
  0
VERTEX
  5
1248
  8
0
 10
101.43779460662491
 20
113.6539261239699
 30
0.0
 70
    32
  0
VERTEX
  5
1249
  8
0
 10
101.41144865553321
 20
113.7182890081166
 30
0.0
 70
    32
  0
VERTEX
  5
124A
  8
0
 10
101.3849447074125
 20
113.7838236476436
 30
0.0
 70
    32
  0
VERTEX
  5
124B
  8
0
 10
101.37164144910111
 20
113.8170258869354
 30
0.0
 70
    32
  0
VERTEX
  5
124C
  8
0
 10
101.35830832757431
 20
113.8505155643915
 30
0.0
 70
    32
  0
VERTEX
  5
124D
  8
0
 10
101.33156569282809
 20
113.9183493833152
 30
0.0
 70
    32
  0
VERTEX
  5
124E
  8
0
 10
101.3047435367176
 20
113.98730888828629
 30
0.0
 70
    32
  0
VERTEX
  5
124F
  8
0
 10
101.2778690940866
 20
114.05737707863329
 30
0.0
 70
    32
  0
VERTEX
  5
1250
  8
0
 10
101.2509700450204
 20
114.12853622664269
 30
0.0
 70
    32
  0
VERTEX
  5
1251
  8
0
 10
101.2240744582196
 20
114.2007679362671
 30
0.0
 70
    32
  0
VERTEX
  5
1252
  8
0
 10
101.2106368268515
 20
114.23728008494901
 30
0.0
 70
    32
  0
VERTEX
  5
1253
  8
0
 10
101.1972107338791
 20
114.2740532033114
 30
0.0
 70
    32
  0
VERTEX
  5
1254
  8
0
 10
101.1704075461563
 20
114.3483724773854
 30
0.0
 70
    32
  0
VERTEX
  5
1255
  8
0
 10
101.1436937853363
 20
114.4237057259308
 30
0.0
 70
    32
  0
VERTEX
  5
1256
  8
0
 10
101.11709849981899
 20
114.500032500649
 30
0.0
 70
    32
  0
VERTEX
  5
1257
  8
0
 10
101.0906508380825
 20
114.5773320066636
 30
0.0
 70
    32
  0
VERTEX
  5
1258
  8
0
 10
101.0643800046052
 20
114.6555831332516
 30
0.0
 70
    32
  0
VERTEX
  5
1259
  8
0
 10
101.0513200528913
 20
114.6950588066664
 30
0.0
 70
    32
  0
VERTEX
  5
125A
  8
0
 10
101.03831531211959
 20
114.73476418847039
 30
0.0
 70
    32
  0
VERTEX
  5
125B
  8
0
 10
101.01248620550869
 20
114.81485268492951
 30
0.0
 70
    32
  0
VERTEX
  5
125C
  8
0
 10
100.9869222010181
 20
114.8958253627747
 30
0.0
 70
    32
  0
VERTEX
  5
125D
  8
0
 10
100.961652818641
 20
114.9776582311039
 30
0.0
 70
    32
  0
VERTEX
  5
125E
  8
0
 10
100.9367075135668
 20
115.0603266114982
 30
0.0
 70
    32
  0
VERTEX
  5
125F
  8
0
 10
100.91211560681231
 20
115.1438051841855
 30
0.0
 70
    32
  0
VERTEX
  5
1260
  8
0
 10
100.8999612867117
 20
115.18584021691051
 30
0.0
 70
    32
  0
VERTEX
  5
1261
  8
0
 10
100.8879062151927
 20
115.2280680373923
 30
0.0
 70
    32
  0
VERTEX
  5
1262
  8
0
 10
100.864108180831
 20
115.31308872047499
 30
0.0
 70
    32
  0
VERTEX
  5
1263
  8
0
 10
100.8407500004535
 20
115.3988403014462
 30
0.0
 70
    32
  0
VERTEX
  5
1264
  8
0
 10
100.81785975476861
 20
115.4852954295355
 30
0.0
 70
    32
  0
VERTEX
  5
1265
  8
0
 10
100.79546503828369
 20
115.5724264034392
 30
0.0
 70
    32
  0
VERTEX
  5
1266
  8
0
 10
100.7735928899742
 20
115.6602052459188
 30
0.0
 70
    32
  0
VERTEX
  5
1267
  8
0
 10
100.762861051816
 20
115.7043288529389
 30
0.0
 70
    32
  0
VERTEX
  5
1268
  8
0
 10
100.75226887532691
 20
115.74860736857531
 30
0.0
 70
    32
  0
VERTEX
  5
1269
  8
0
 10
100.73151487034301
 20
115.837621679835
 30
0.0
 70
    32
  0
VERTEX
  5
126A
  8
0
 10
100.711356123869
 20
115.9272209661199
 30
0.0
 70
    32
  0
VERTEX
  5
126B
  8
0
 10
100.6918178381525
 20
116.01737472769101
 30
0.0
 70
    32
  0
VERTEX
  5
126C
  8
0
 10
100.6729245035619
 20
116.1080515801646
 30
0.0
 70
    32
  0
VERTEX
  5
126D
  8
0
 10
100.6546998084098
 20
116.1992193218007
 30
0.0
 70
    32
  0
VERTEX
  5
126E
  8
0
 10
100.6458453620687
 20
116.2449770078491
 30
0.0
 70
    32
  0
VERTEX
  5
126F
  8
0
 10
100.6371665503886
 20
116.2908450087058
 30
0.0
 70
    32
  0
VERTEX
  5
1270
  8
0
 10
100.620346550363
 20
116.38289503860869
 30
0.0
 70
    32
  0
VERTEX
  5
1271
  8
0
 10
100.6042605693268
 20
116.4753352438464
 30
0.0
 70
    32
  0
VERTEX
  5
1272
  8
0
 10
100.5964990143908
 20
116.5216908553079
 30
0.0
 70
    32
  0
VERTEX
  5
1273
  8
0
 10
100.5889282293946
 20
116.5681309941548
 30
0.0
 70
    32
  0
VERTEX
  5
1274
  8
0
 10
100.5743679397542
 20
116.66124730980439
 30
0.0
 70
    32
  0
VERTEX
  5
1275
  8
0
 10
100.56059682854971
 20
116.7546489855449
 30
0.0
 70
    32
  0
VERTEX
  5
1276
  8
0
 10
100.5540122019067
 20
116.80144580316301
 30
0.0
 70
    32
  0
VERTEX
  5
1277
  8
0
 10
100.5476306817058
 20
116.8483007257331
 30
0.0
 70
    32
  0
VERTEX
  5
1278
  8
0
 10
100.5354838897253
 20
116.9421672909024
 30
0.0
 70
    32
  0
VERTEX
  5
1279
  8
0
 10
100.5241694061025
 20
117.03621363343611
 30
0.0
 70
    32
  0
VERTEX
  5
127A
  8
0
 10
100.5136987799625
 20
117.13040443103731
 30
0.0
 70
    32
  0
VERTEX
  5
127B
  8
0
 10
100.50408219224759
 20
117.22470334779059
 30
0.0
 70
    32
  0
VERTEX
  5
127C
  8
0
 10
100.49532838587599
 20
117.3190730634895
 30
0.0
 70
    32
  0
VERTEX
  5
127D
  8
0
 10
100.4912773460555
 20
117.36627257437461
 30
0.0
 70
    32
  0
VERTEX
  5
127E
  8
0
 10
100.4874445910436
 20
117.4134754170074
 30
0.0
 70
    32
  0
VERTEX
  5
127F
  8
0
 10
100.4804364608457
 20
117.50787155663291
 30
0.0
 70
    32
  0
VERTEX
  5
1280
  8
0
 10
100.4743080180414
 20
117.6022220968581
 30
0.0
 70
    32
  0
VERTEX
  5
1281
  8
0
 10
100.46906161368381
 20
117.6964872810705
 30
0.0
 70
    32
  0
VERTEX
  5
1282
  8
0
 10
100.4646978982348
 20
117.7906271495755
 30
0.0
 70
    32
  0
VERTEX
  5
1283
  8
0
 10
100.46121580566999
 20
117.8846017123475
 30
0.0
 70
    32
  0
VERTEX
  5
1284
  8
0
 10
100.4598045645846
 20
117.93151454235741
 30
0.0
 70
    32
  0
VERTEX
  5
1285
  8
0
 10
100.4586125509534
 20
117.9783711258917
 30
0.0
 70
    32
  0
VERTEX
  5
1286
  8
0
 10
100.4568836411384
 20
118.0718958735872
 30
0.0
 70
    32
  0
VERTEX
  5
1287
  8
0
 10
100.45602290021731
 20
118.1651369488773
 30
0.0
 70
    32
  0
VERTEX
  5
1288
  8
0
 10
100.4559157120944
 20
118.2116391048841
 30
0.0
 70
    32
  0
SEQEND
  5
1289
  8
0
  0
LINE
  5
128A
  8
0
 10
138.46879521117839
 20
110.4116391048842
 30
0.0
 11
138.46879521117839
 21
126.0116391048841
 31
0.0
  0
LINE
  5
128D
  8
0
 10
150.36879521117839
 20
110.4116391048842
 30
0.0
 11
150.36879521117839
 21
126.0116391048841
 31
0.0
  0
POLYLINE
  5
128E
  8
0
 66
     1
 10
0.0
 20
0.0
 30
0.0
 70
     8
  0
VERTEX
  5
128F
  8
0
 10
80.28167471026245
 20
118.2116391048841
 30
0.0
 70
    32
  0
VERTEX
  5
1290
  8
0
 10
80.28156752213954
 20
118.1651369488773
 30
0.0
 70
    32
  0
VERTEX
  5
1291
  8
0
 10
80.280706781218441
 20
118.07189587358729
 30
0.0
 70
    32
  0
VERTEX
  5
1292
  8
0
 10
80.278977871403526
 20
117.9783711258917
 30
0.0
 70
    32
  0
VERTEX
  5
1293
  8
0
 10
80.277785857772301
 20
117.93151454235741
 30
0.0
 70
    32
  0
VERTEX
  5
1294
  8
0
 10
80.276374616686894
 20
117.8846017123475
 30
0.0
 70
    32
  0
VERTEX
  5
1295
  8
0
 10
80.272892524122014
 20
117.7906271495755
 30
0.0
 70
    32
  0
VERTEX
  5
1296
  8
0
 10
80.268528808673068
 20
117.6964872810705
 30
0.0
 70
    32
  0
VERTEX
  5
1297
  8
0
 10
80.263282404315476
 20
117.6022220968581
 30
0.0
 70
    32
  0
VERTEX
  5
1298
  8
0
 10
80.257153961511221
 20
117.50787155663301
 30
0.0
 70
    32
  0
VERTEX
  5
1299
  8
0
 10
80.250145831313318
 20
117.4134754170074
 30
0.0
 70
    32
  0
VERTEX
  5
129A
  8
0
 10
80.246313076301348
 20
117.36627257437461
 30
0.0
 70
    32
  0
VERTEX
  5
129B
  8
0
 10
80.242262036480824
 20
117.3190730634895
 30
0.0
 70
    32
  0
VERTEX
  5
129C
  8
0
 10
80.233508230109294
 20
117.22470334779059
 30
0.0
 70
    32
  0
VERTEX
  5
129D
  8
0
 10
80.223891642394335
 20
117.13040443103731
 30
0.0
 70
    32
  0
VERTEX
  5
129E
  8
0
 10
80.213421016254415
 20
117.03621363343611
 30
0.0
 70
    32
  0
VERTEX
  5
129F
  8
0
 10
80.202106532631547
 20
116.9421672909024
 30
0.0
 70
    32
  0
VERTEX
  5
12A0
  8
0
 10
80.189959740651091
 20
116.8483007257331
 30
0.0
 70
    32
  0
VERTEX
  5
12A1
  8
0
 10
80.183578220450215
 20
116.80144580316301
 30
0.0
 70
    32
  0
VERTEX
  5
12A2
  8
0
 10
80.176993593807126
 20
116.7546489855449
 30
0.0
 70
    32
  0
VERTEX
  5
12A3
  8
0
 10
80.163222482602634
 20
116.66124730980439
 30
0.0
 70
    32
  0
VERTEX
  5
12A4
  8
0
 10
80.148662192962263
 20
116.5681309941548
 30
0.0
 70
    32
  0
VERTEX
  5
12A5
  8
0
 10
80.141091407966044
 20
116.5216908553079
 30
0.0
 70
    32
  0
VERTEX
  5
12A6
  8
0
 10
80.133329853030091
 20
116.4753352438464
 30
0.0
 70
    32
  0
VERTEX
  5
12A7
  8
0
 10
80.117243871993878
 20
116.38289503860869
 30
0.0
 70
    32
  0
VERTEX
  5
12A8
  8
0
 10
80.100423871968246
 20
116.2908450087059
 30
0.0
 70
    32
  0
VERTEX
  5
12A9
  8
0
 10
80.091745060288133
 20
116.2449770078491
 30
0.0
 70
    32
  0
VERTEX
  5
12AA
  8
0
 10
80.082890613947086
 20
116.1992193218008
 30
0.0
 70
    32
  0
VERTEX
  5
12AB
  8
0
 10
80.064665918794958
 20
116.1080515801646
 30
0.0
 70
    32
  0
VERTEX
  5
12AC
  8
0
 10
80.045772584204386
 20
116.01737472769111
 30
0.0
 70
    32
  0
VERTEX
  5
12AD
  8
0
 10
80.026234298487907
 20
115.92722096612
 30
0.0
 70
    32
  0
VERTEX
  5
12AE
  8
0
 10
80.00607555201384
 20
115.837621679835
 30
0.0
 70
    32
  0
VERTEX
  5
12AF
  8
0
 10
79.985321547029969
 20
115.74860736857531
 30
0.0
 70
    32
  0
VERTEX
  5
12B0
  8
0
 10
79.974729370540842
 20
115.7043288529389
 30
0.0
 70
    32
  0
VERTEX
  5
12B1
  8
0
 10
79.963997532382621
 20
115.6602052459188
 30
0.0
 70
    32
  0
VERTEX
  5
12B2
  8
0
 10
79.942125384073165
 20
115.57242640343929
 30
0.0
 70
    32
  0
VERTEX
  5
12B3
  8
0
 10
79.919730667588283
 20
115.4852954295355
 30
0.0
 70
    32
  0
VERTEX
  5
12B4
  8
0
 10
79.896840421903335
 20
115.3988403014462
 30
0.0
 70
    32
  0
VERTEX
  5
12B5
  8
0
 10
79.873482241525835
 20
115.31308872047499
 30
0.0
 70
    32
  0
VERTEX
  5
12B6
  8
0
 10
79.849684207164159
 20
115.2280680373923
 30
0.0
 70
    32
  0
VERTEX
  5
12B7
  8
0
 10
79.837629135645216
 20
115.18584021691051
 30
0.0
 70
    32
  0
VERTEX
  5
12B8
  8
0
 10
79.825474815544567
 20
115.1438051841855
 30
0.0
 70
    32
  0
VERTEX
  5
12B9
  8
0
 10
79.800882908790129
 20
115.0603266114982
 30
0.0
 70
    32
  0
VERTEX
  5
12BA
  8
0
 10
79.775937603715931
 20
114.9776582311039
 30
0.0
 70
    32
  0
VERTEX
  5
12BB
  8
0
 10
79.750668221338742
 20
114.8958253627747
 30
0.0
 70
    32
  0
VERTEX
  5
12BC
  8
0
 10
79.725104216848123
 20
114.81485268492951
 30
0.0
 70
    32
  0
VERTEX
  5
12BD
  8
0
 10
79.699275110237295
 20
114.73476418847039
 30
0.0
 70
    32
  0
VERTEX
  5
12BE
  8
0
 10
79.686270369465547
 20
114.6950588066664
 30
0.0
 70
    32
  0
VERTEX
  5
12BF
  8
0
 10
79.673210417751591
 20
114.6555831332516
 30
0.0
 70
    32
  0
VERTEX
  5
12C0
  8
0
 10
79.646939584274321
 20
114.5773320066636
 30
0.0
 70
    32
  0
VERTEX
  5
12C1
  8
0
 10
79.620491922537823
 20
114.500032500649
 30
0.0
 70
    32
  0
VERTEX
  5
12C2
  8
0
 10
79.593896637020578
 20
114.4237057259308
 30
0.0
 70
    32
  0
VERTEX
  5
12C3
  8
0
 10
79.567182876200604
 20
114.3483724773854
 30
0.0
 70
    32
  0
VERTEX
  5
12C4
  8
0
 10
79.540379688477799
 20
114.2740532033114
 30
0.0
 70
    32
  0
VERTEX
  5
12C5
  8
0
 10
79.526953595505404
 20
114.23728008494901
 30
0.0
 70
    32
  0
VERTEX
  5
12C6
  8
0
 10
79.513515964137184
 20
114.200767936267
 30
0.0
 70
    32
  0
VERTEX
  5
12C7
  8
0
 10
79.486620377336465
 20
114.12853622664269
 30
0.0
 70
    32
  0
VERTEX
  5
12C8
  8
0
 10
79.459721328270291
 20
114.05737707863329
 30
0.0
 70
    32
  0
VERTEX
  5
12C9
  8
0
 10
79.432846885639321
 20
113.98730888828619
 30
0.0
 70
    32
  0
VERTEX
  5
12CA
  8
0
 10
79.406024729528781
 20
113.9183493833152
 30
0.0
 70
    32
  0
VERTEX
  5
12CB
  8
0
 10
79.379282094782525
 20
113.8505155643915
 30
0.0
 70
    32
  0
VERTEX
  5
12CC
  8
0
 10
79.36594897325574
 20
113.8170258869354
 30
0.0
 70
    32
  0
VERTEX
  5
12CD
  8
0
 10
79.352645714944344
 20
113.7838236476436
 30
0.0
 70
    32
  0
VERTEX
  5
12CE
  8
0
 10
79.326141766823625
 20
113.7182890081166
 30
0.0
 70
    32
  0
VERTEX
  5
12CF
  8
0
 10
79.299795815731954
 20
113.6539261239699
 30
0.0
 70
    32
  0
VERTEX
  5
12D0
  8
0
 10
79.2866898977083
 20
113.62218835573741
 30
0.0
 70
    32
  0
VERTEX
  5
12D1
  8
0
 10
79.273610913943969
 20
113.5906960637292
 30
0.0
 70
    32
  0
VERTEX
  5
12D2
  8
0
 10
79.247403297901826
 20
113.52811926520221
 30
0.0
 70
    32
  0
VERTEX
  5
12D3
  8
0
 10
79.221147288961163
 20
113.4661091874023
 30
0.0
 70
    32
  0
VERTEX
  5
12D4
  8
0
 10
79.208009491481263
 20
113.4353290352805
 30
0.0
 70
    32
  0
VERTEX
  5
12D5
  8
0
 10
79.19486964818185
 20
113.4047053121855
 30
0.0
 70
    32
  0
VERTEX
  5
12D6
  8
0
 10
79.168597334673734
 20
113.3439463790785
 30
0.0
 70
    32
  0
VERTEX
  5
12D7
  8
0
 10
79.142357440442709
 20
113.2838703379672
 30
0.0
 70
    32
  0
VERTEX
  5
12D8
  8
0
 10
79.11617712610348
 20
113.2245143051066
 30
0.0
 70
    32
  0
VERTEX
  5
12D9
  8
0
 10
79.09008355755833
 20
113.1659145220808
 30
0.0
 70
    32
  0
VERTEX
  5
12DA
  8
0
 10
79.064103843756186
 20
113.1081063174249
 30
0.0
 70
    32
  0
VERTEX
  5
12DB
  8
0
 10
79.051165123310057
 20
113.0795098386025
 30
0.0
 70
    32
  0
VERTEX
  5
12DC
  8
0
 10
79.038264975658933
 20
113.0511240707018
 30
0.0
 70
    32
  0
VERTEX
  5
12DD
  8
0
 10
79.012593766560315
 20
112.9950011789067
 30
0.0
 70
    32
  0
VERTEX
  5
12DE
  8
0
 10
78.987116793922496
 20
112.9397700251526
 30
0.0
 70
    32
  0
VERTEX
  5
12DF
  8
0
 10
78.961860342916907
 20
112.88546194966671
 30
0.0
 70
    32
  0
VERTEX
  5
12E0
  8
0
 10
78.936850351881787
 20
112.8321072232053
 30
0.0
 70
    32
  0
VERTEX
  5
12E1
  8
0
 10
78.912112366040162
 20
112.7797350359516
 30
0.0
 70
    32
  0
VERTEX
  5
12E2
  8
0
 10
78.899853259896702
 20
112.7539262614057
 30
0.0
 70
    32
  0
VERTEX
  5
12E3
  8
0
 10
78.887671583187796
 20
112.7283736762179
 30
0.0
 70
    32
  0
VERTEX
  5
12E4
  8
0
 10
78.863552923796988
 20
112.67805074909271
 30
0.0
 70
    32
  0
VERTEX
  5
12E5
  8
0
 10
78.839780988502866
 20
112.6287931508338
 30
0.0
 70
    32
  0
VERTEX
  5
12E6
  8
0
 10
78.816380000652373
 20
112.5806270114507
 30
0.0
 70
    32
  0
VERTEX
  5
12E7
  8
0
 10
78.79337375026023
 20
112.5335776400983
 30
0.0
 70
    32
  0
VERTEX
  5
12E8
  8
0
 10
78.770785539550047
 20
112.48766947330969
 30
0.0
 70
    32
  0
VERTEX
  5
12E9
  8
0
 10
78.759655334637543
 20
112.4651507273538
 30
0.0
 70
    32
  0
VERTEX
  5
12EA
  8
0
 10
78.748638130281392
 20
112.4429260261531
 30
0.0
 70
    32
  0
VERTEX
  5
12EB
  8
0
 10
78.726953693085079
 20
112.3993698464617
 30
0.0
 70
    32
  0
VERTEX
  5
12EC
  8
0
 10
78.705753759055312
 20
112.3570224723502
 30
0.0
 70
    32
  0
VERTEX
  5
12ED
  8
0
 10
78.685059173872105
 20
112.31590439329391
 30
0.0
 70
    32
  0
VERTEX
  5
12EE
  8
0
 10
78.664890054755674
 20
112.2760350151103
 30
0.0
 70
    32
  0
VERTEX
  5
12EF
  8
0
 10
78.645265750579711
 20
112.2374326292486
 30
0.0
 70
    32
  0
VERTEX
  5
12F0
  8
0
 10
78.635663731493707
 20
112.21861196331631
 30
0.0
 70
    32
  0
VERTEX
  5
12F1
  8
0
 10
78.626204291881777
 20
112.2001133835761
 30
0.0
 70
    32
  0
VERTEX
  5
12F2
  8
0
 10
78.607719773044096
 20
112.1640862558809
 30
0.0
 70
    32
  0
VERTEX
  5
12F3
  8
0
 10
78.58982899430481
 20
112.1293660809029
 30
0.0
 70
    32
  0
VERTEX
  5
12F4
  8
0
 10
78.572548875799271
 20
112.0959684462444
 30
0.0
 70
    32
  0
VERTEX
  5
12F5
  8
0
 10
78.555895584592236
 20
112.06390801221249
 30
0.0
 70
    32
  0
VERTEX
  5
12F6
  8
0
 10
78.539884482202055
 20
112.0331984412464
 30
0.0
 70
    32
  0
VERTEX
  5
12F7
  8
0
 10
78.532124319882371
 20
112.01835421002779
 30
0.0
 70
    32
  0
VERTEX
  5
12F8
  8
0
 10
78.524530075584607
 20
112.00385233323649
 30
0.0
 70
    32
  0
VERTEX
  5
12F9
  8
0
 10
78.509845971909897
 20
111.975881167027
 30
0.0
 70
    32
  0
VERTEX
  5
12FA
  8
0
 10
78.495844837475659
 20
111.94929524843469
 30
0.0
 70
    32
  0
VERTEX
  5
12FB
  8
0
 10
78.489104075567013
 20
111.9365246455675
 30
0.0
 70
    32
  0
VERTEX
  5
12FC
  8
0
 10
78.482538361106549
 20
111.9241036651525
 30
0.0
 70
    32
  0
VERTEX
  5
12FD
  8
0
 10
78.469937222395004
 20
111.9003142489418
 30
0.0
 70
    32
  0
VERTEX
  5
12FE
  8
0
 10
78.458051065143991
 20
111.8779335455537
 30
0.0
 70
    32
  0
VERTEX
  5
12FF
  8
0
 10
78.452378829744575
 20
111.8672731495104
 30
0.0
 70
    32
  0
VERTEX
  5
1300
  8
0
 10
78.446888476373374
 20
111.8569667928455
 30
0.0
 70
    32
  0
VERTEX
  5
1301
  8
0
 10
78.436456971250777
 20
111.8374179075895
 30
0.0
 70
    32
  0
VERTEX
  5
1302
  8
0
 10
78.426762987784286
 20
111.8192894879917
 30
0.0
 70
    32
  0
VERTEX
  5
1303
  8
0
 10
78.417811937637225
 20
111.8025829181698
 30
0.0
 70
    32
  0
VERTEX
  5
1304
  8
0
 10
78.409608251175996
 20
111.7872984582269
 30
0.0
 70
    32
  0
VERTEX
  5
1305
  8
0
 10
78.402155342509957
 20
111.77343518248411
 30
0.0
 70
    32
  0
VERTEX
  5
1306
  8
0
 10
78.398711209071678
 20
111.76703585739931
 30
0.0
 70
    32
  0
VERTEX
  5
1307
  8
0
 10
78.395455570188574
 20
111.7609909081135
 30
0.0
 70
    32
  0
VERTEX
  5
1308
  8
0
 10
78.389510204409476
 20
111.7499621342054
 30
0.0
 70
    32
  0
VERTEX
  5
1309
  8
0
 10
78.384319400933634
 20
111.7403439913583
 30
0.0
 70
    32
  0
VERTEX
  5
130A
  8
0
 10
78.379882181872688
 20
111.7321302018686
 30
0.0
 70
    32
  0
VERTEX
  5
130B
  8
0
 10
78.376196423481872
 20
111.72531305058639
 30
0.0
 70
    32
  0
VERTEX
  5
130C
  8
0
 10
78.373258851063781
 20
111.71988336650089
 30
0.0
 70
    32
  0
VERTEX
  5
130D
  8
0
 10
78.372069296904613
 20
111.71768555852979
 30
0.0
 70
    32
  0
VERTEX
  5
130E
  8
0
 10
78.371065041061001
 20
111.7158305151129
 30
0.0
 70
    32
  0
VERTEX
  5
130F
  8
0
 10
78.369609430389914
 20
111.7131424016552
 30
0.0
 70
    32
  0
VERTEX
  5
1310
  8
0
 10
78.368885333047103
 20
111.71180548522329
 30
0.0
 70
    32
  0
VERTEX
  5
1311
  8
0
 10
78.368795211178451
 20
111.7116391048841
 30
0.0
 70
    32
  0
SEQEND
  5
1312
  8
0
  0
POLYLINE
  5
1313
  8
0
 66
     1
 10
0.0
 20
0.0
 30
0.0
 70
     8
  0
VERTEX
  5
1314
  8
0
 10
78.368795211178451
 20
124.7116391048841
 30
0.0
 70
    32
  0
VERTEX
  5
1315
  8
0
 10
78.368885333047103
 20
124.711472724545
 30
0.0
 70
    32
  0
VERTEX
  5
1316
  8
0
 10
78.369609430389914
 20
124.71013580811309
 30
0.0
 70
    32
  0
VERTEX
  5
1317
  8
0
 10
78.371065041061001
 20
124.7074476946554
 30
0.0
 70
    32
  0
VERTEX
  5
1318
  8
0
 10
78.372069296904613
 20
124.7055926512385
 30
0.0
 70
    32
  0
VERTEX
  5
1319
  8
0
 10
78.373258851063781
 20
124.7033948432674
 30
0.0
 70
    32
  0
VERTEX
  5
131A
  8
0
 10
78.376196423481872
 20
124.6979651591819
 30
0.0
 70
    32
  0
VERTEX
  5
131B
  8
0
 10
78.379882181872688
 20
124.6911480078997
 30
0.0
 70
    32
  0
VERTEX
  5
131C
  8
0
 10
78.384319400933634
 20
124.68293421841
 30
0.0
 70
    32
  0
VERTEX
  5
131D
  8
0
 10
78.389510204409476
 20
124.67331607556289
 30
0.0
 70
    32
  0
VERTEX
  5
131E
  8
0
 10
78.395455570188574
 20
124.6622873016547
 30
0.0
 70
    32
  0
VERTEX
  5
131F
  8
0
 10
78.398711209071678
 20
124.65624235236901
 30
0.0
 70
    32
  0
VERTEX
  5
1320
  8
0
 10
78.402155342509957
 20
124.64984302728411
 30
0.0
 70
    32
  0
VERTEX
  5
1321
  8
0
 10
78.409608251175996
 20
124.6359797515414
 30
0.0
 70
    32
  0
VERTEX
  5
1322
  8
0
 10
78.417811937637225
 20
124.62069529159859
 30
0.0
 70
    32
  0
VERTEX
  5
1323
  8
0
 10
78.426762987784286
 20
124.6039887217766
 30
0.0
 70
    32
  0
VERTEX
  5
1324
  8
0
 10
78.436456971250777
 20
124.5858603021788
 30
0.0
 70
    32
  0
VERTEX
  5
1325
  8
0
 10
78.446888476373374
 20
124.5663114169228
 30
0.0
 70
    32
  0
VERTEX
  5
1326
  8
0
 10
78.452378829744575
 20
124.5560050602579
 30
0.0
 70
    32
  0
VERTEX
  5
1327
  8
0
 10
78.458051065143991
 20
124.5453446642146
 30
0.0
 70
    32
  0
VERTEX
  5
1328
  8
0
 10
78.469937222395004
 20
124.5229639608265
 30
0.0
 70
    32
  0
VERTEX
  5
1329
  8
0
 10
78.482538361106549
 20
124.4991745446158
 30
0.0
 70
    32
  0
VERTEX
  5
132A
  8
0
 10
78.489104075567013
 20
124.4867535642008
 30
0.0
 70
    32
  0
VERTEX
  5
132B
  8
0
 10
78.495844837475659
 20
124.4739829613336
 30
0.0
 70
    32
  0
VERTEX
  5
132C
  8
0
 10
78.509845971909897
 20
124.4473970427413
 30
0.0
 70
    32
  0
VERTEX
  5
132D
  8
0
 10
78.524530075584607
 20
124.4194258765318
 30
0.0
 70
    32
  0
VERTEX
  5
132E
  8
0
 10
78.532124319882371
 20
124.4049239997405
 30
0.0
 70
    32
  0
VERTEX
  5
132F
  8
0
 10
78.539884482202055
 20
124.3900797685219
 30
0.0
 70
    32
  0
VERTEX
  5
1330
  8
0
 10
78.555895584592236
 20
124.35937019755571
 30
0.0
 70
    32
  0
VERTEX
  5
1331
  8
0
 10
78.572548875799271
 20
124.3273097635238
 30
0.0
 70
    32
  0
VERTEX
  5
1332
  8
0
 10
78.58982899430481
 20
124.2939121288654
 30
0.0
 70
    32
  0
VERTEX
  5
1333
  8
0
 10
78.607719773044096
 20
124.2591919538874
 30
0.0
 70
    32
  0
VERTEX
  5
1334
  8
0
 10
78.626204291881777
 20
124.2231648261922
 30
0.0
 70
    32
  0
VERTEX
  5
1335
  8
0
 10
78.635663731493707
 20
124.20466624645201
 30
0.0
 70
    32
  0
VERTEX
  5
1336
  8
0
 10
78.645265750579753
 20
124.1858455805197
 30
0.0
 70
    32
  0
VERTEX
  5
1337
  8
0
 10
78.664890054755674
 20
124.147243194658
 30
0.0
 70
    32
  0
VERTEX
  5
1338
  8
0
 10
78.685059173872105
 20
124.10737381647439
 30
0.0
 70
    32
  0
VERTEX
  5
1339
  8
0
 10
78.705753759055312
 20
124.0662557374181
 30
0.0
 70
    32
  0
VERTEX
  5
133A
  8
0
 10
78.726953693085079
 20
124.0239083633066
 30
0.0
 70
    32
  0
VERTEX
  5
133B
  8
0
 10
78.748638130281392
 20
123.9803521836152
 30
0.0
 70
    32
  0
VERTEX
  5
133C
  8
0
 10
78.759655334637543
 20
123.9581274824145
 30
0.0
 70
    32
  0
VERTEX
  5
133D
  8
0
 10
78.770785539550047
 20
123.93560873645851
 30
0.0
 70
    32
  0
VERTEX
  5
133E
  8
0
 10
78.79337375026023
 20
123.88970056967
 30
0.0
 70
    32
  0
VERTEX
  5
133F
  8
0
 10
78.816380000652373
 20
123.8426511983176
 30
0.0
 70
    32
  0
VERTEX
  5
1340
  8
0
 10
78.839780988502866
 20
123.7944850589345
 30
0.0
 70
    32
  0
VERTEX
  5
1341
  8
0
 10
78.863552923796988
 20
123.74522746067559
 30
0.0
 70
    32
  0
VERTEX
  5
1342
  8
0
 10
78.887671583187796
 20
123.6949045335503
 30
0.0
 70
    32
  0
VERTEX
  5
1343
  8
0
 10
78.899853259896702
 20
123.6693519483626
 30
0.0
 70
    32
  0
VERTEX
  5
1344
  8
0
 10
78.912112366040162
 20
123.6435431738167
 30
0.0
 70
    32
  0
VERTEX
  5
1345
  8
0
 10
78.936850351881787
 20
123.591170986563
 30
0.0
 70
    32
  0
VERTEX
  5
1346
  8
0
 10
78.961860342916907
 20
123.53781626010159
 30
0.0
 70
    32
  0
VERTEX
  5
1347
  8
0
 10
78.987116793922496
 20
123.4835081846157
 30
0.0
 70
    32
  0
VERTEX
  5
1348
  8
0
 10
79.012593766560315
 20
123.42827703086159
 30
0.0
 70
    32
  0
VERTEX
  5
1349
  8
0
 10
79.038264975658933
 20
123.3721541390665
 30
0.0
 70
    32
  0
VERTEX
  5
134A
  8
0
 10
79.051165123310057
 20
123.34376837116579
 30
0.0
 70
    32
  0
VERTEX
  5
134B
  8
0
 10
79.064103843756186
 20
123.3151718923434
 30
0.0
 70
    32
  0
VERTEX
  5
134C
  8
0
 10
79.09008355755833
 20
123.2573636876875
 30
0.0
 70
    32
  0
VERTEX
  5
134D
  8
0
 10
79.11617712610348
 20
123.1987639046617
 30
0.0
 70
    32
  0
VERTEX
  5
134E
  8
0
 10
79.142357440442709
 20
123.139407871801
 30
0.0
 70
    32
  0
VERTEX
  5
134F
  8
0
 10
79.168597334673734
 20
123.0793318306898
 30
0.0
 70
    32
  0
VERTEX
  5
1350
  8
0
 10
79.19486964818185
 20
123.0185728975828
 30
0.0
 70
    32
  0
VERTEX
  5
1351
  8
0
 10
79.208009491481263
 20
122.9879491744877
 30
0.0
 70
    32
  0
VERTEX
  5
1352
  8
0
 10
79.221147288961163
 20
122.957169022366
 30
0.0
 70
    32
  0
VERTEX
  5
1353
  8
0
 10
79.247403297901826
 20
122.89515894456611
 30
0.0
 70
    32
  0
VERTEX
  5
1354
  8
0
 10
79.273610913943969
 20
122.8325821460391
 30
0.0
 70
    32
  0
VERTEX
  5
1355
  8
0
 10
79.2866898977083
 20
122.80108985403091
 30
0.0
 70
    32
  0
VERTEX
  5
1356
  8
0
 10
79.299795815731954
 20
122.7693520857984
 30
0.0
 70
    32
  0
VERTEX
  5
1357
  8
0
 10
79.326141766823625
 20
122.7049892016517
 30
0.0
 70
    32
  0
VERTEX
  5
1358
  8
0
 10
79.352645714944344
 20
122.6394545621247
 30
0.0
 70
    32
  0
VERTEX
  5
1359
  8
0
 10
79.36594897325574
 20
122.6062523228329
 30
0.0
 70
    32
  0
VERTEX
  5
135A
  8
0
 10
79.379282094782525
 20
122.5727626453767
 30
0.0
 70
    32
  0
VERTEX
  5
135B
  8
0
 10
79.406024729528781
 20
122.5049288264531
 30
0.0
 70
    32
  0
VERTEX
  5
135C
  8
0
 10
79.432846885639321
 20
122.4359693214821
 30
0.0
 70
    32
  0
VERTEX
  5
135D
  8
0
 10
79.459721328270291
 20
122.3659011311349
 30
0.0
 70
    32
  0
VERTEX
  5
135E
  8
0
 10
79.486620377336465
 20
122.2947419831256
 30
0.0
 70
    32
  0
VERTEX
  5
135F
  8
0
 10
79.513515964137241
 20
122.2225102735013
 30
0.0
 70
    32
  0
VERTEX
  5
1360
  8
0
 10
79.526953595505404
 20
122.18599812481921
 30
0.0
 70
    32
  0
VERTEX
  5
1361
  8
0
 10
79.540379688477799
 20
122.1492250064569
 30
0.0
 70
    32
  0
VERTEX
  5
1362
  8
0
 10
79.567182876200604
 20
122.0749057323829
 30
0.0
 70
    32
  0
VERTEX
  5
1363
  8
0
 10
79.593896637020578
 20
121.9995724838375
 30
0.0
 70
    32
  0
VERTEX
  5
1364
  8
0
 10
79.620491922537823
 20
121.9232457091193
 30
0.0
 70
    32
  0
VERTEX
  5
1365
  8
0
 10
79.646939584274321
 20
121.8459462031047
 30
0.0
 70
    32
  0
VERTEX
  5
1366
  8
0
 10
79.673210417751591
 20
121.7676950765167
 30
0.0
 70
    32
  0
VERTEX
  5
1367
  8
0
 10
79.686270369465547
 20
121.7282194031019
 30
0.0
 70
    32
  0
VERTEX
  5
1368
  8
0
 10
79.699275110237295
 20
121.68851402129791
 30
0.0
 70
    32
  0
VERTEX
  5
1369
  8
0
 10
79.725104216848123
 20
121.60842552483869
 30
0.0
 70
    32
  0
VERTEX
  5
136A
  8
0
 10
79.750668221338742
 20
121.5274528469936
 30
0.0
 70
    32
  0
VERTEX
  5
136B
  8
0
 10
79.775937603715931
 20
121.4456199786644
 30
0.0
 70
    32
  0
VERTEX
  5
136C
  8
0
 10
79.800882908790186
 20
121.36295159827
 30
0.0
 70
    32
  0
VERTEX
  5
136D
  8
0
 10
79.825474815544567
 20
121.2794730255827
 30
0.0
 70
    32
  0
VERTEX
  5
136E
  8
0
 10
79.837629135645216
 20
121.23743799285771
 30
0.0
 70
    32
  0
VERTEX
  5
136F
  8
0
 10
79.849684207164159
 20
121.19521017237599
 30
0.0
 70
    32
  0
VERTEX
  5
1370
  8
0
 10
79.873482241525835
 20
121.1101894892933
 30
0.0
 70
    32
  0
VERTEX
  5
1371
  8
0
 10
79.896840421903335
 20
121.0244379083221
 30
0.0
 70
    32
  0
VERTEX
  5
1372
  8
0
 10
79.919730667588283
 20
120.9379827802328
 30
0.0
 70
    32
  0
VERTEX
  5
1373
  8
0
 10
79.942125384073165
 20
120.850851806329
 30
0.0
 70
    32
  0
VERTEX
  5
1374
  8
0
 10
79.963997532382621
 20
120.7630729638495
 30
0.0
 70
    32
  0
VERTEX
  5
1375
  8
0
 10
79.974729370540842
 20
120.7189493568294
 30
0.0
 70
    32
  0
VERTEX
  5
1376
  8
0
 10
79.985321547029969
 20
120.67467084119301
 30
0.0
 70
    32
  0
VERTEX
  5
1377
  8
0
 10
80.00607555201384
 20
120.5856565299333
 30
0.0
 70
    32
  0
VERTEX
  5
1378
  8
0
 10
80.026234298487907
 20
120.49605724364829
 30
0.0
 70
    32
  0
VERTEX
  5
1379
  8
0
 10
80.045772584204386
 20
120.40590348207721
 30
0.0
 70
    32
  0
VERTEX
  5
137A
  8
0
 10
80.064665918794958
 20
120.3152266296037
 30
0.0
 70
    32
  0
VERTEX
  5
137B
  8
0
 10
80.082890613947086
 20
120.2240588879675
 30
0.0
 70
    32
  0
VERTEX
  5
137C
  8
0
 10
80.091745060288133
 20
120.1783012019192
 30
0.0
 70
    32
  0
VERTEX
  5
137D
  8
0
 10
80.100423871968246
 20
120.1324332010625
 30
0.0
 70
    32
  0
VERTEX
  5
137E
  8
0
 10
80.117243871993878
 20
120.0403831711596
 30
0.0
 70
    32
  0
VERTEX
  5
137F
  8
0
 10
80.133329853030133
 20
119.9479429659219
 30
0.0
 70
    32
  0
VERTEX
  5
1380
  8
0
 10
80.141091407966044
 20
119.9015873544604
 30
0.0
 70
    32
  0
VERTEX
  5
1381
  8
0
 10
80.148662192962263
 20
119.8551472156135
 30
0.0
 70
    32
  0
VERTEX
  5
1382
  8
0
 10
80.163222482602634
 20
119.7620308999639
 30
0.0
 70
    32
  0
VERTEX
  5
1383
  8
0
 10
80.176993593807126
 20
119.6686292242233
 30
0.0
 70
    32
  0
VERTEX
  5
1384
  8
0
 10
80.183578220450215
 20
119.62183240660529
 30
0.0
 70
    32
  0
VERTEX
  5
1385
  8
0
 10
80.189959740651091
 20
119.5749774840352
 30
0.0
 70
    32
  0
VERTEX
  5
1386
  8
0
 10
80.202106532631547
 20
119.48111091886589
 30
0.0
 70
    32
  0
VERTEX
  5
1387
  8
0
 10
80.213421016254415
 20
119.38706457633219
 30
0.0
 70
    32
  0
VERTEX
  5
1388
  8
0
 10
80.223891642394335
 20
119.29287377873101
 30
0.0
 70
    32
  0
VERTEX
  5
1389
  8
0
 10
80.233508230109294
 20
119.1985748619777
 30
0.0
 70
    32
  0
VERTEX
  5
138A
  8
0
 10
80.242262036480824
 20
119.1042051462787
 30
0.0
 70
    32
  0
VERTEX
  5
138B
  8
0
 10
80.246313076301348
 20
119.05700563539369
 30
0.0
 70
    32
  0
VERTEX
  5
138C
  8
0
 10
80.250145831313318
 20
119.00980279276089
 30
0.0
 70
    32
  0
VERTEX
  5
138D
  8
0
 10
80.257153961511221
 20
118.91540665313531
 30
0.0
 70
    32
  0
VERTEX
  5
138E
  8
0
 10
80.263282404315476
 20
118.8210561129102
 30
0.0
 70
    32
  0
VERTEX
  5
138F
  8
0
 10
80.268528808673068
 20
118.7267909286978
 30
0.0
 70
    32
  0
VERTEX
  5
1390
  8
0
 10
80.272892524122014
 20
118.6326510601928
 30
0.0
 70
    32
  0
VERTEX
  5
1391
  8
0
 10
80.276374616686894
 20
118.53867649742079
 30
0.0
 70
    32
  0
VERTEX
  5
1392
  8
0
 10
80.277785857772301
 20
118.49176366741089
 30
0.0
 70
    32
  0
VERTEX
  5
1393
  8
0
 10
80.278977871403526
 20
118.4449070838766
 30
0.0
 70
    32
  0
VERTEX
  5
1394
  8
0
 10
80.280706781218441
 20
118.3513823361811
 30
0.0
 70
    32
  0
VERTEX
  5
1395
  8
0
 10
80.28156752213954
 20
118.25814126089099
 30
0.0
 70
    32
  0
VERTEX
  5
1396
  8
0
 10
80.28167471026245
 20
118.2116391048841
 30
0.0
 70
    32
  0
SEQEND
  5
1397
  8
0
  0
LINE
  5
1403
  8
2
 10
98.368795211178451
 20
81.211639104884142
 30
0.0
 11
97.286295211178526
 21
83.086584104077417
 31
0.0
  0
LINE
  5
1404
  8
2
 10
82.368795211178565
 20
81.211639104884142
 30
0.0
 11
83.45129521117849
 21
83.086584104077417
 31
0.0
  0
LINE
  5
140C
  8
2
 10
223.36879521117851
 20
81.211639104884142
 30
0.0
 11
222.2862952111785
 21
83.086584104077417
 31
0.0
  0
LINE
  5
140D
  8
2
 10
207.36879521117851
 20
81.211639104884142
 30
0.0
 11
208.45129521117849
 21
83.086584104077417
 31
0.0
  0
ENDSEC
  0
EOF
