  0
SECTION
  2
HEADER
  9
$ACADVER
  1
AC1009
  9
$INSBASE
 10
0.0
 20
0.0
 30
0.0
  9
$EXTMIN
 10
0.0
 20
-2.960436562073669
 30
0.0
  9
$EXTMAX
 10
410.23070350095139
 20
423.99884778079883
 30
0.0
  9
$LIMMIN
 10
0.0
 20
0.0
  9
$LIMMAX
 10
420.0
 20
297.0
  9
$ORTHOMODE
 70
     1
  9
$REGENMODE
 70
     1
  9
$FILLMODE
 70
     1
  9
$QTEXTMODE
 70
     0
  9
$MIRRTEXT
 70
     0
  9
$DRAGMODE
 70
     2
  9
$LTSCALE
 40
10.0
  9
$OSMODE
 70
    37
  9
$ATTMODE
 70
     1
  9
$TEXTSIZE
 40
2.5
  9
$TRACEWID
 40
1.0
  9
$TEXTSTYLE
  7
STANDARD
  9
$CLAYER
  8
0
  9
$CELTYPE
  6
BYLAYER
  9
$CECOLOR
 62
   256
  9
$DIMSCALE
 40
1.0
  9
$DIMASZ
 40
2.5
  9
$DIMEXO
 40
0.625
  9
$DIMDLI
 40
3.75
  9
$DIMRND
 40
0.0
  9
$DIMDLE
 40
0.0
  9
$DIMEXE
 40
1.25
  9
$DIMTP
 40
0.0
  9
$DIMTM
 40
0.0
  9
$DIMTXT
 40
2.5
  9
$DIMCEN
 40
2.5
  9
$DIMTSZ
 40
0.0
  9
$DIMTOL
 70
     0
  9
$DIMLIM
 70
     0
  9
$DIMTIH
 70
     0
  9
$DIMTOH
 70
     0
  9
$DIMSE1
 70
     0
  9
$DIMSE2
 70
     0
  9
$DIMTAD
 70
     1
  9
$DIMZIN
 70
     8
  9
$DIMBLK
  1

  9
$DIMASO
 70
     1
  9
$DIMSHO
 70
     1
  9
$DIMPOST
  1

  9
$DIMAPOST
  1

  9
$DIMALT
 70
     0
  9
$DIMALTD
 70
     3
  9
$DIMALTF
 40
0.03937007874016
  9
$DIMLFAC
 40
1.0
  9
$DIMTOFL
 70
     1
  9
$DIMTVP
 40
0.0
  9
$DIMTIX
 70
     0
  9
$DIMSOXD
 70
     0
  9
$DIMSAH
 70
     0
  9
$DIMBLK1
  1

  9
$DIMBLK2
  1

  9
$DIMSTYLE
  2
ISO-25
  9
$DIMCLRD
 70
     0
  9
$DIMCLRE
 70
     0
  9
$DIMCLRT
 70
     0
  9
$DIMTFAC
 40
1.0
  9
$DIMGAP
 40
0.625
  9
$LUNITS
 70
     2
  9
$LUPREC
 70
     1
  9
$SKETCHINC
 40
1.0
  9
$FILLETRAD
 40
0.0
  9
$AUNITS
 70
     0
  9
$AUPREC
 70
     1
  9
$MENU
  1
.
  9
$ELEVATION
 40
0.0
  9
$PELEVATION
 40
0.0
  9
$THICKNESS
 40
0.0
  9
$LIMCHECK
 70
     0
  9
$BLIPMODE
 70
     0
  9
$CHAMFERA
 40
0.0
  9
$CHAMFERB
 40
0.0
  9
$SKPOLY
 70
     0
  9
$TDCREATE
 40
2454083.4444627082
  9
$TDUPDATE
 40
2458838.5595564581
  9
$TDINDWG
 40
2.3679252083
  9
$TDUSRTIMER
 40
2.3679252199
  9
$USRTIMER
 70
     1
  9
$ANGBASE
 50
0.0
  9
$ANGDIR
 70
     0
  9
$PDMODE
 70
     0
  9
$PDSIZE
 40
0.0
  9
$PLINEWID
 40
0.0
  9
$COORDS
 70
     1
  9
$SPLFRAME
 70
     0
  9
$SPLINETYPE
 70
     6
  9
$SPLINESEGS
 70
     8
  9
$ATTDIA
 70
     0
  9
$ATTREQ
 70
     1
  9
$HANDLING
 70
     1
  9
$HANDSEED
  5
1985D
  9
$SURFTAB1
 70
     6
  9
$SURFTAB2
 70
     6
  9
$SURFTYPE
 70
     6
  9
$SURFU
 70
     6
  9
$SURFV
 70
     6
  9
$UCSNAME
  2

  9
$UCSORG
 10
0.0
 20
0.0
 30
0.0
  9
$UCSXDIR
 10
1.0
 20
0.0
 30
0.0
  9
$UCSYDIR
 10
0.0
 20
1.0
 30
0.0
  9
$PUCSNAME
  2

  9
$PUCSORG
 10
0.0
 20
0.0
 30
0.0
  9
$PUCSXDIR
 10
1.0
 20
0.0
 30
0.0
  9
$PUCSYDIR
 10
0.0
 20
1.0
 30
0.0
  9
$USERI1
 70
     0
  9
$USERI2
 70
     0
  9
$USERI3
 70
     0
  9
$USERI4
 70
     0
  9
$USERI5
 70
     0
  9
$USERR1
 40
0.0
  9
$USERR2
 40
0.0
  9
$USERR3
 40
0.0
  9
$USERR4
 40
0.0
  9
$USERR5
 40
0.0
  9
$WORLDVIEW
 70
     1
  9
$SHADEDGE
 70
     3
  9
$SHADEDIF
 70
    70
  9
$TILEMODE
 70
     1
  9
$MAXACTVP
 70
    64
  9
$PLIMCHECK
 70
     0
  9
$PEXTMIN
 10
0.0
 20
0.0
 30
0.0
  9
$PEXTMAX
 10
0.0
 20
0.0
 30
0.0
  9
$PLIMMIN
 10
0.0
 20
0.0
  9
$PLIMMAX
 10
12.0
 20
9.0
  9
$UNITMODE
 70
     0
  9
$VISRETAIN
 70
     1
  9
$PLINEGEN
 70
     0
  9
$PSLTSCALE
 70
     1
  0
ENDSEC
  0
SECTION
  2
TABLES
  0
TABLE
  2
VPORT
 70
     1
  0
VPORT
  2
*ACTIVE
 70
     0
 10
0.0
 20
0.0
 11
1.0
 21
1.0
 12
603.91104294478521
 22
250.0
 13
0.0
 23
0.0
 14
10.0
 24
10.0
 15
10.0
 25
10.0
 16
0.0
 26
0.0
 36
1.0
 17
0.0
 27
0.0
 37
0.0
 40
500.0
 41
2.415644171779141
 42
50.0
 43
0.0
 44
0.0
 50
0.0
 51
0.0
 71
     0
 72
  1000
 73
     1
 74
     3
 75
     0
 76
     0
 77
     0
 78
     0
  0
ENDTAB
  0
TABLE
  2
LTYPE
 70
     2
  0
LTYPE
  2
CONTINUOUS
 70
     0
  3
Solid line
 72
    65
 73
     0
 40
0.0
  0
LTYPE
  2
CENTER
 70
     0
  3
____ _ ____ _ ____ _ ____ _ ____ _ ____ _ ____
 72
    65
 73
     4
 40
2.0
 49
1.25
 49
-0.25
 49
0.25
 49
-0.25
  0
ENDTAB
  0
TABLE
  2
LAYER
 70
     4
  0
LAYER
  2
0
 70
     0
 62
     7
  6
CONTINUOUS
  0
LAYER
  2
DEFPOINTS
 70
     0
 62
     7
  6
CONTINUOUS
  0
LAYER
  2
1
 70
     0
 62
     1
  6
CENTER
  0
LAYER
  2
3
 70
     0
 62
     3
  6
CONTINUOUS
  0
ENDTAB
  0
TABLE
  2
STYLE
 70
     2
  0
STYLE
  2
STANDARD
 70
     0
 40
0.0
 41
1.0
 50
0.0
 71
     0
 42
2.5
  3
txt
  4

  0
STYLE
  2
STANDARD1
 70
     0
 40
0.0
 41
1.0
 50
0.0
 71
     0
 42
3.0
  3
txt
  4

  0
ENDTAB
  0
TABLE
  2
VIEW
 70
     4
  0
VIEW
  2
OLE1
 70
     0
 40
17.336203194614189
 10
1078.262703908531
 20
377.67444865954309
 41
31.074911629702001
 11
0.0
 21
0.0
 31
1.0
 12
0.0
 22
0.0
 32
0.0
 42
50.0
 43
0.0
 44
0.0
 50
0.0
 71
     0
  0
VIEW
  2
OLE2
 70
     0
 40
50.523198253338478
 10
1031.767738941523
 20
579.92835671582054
 41
90.562155008667546
 11
0.0
 21
0.0
 31
1.0
 12
0.0
 22
0.0
 32
0.0
 42
50.0
 43
0.0
 44
0.0
 50
0.0
 71
     0
  0
VIEW
  2
OLE3
 70
     0
 40
19.902492574755801
 10
485.89971154156422
 20
299.78832697703888
 41
25.268360670890939
 11
0.0
 21
0.0
 31
1.0
 12
0.0
 22
0.0
 32
0.0
 42
50.0
 43
0.0
 44
0.0
 50
0.0
 71
     0
  0
VIEW
  2
OLE4
 70
     0
 40
92.481941524941249
 10
629.0561467662684
 20
101.6109246611972
 41
152.88420958341851
 11
0.0
 21
0.0
 31
1.0
 12
0.0
 22
0.0
 32
0.0
 42
50.0
 43
0.0
 44
0.0
 50
0.0
 71
     0
  0
ENDTAB
  0
TABLE
  2
UCS
 70
     0
  0
ENDTAB
  0
TABLE
  2
APPID
 70
    45
  0
APPID
  2
ACAD
 70
     0
  0
APPID
  2
_FTCNV
 70
     0
  0
APPID
  2
DCO15
 70
     0
  0
APPID
  2
GENIUS_GENOREF_13
 70
     0
  0
APPID
  2
GENIUS_GENOENT_13
 70
     0
  0
APPID
  2
GENIUS_GENBH_13
 70
     0
  0
APPID
  2
GENIUS_GENOBJ_13
 70
     0
  0
APPID
  2
GENIUS_GENODEF_13
 70
     0
  0
APPID
  2
GENIUS_GENOLIS_13
 70
     0
  0
APPID
  2
GENIUS_GENOBJ-NBEHI-BHF_13
 70
     0
  0
APPID
  2
GENIUS_GENOBJ-NBEHI-BHB_13
 70
     0
  0
APPID
  2
GENIUS_GENOBJ-F-PART_13
 70
     0
  0
APPID
  2
GENIUS_GEFSTDP_13
 70
     0
  0
APPID
  2
GENIUS_GENOBJ-N-RSSYM_13
 70
     0
  0
APPID
  2
GENIUS_GENSYMENT_13
 70
     0
  0
APPID
  2
GENIUS_GENOBJ-N-TIT_13
 70
     0
  0
APPID
  2
GENIUS_GENTITLE_13
 70
     0
  0
APPID
  2
GENIUS_GENZVEED_13
 70
     0
  0
APPID
  2
GENIUS_GENOBJ-N-LEADER_13
 70
     0
  0
APPID
  2
GENIUS_GENOBJ-N-FIL_13
 70
     0
  0
APPID
  2
GENIUS_GENOBJ-N-SEC_13
 70
     0
  0
APPID
  2
GENIUS_GENOBJ-N-CRS_13
 70
     0
  0
APPID
  2
GENIUS_GENOBJ-N-ZOO_13
 70
     0
  0
APPID
  2
GENIUS_GENZOO_13
 70
     0
  0
APPID
  2
GENIUS_GENOBJ-F-TOL_13
 70
     0
  0
APPID
  2
GENIUS_GENFIL_13
 70
     0
  0
APPID
  2
GENIUS_GENOBJ-N-CHA_13
 70
     0
  0
APPID
  2
_CALL_MAC$
 70
     0
  0
APPID
  2
ASM_BASE
 70
     0
  0
APPID
  2
ASM_EXPLO_VER_2_00
 70
     0
  0
APPID
  2
ASM_CADM_VER_12_00
 70
     0
  0
APPID
  2
ASM_BASEFORO
 70
     0
  0
APPID
  2
ASM_BASETRAVI
 70
     0
  0
APPID
  2
ASM_BASETRAVI1
 70
     0
  0
APPID
  2
ASM_GRUPPI
 70
     0
  0
APPID
  2
ASM_CADM_ALBERO
 70
     0
  0
APPID
  2
ASM_GOLE
 70
     0
  0
APPID
  2
ACAD_MLEADERVER
 70
     0
  0
APPID
  2
ACAD_EXEMPT_FROM_CAD_STANDARDS
 70
     0
  0
APPID
  2
ACAD_DSTYLE_DIMJAG
 70
     0
  0
APPID
  2
ACAD_DSTYLE_DIMTALN
 70
     0
  0
APPID
  2
ACAD_NAV_VCDISPLAY
 70
     0
  0
APPID
  2
ACADANNOPO
 70
     0
  0
APPID
  2
ACADANNOMONITORALERTICONDI
 70
     0
  0
APPID
  2
ACAD_DSTYLE_DIMRADIAL_EXTENSION
 70
     0
  0
ENDTAB
  0
TABLE
  2
DIMSTYLE
 70
     2
  0
DIMSTYLE
  2
ISO-25
 70
     0
  3

  4

  5

  6

  7

 40
1.0
 41
2.5
 42
0.625
 43
3.75
 44
1.25
 45
0.0
 46
0.0
 47
0.0
 48
0.0
140
2.5
141
2.5
142
0.0
143
0.03937007874016
144
1.0
145
0.0
146
1.0
147
0.625
 71
     0
 72
     0
 73
     0
 74
     0
 75
     0
 76
     0
 77
     1
 78
     8
170
     0
171
     3
172
     1
173
     0
174
     0
175
     0
176
     0
177
     0
178
     0
  0
DIMSTYLE
  2
STANDARD
 70
     0
  3

  4

  5

  6

  7

 40
1.0
 41
0.18
 42
0.0625
 43
0.38
 44
0.18
 45
0.0
 46
0.0
 47
0.0
 48
0.0
140
0.18
141
0.09
142
0.0
143
25.399999999999999
144
1.0
145
0.0
146
1.0
147
0.09
 71
     0
 72
     0
 73
     1
 74
     1
 75
     0
 76
     0
 77
     0
 78
     0
170
     0
171
     2
172
     0
173
     0
174
     0
175
     0
176
     0
177
     0
178
     0
  0
ENDTAB
  0
ENDSEC
  0
SECTION
  2
BLOCKS
  0
BLOCK
  8
0
  2
$MODEL_SPACE
 70
     0
 10
0.0
 20
0.0
 30
0.0
  3
$MODEL_SPACE
  1

  0
ENDBLK
  5
21
  8
0
  0
BLOCK
 67
     1
  8
0
  2
$PAPER_SPACE
 70
     0
 10
0.0
 20
0.0
 30
0.0
  3
$PAPER_SPACE
  1

  0
ENDBLK
  5
53
 67
     1
  8
0
  0
ENDSEC
  0
SECTION
  2
ENTITIES
  0
TEXT
  5
C317
  8
0
 62
     3
 10
0.0
 20
0.0
 30
0.0
 40
10.0
  1
ST-VTC207TU
  7
STANDARD1
  0
LINE
  5
18314
  8
0
 10
189.38609622403681
 20
229.00232236832889
 30
0.0
 11
189.3861036746174
 21
227.0023183152131
 31
0.0
  0
LINE
  5
18315
  8
0
 10
211.8861008433968
 20
227.00235556811609
 30
0.0
 11
211.88609711810651
 21
229.00235217065131
 31
0.0
  0
LINE
  5
18316
  8
0
 10
189.38612602635919
 20
211.0003189370087
 30
0.0
 11
189.38612602635919
 21
209.00031860918321
 31
0.0
  0
LINE
  5
18317
  8
0
 10
211.88613064571911
 20
209.0003558620862
 30
0.0
 11
211.88612692042881
 21
211.00035618991171
 31
0.0
  0
LINE
  5
1831E
  8
0
 10
179.999988898787
 20
227.0023257657937
 30
0.0
 11
180.0000112502247
 21
211.0001786450099
 31
0.0
  0
ARC
  5
1832D
  8
0
 10
200.6360832053158
 20
238.79039263567429
 30
0.0
 40
12.68832169016869
 50
241.5535288927891
 51
298.44664768356591
  0
ARC
  5
1832E
  8
0
 10
200.63608320532489
 20
237.79038833430729
 30
0.0
 40
12.68831641451095
 50
241.55351598674631
 51
298.44666058960792
  0
ARC
  5
18331
  8
0
 10
191.79537223794449
 20
225.59615318999971
 30
0.0
 40
3.460483948350277
 50
36.078880720580223
 51
79.835222615025145
  0
ARC
  5
18333
  8
0
 10
209.4329324282798
 20
225.6663320608273
 30
0.0
 40
3.3838301933329431
 50
99.64285809000738
 51
144.44354731549981
  0
ARC
  5
18334
  8
0
 10
192.285898507562
 20
219.61693065529721
 30
0.0
 40
7.3863729108532787
 50
71.806214415180762
 51
89.06770811904326
  0
ARC
  5
18337
  8
0
 10
209.2485156750667
 20
218.0607261830128
 30
0.0
 40
8.9497986613259002
 50
92.448808605398241
 51
106.6776486312563
  0
LINE
  5
18338
  8
0
 10
179.99998889878691
 20
227.00232576579361
 30
0.0
 11
192.4060810355812
 21
227.0023257657937
 31
0.0
  0
LINE
  5
18339
  8
0
 10
211.88609711816201
 20
229.00232236832889
 30
0.0
 11
189.38609622403681
 21
229.00232236832889
 31
0.0
  0
LINE
  5
1833B
  8
0
 10
208.8661197571426
 20
227.00235184282579
 30
0.0
 11
237.23948233016799
 21
227.00235184282579
 31
0.0
  0
ARC
  5
1833C
  8
0
 10
200.63614366438651
 20
200.2123150877523
 30
0.0
 40
12.688290988965839
 50
61.553453787094213
 51
118.44672278926021
  0
ARC
  5
1833E
  8
0
 10
200.636143664424
 20
199.21229235174181
 30
0.0
 40
12.688312473491539
 50
61.553506345671202
 51
118.4466702306844
  0
ARC
  5
18340
  8
0
 10
191.83930860305611
 20
212.33632890146961
 30
0.0
 40
3.3838107970608902
 50
279.64267066656481
 51
324.44359443215347
  0
ARC
  5
18342
  8
0
 10
192.02377277483041
 20
219.94167711831261
 30
0.0
 40
8.9495211931730836
 50
272.44846609938247
 51
286.67776926088129
  0
ARC
  5
18343
  8
0
 10
209.476863265633
 20
212.406535109109
 30
0.0
 40
3.4604990495270309
 50
216.0789811219189
 51
259.8351222136863
  0
LINE
  5
18344
  8
0
 10
189.38612602635931
 20
209.0003212753202
 30
0.0
 11
211.886130645717
 21
209.00035692123939
 31
0.0
  0
ARC
  5
18345
  8
0
 10
208.98628660667569
 20
218.3855707049529
 30
0.0
 40
7.3861953848069017
 50
251.80610276381711
 51
269.06800965600632
  0
LINE
  5
18347
  8
0
 10
192.40610338732299
 20
211.0003263875893
 30
0.0
 11
180.0000112502247
 21
211.0001786450099
 31
0.0
  0
LINE
  5
18349
  8
0
 10
233.69049131855081
 20
211.00035246462139
 30
0.0
 11
208.86614583417469
 21
211.00035246462139
 31
0.0
  0
ARC
  5
1834B
  8
0
 10
237.7394141327768
 20
292.99883999872532
 30
0.0
 40
1.0000000000000331
 50
90.000045691572126
 51
180.0000456915688
  0
ARC
  5
1834D
  8
0
 10
251.73941413277231
 20
292.99885116328198
 30
0.0
 40
1.0000000000000899
 50
0.0000456915688687
 51
90.000045691565617
  0
ARC
  5
18350
  8
0
 10
237.7394196264475
 20
286.10995110983839
 30
0.0
 40
1.0000000000000331
 50
180.0000456915721
 51
270.0000456915721
  0
ARC
  5
18351
  8
0
 10
251.73941962644301
 20
286.109962274395
 30
0.0
 40
0.9999999999999769
 50
270.0000456915721
 51
0.0000456915721255
  0
LINE
  5
18356
  8
0
 10
236.73940859719721
 20
292.998839201257
 30
0.0
 11
236.73942536100441
 21
279.9988419935159
 31
0.0
  0
LINE
  5
18357
  8
0
 10
251.73942531676661
 20
278.99885486811911
 30
0.0
 11
237.73942552491721
 21
278.99883996695792
 31
0.0
  0
LINE
  5
18358
  8
0
 10
252.73941414474291
 20
292.998839201257
 30
0.0
 11
252.73942449114921
 21
279.99884944409638
 31
0.0
  0
ARC
  5
18359
  8
0
 10
237.7394244998647
 20
279.99883999872941
 30
0.0
 40
1.0000000000000331
 50
180.0000456915688
 51
270.0000456915721
  0
ARC
  5
1835A
  8
0
 10
251.73942449986021
 20
279.99885116328608
 30
0.0
 40
0.9999999999999769
 50
270.0000456915721
 51
0.0000456915688687
  0
LINE
  5
1835B
  8
0
 10
232.76900164767801
 20
228.68439119309701
 30
0.0
 11
236.2394793537494
 21
228.684394498302
 31
0.0
  0
LINE
  5
1835C
  8
0
 10
232.60707817956501
 20
228.5504148528031
 30
0.0
 11
232.76900164767801
 21
228.68439119309701
 31
0.0
  0
LINE
  5
1835D
  8
0
 10
232.6070465145975
 20
247.60958861560141
 30
0.0
 11
232.60707817956501
 21
227.68438916653909
 31
0.0
  0
ARC
  5
1835E
  8
0
 10
234.30625557672761
 20
247.90235905889651
 30
0.0
 40
1.7242464931940531
 50
189.77596791638811
 51
247.48038854556
  0
ARC
  5
18361
  8
0
 10
244.73949200727731
 20
220.7516080677762
 30
0.0
 40
7.4999999999999982
 50
338.96014480764342
 51
21.039561173309661
  0
ARC
  5
18362
  8
0
 10
244.73949200727731
 20
220.7516080677762
 30
0.0
 40
7.4999999999999911
 50
180.00009139198829
 51
201.03908436184309
  0
LINE
  5
18363
  8
0
 10
237.2394813223153
 20
227.68439661711969
 30
0.0
 11
237.23949156686359
 21
220.75159784406941
 31
0.0
  0
ARC
  5
18364
  8
0
 10
236.2394809488404
 20
227.68439449830331
 30
0.0
 40
1.0000000000000211
 50
0.0000913919899589
 51
90.000091391983446
  0
ARC
  5
18365
  8
0
 10
235.89348728228771
 20
247.80959395463771
 30
0.0
 40
1.500000000000032
 50
270.00009139198988
 51
349.38430176614082
  0
POLYLINE
  5
18366
  8
0
 66
     1
 10
0.0
 20
0.0
 30
0.0
 70
   128
  0
VERTEX
  5
19768
  8
0
 10
237.36781477912959
 20
247.53326486796649
 30
0.0
  0
VERTEX
  5
19769
  8
0
 10
237.677694670704
 20
248.677785806363
 30
0.0
  0
VERTEX
  5
1976A
  8
0
 10
237.73944973930421
 20
248.8441870734147
 30
0.0
  0
SEQEND
  5
1976B
  8
0
  0
ARC
  5
18367
  8
0
 10
244.73945149196311
 20
246.15160806774321
 30
0.0
 40
7.5000000000000338
 50
338.96062161066982
 51
21.03951547289924
  0
LINE
  5
18368
  8
0
 10
233.64586979135581
 20
246.30958896130849
 30
0.0
 11
235.89349016532
 21
246.309596411889
 31
0.0
  0
LINE
  5
1836A
  8
0
 10
232.6070465145975
 20
247.60958861560141
 30
0.0
 11
235.60704700633579
 21
247.60959606618201
 31
0.0
  0
LINE
  5
1836B
  8
0
 10
235.60704700633579
 20
247.60959606618201
 30
0.0
 11
235.6139294801622
 21
246.309596411889
 31
0.0
  0
LINE
  5
1836C
  8
0
 10
235.60814969226419
 20
228.68439119309701
 30
0.0
 11
235.60707680865821
 21
228.5504223033837
 31
0.0
  0
LINE
  5
1836D
  8
0
 10
232.60707817956501
 20
228.5504148528031
 30
0.0
 11
235.60707680865821
 21
228.5504223033837
 31
0.0
  0
POLYLINE
  5
1836F
  8
0
 66
     1
 10
0.0
 20
0.0
 30
0.0
 70
   128
  0
VERTEX
  5
1976C
  8
0
 10
237.08490040138059
 20
256.77718531340872
 30
0.0
  0
VERTEX
  5
1976D
  8
0
 10
237.46143225565251
 20
257.05547939986502
 30
0.0
  0
VERTEX
  5
1976E
  8
0
 10
237.73944228872361
 20
257.2440982982568
 30
0.0
  0
SEQEND
  5
1976F
  8
0
  0
LINE
  5
18370
  8
0
 10
235.60704700633579
 20
247.6700649783067
 30
0.0
 11
235.60704700633579
 21
247.60959606618201
 31
0.0
  0
LINE
  5
18371
  8
0
 10
232.6070465145975
 20
247.60958861560141
 30
0.0
 11
232.6070465145975
 21
247.6700575277261
 31
0.0
  0
ARC
  5
18372
  8
0
 10
244.10704690675769
 20
247.67007896033269
 30
0.0
 40
11.50000000000002
 50
127.634452729613
 51
180.00009139198829
  0
ARC
  5
18373
  8
0
 10
244.10704690675769
 20
247.67007896033269
 30
0.0
 40
8.5000000000000355
 50
138.51503238426221
 51
180.00009139198829
  0
LINE
  5
18374
  8
0
 10
232.60707817956501
 20
227.68438916653909
 30
0.0
 11
235.60707867130341
 21
227.68439289182939
 31
0.0
  0
CIRCLE
  5
183A1
  8
0
 10
244.739451491962
 20
246.1516080677427
 30
0.0
 40
3.9999999999999751
  0
CIRCLE
  5
183A2
  8
0
 10
244.73949200335349
 20
195.3516080677592
 30
0.0
 40
3.9999999999999818
  0
LINE
  5
183B1
  8
0
 10
271.05116695150429
 20
228.0706049129418
 30
0.0
 11
251.73947851856869
 21
229.2015359923295
 31
0.0
  0
ARC
  5
183B2
  8
0
 10
270.36949224874019
 20
220.601648945812
 30
0.0
 40
7.4999999999999671
 50
339.95988849293099
 51
84.785197215776279
  0
LINE
  5
183B6
  8
0
 10
272.60249145313799
 20
182.9999995604208
 30
0.0
 11
237.50049192443191
 21
182.9999995604208
 31
0.0
  0
LINE
  5
183B7
  8
0
 10
272.60249145313799
 20
180.00000000000509
 30
0.0
 11
237.50049192443191
 21
180.00000000000509
 31
0.0
  0
LINE
  5
183BF
  8
0
 10
233.6904913185507
 20
195.3516484424523
 30
0.0
 11
237.50049192443191
 21
185.42625878006729
 31
0.0
  0
LINE
  5
183C0
  8
0
 10
233.6904913185507
 20
212.84964989871301
 30
0.0
 11
233.6904913185507
 21
195.3516484424523
 31
0.0
  0
ARC
  5
183C1
  8
0
 10
235.19049200335391
 20
212.8496485895275
 30
0.0
 40
1.4999999999999429
 50
90.0
 51
179.99999999999841
  0
LINE
  5
183C2
  8
0
 10
237.73947674765881
 20
214.3496492132596
 30
0.0
 11
235.1904924957424
 21
214.3496492132596
 31
0.0
  0
LINE
  5
183C3
  8
0
 10
266.03381186708509
 20
226.4026322588376
 30
0.0
 11
251.73947554997801
 21
216.01718973368921
 31
0.0
  0
ARC
  5
183C4
  8
0
 10
270.13949200724511
 20
220.7516485830898
 30
0.0
 40
6.9849999925036039
 50
19.330704686223729
 51
125.99999996934331
  0
ARC
  5
183C5
  8
0
 10
282.10249200974857
 20
188.93584221271581
 30
0.0
 40
9.5000000000000604
 50
124.43364471153031
 51
180.0
  0
LINE
  5
183C6
  8
0
 10
272.60249145313799
 20
180.000000000005
 30
0.0
 11
272.60249145313799
 21
188.93584173173221
 31
0.0
  0
LINE
  5
183C7
  8
0
 10
237.50049192443191
 20
180.00000000000509
 30
0.0
 11
237.50049192443191
 21
185.42625878006729
 31
0.0
  0
POLYLINE
  5
183C8
  8
0
 66
     1
 10
0.0
 20
0.0
 30
0.0
 70
   128
  0
VERTEX
  5
19770
  8
0
 10
276.73070356234609
 20
196.77126716822889
 30
0.0
  0
VERTEX
  5
19771
  8
0
 10
277.93306335791641
 20
197.15511735529219
 30
0.0
  0
VERTEX
  5
19772
  8
0
 10
278.99953201397949
 20
197.4959218129566
 30
0.0
  0
VERTEX
  5
19773
  8
0
 10
279.77815866455143
 20
197.79397483915599
 30
0.0
  0
VERTEX
  5
19774
  8
0
 10
280.1826748995453
 20
198.05598195642739
 30
0.0
  0
VERTEX
  5
19775
  8
0
 10
280.23070320471822
 20
198.17035581917079
 30
0.0
  0
SEQEND
  5
19776
  8
0
  0
LINE
  5
183C9
  8
0
 10
277.4153895674616
 20
220.7516499981335
 30
0.0
 11
276.73070356234609
 21
223.06382592767989
 31
0.0
  0
LINE
  5
183CA
  8
0
 10
277.4153895674616
 20
216.9585743174008
 30
0.0
 11
277.4153895674616
 21
220.7516499981335
 31
0.0
  0
POLYLINE
  5
183CB
  8
0
 66
     1
 10
0.0
 20
0.0
 30
0.0
 70
   128
  0
VERTEX
  5
19777
  8
0
 10
280.23070320471822
 20
212.34321530908861
 30
0.0
  0
VERTEX
  5
19778
  8
0
 10
279.96188439413601
 20
212.95408841223039
 30
0.0
  0
VERTEX
  5
19779
  8
0
 10
279.34505268916189
 20
213.64606108516969
 30
0.0
  0
VERTEX
  5
1977A
  8
0
 10
278.5054057835012
 20
214.58001371473591
 30
0.0
  0
VERTEX
  5
1977B
  8
0
 10
277.72766761466562
 20
215.8405774459294
 30
0.0
  0
VERTEX
  5
1977C
  8
0
 10
277.4153895674616
 20
216.9585743174008
 30
0.0
  0
SEQEND
  5
1977D
  8
0
  0
LINE
  5
183CC
  8
0
 10
280.23070320471822
 20
198.17035581917079
 30
0.0
 11
280.23070320471822
 21
212.34321530908861
 31
0.0
  0
ARC
  5
183DD
  8
0
 10
244.73949200335389
 20
195.35160806775929
 30
0.0
 40
7.000000000000008
 50
180.00004569157051
 51
0.0000456915704971
  0
LINE
  5
183DE
  8
0
 10
251.73949202274599
 20
195.35161305219441
 30
0.0
 11
251.73942521293549
 21
278.998854868119
 31
0.0
  0
LINE
  5
183DF
  8
0
 10
237.73943056556729
 20
278.99883996696332
 30
0.0
 11
237.73949164882001
 21
195.35160187632351
 31
0.0
  0
CIRCLE
  5
183E8
  8
0
 10
270.13949200724392
 20
220.7516485830898
 30
0.0
 40
4.0
  0
CIRCLE
  5
183E9
  8
0
 10
266.65189200335362
 20
195.3516485830898
 30
0.0
 40
4.0
  0
LINE
  5
183F2
  8
0
 10
277.86949314161831
 20
380.9988470561608
 30
0.0
 11
277.86949314161831
 21
386.9988470561608
 31
0.0
  0
ARC
  5
183F4
  8
0
 10
273.38949200724392
 20
391.28664362772059
 30
0.0
 40
0.750000000000057
 50
0.0
 51
90.0
  0
ARC
  5
183F5
  8
0
 10
266.88949200724392
 20
391.28664362772059
 30
0.0
 40
0.750000000000057
 50
90.0
 51
180.0
  0
ARC
  5
183F6
  8
0
 10
273.38949200724392
 20
390.78664362772059
 30
0.0
 40
0.75
 50
270.0
 51
0.0
  0
ARC
  5
183F7
  8
0
 10
266.88949200724392
 20
390.78664362772059
 30
0.0
 40
0.75
 50
180.0
 51
270.0
  0
ARC
  5
183F8
  8
0
 10
266.88949200724392
 20
377.24664362772057
 30
0.0
 40
0.75
 50
90.0
 51
180.0
  0
ARC
  5
183F9
  8
0
 10
273.38949200724392
 20
377.24664362772057
 30
0.0
 40
0.75
 50
0.0
 51
90.0
  0
ARC
  5
183FA
  8
0
 10
273.38949200724392
 20
376.74664362772069
 30
0.0
 40
0.75
 50
270.0
 51
0.0
  0
ARC
  5
183FB
  8
0
 10
266.88949200724392
 20
376.74664362772069
 30
0.0
 40
0.75
 50
180.0
 51
270.0
  0
LINE
  5
183FC
  8
0
 10
266.13949183359438
 20
391.28664364291268
 30
0.0
 11
266.13949183359438
 21
390.78664449227892
 31
0.0
  0
LINE
  5
183FD
  8
0
 10
274.13949221357399
 20
390.78664449227892
 30
0.0
 11
274.13949221357399
 21
391.28664364291268
 31
0.0
  0
LINE
  5
183FE
  8
0
 10
274.13949221357399
 20
376.74664375556551
 30
0.0
 11
274.13949221357399
 21
377.24664383752179
 31
0.0
  0
LINE
  5
183FF
  8
0
 10
266.13949183359438
 20
377.24664383752179
 30
0.0
 11
266.13949183359438
 21
376.74664375556551
 31
0.0
  0
ARC
  5
18404
  8
0
 10
269.90189200335362
 20
397.75105097413081
 30
0.0
 40
0.7499999999999432
 50
0.0
 51
90.0
  0
ARC
  5
18405
  8
0
 10
263.40189200335362
 20
397.75105097413081
 30
0.0
 40
0.750000000000057
 50
90.0
 51
180.0
  0
ARC
  5
18406
  8
0
 10
263.40189200335362
 20
390.75105097413081
 30
0.0
 40
0.750000000000057
 50
180.0
 51
270.0
  0
ARC
  5
18408
  8
0
 10
263.40189200335362
 20
376.74664349479508
 30
0.0
 40
0.750000000000057
 50
180.0
 51
270.0
  0
ARC
  5
18409
  8
0
 10
263.40189200335362
 20
377.24664349479508
 30
0.0
 40
0.750000000000057
 50
90.0
 51
180.0
  0
LINE
  5
1840A
  8
0
 10
262.65189181998068
 20
397.75105049086648
 30
0.0
 11
262.65189181998068
 21
390.75105120612221
 31
0.0
  0
LINE
  5
1840B
  8
0
 10
270.65189219996029
 20
392.03664330018597
 30
0.0
 11
270.65189219996029
 21
397.75105049086648
 31
0.0
  0
LINE
  5
1840C
  8
0
 10
262.65189181998068
 20
377.24664307202949
 30
0.0
 11
262.65189181998068
 21
376.74664392139567
 31
0.0
  0
ARC
  5
18412
  8
0
 10
200.63610054455361
 20
383.99884705616068
 30
0.0
 40
11.25000000002302
 50
317.01711656346947
 51
42.982883436530607
  0
ARC
  5
18414
  8
0
 10
200.63609735437149
 20
383.99884705616068
 30
0.0
 40
11.250000000023009
 50
137.01711656346939
 51
222.98288343653081
  0
ARC
  5
18415
  8
0
 10
200.7968763194938
 20
386.4189383850582
 30
0.0
 40
9.6267578449516691
 50
33.048433742520402
 51
52.329013909577242
  0
ARC
  5
18416
  8
0
 10
199.2375053624846
 20
387.56070328126037
 30
0.0
 40
7.9715393180406648
 50
125.6435879499121
 51
148.978867078078
  0
ARC
  5
18417
  8
0
 10
202.03407243832859
 20
380.43755747235872
 30
0.0
 40
7.9723626014025104
 50
305.64485463107337
 51
328.9776640535058
  0
ARC
  5
18418
  8
0
 10
200.47522590330729
 20
381.57868088781959
 30
0.0
 40
9.6266381277155446
 50
213.04837367819189
 51
232.32920495714771
  0
ARC
  5
18419
  8
0
 10
200.63610039636211
 20
374.02309203357862
 30
0.0
 40
20.908352922498899
 50
73.197818857129974
 51
106.80218114287
  0
ARC
  5
1841A
  8
0
 10
200.63610039636211
 20
393.97457855210098
 30
0.0
 40
20.90833010910946
 50
253.19779997975721
 51
286.80220002024282
  0
LINE
  5
1841B
  8
0
 10
252.73941413018551
 20
351.99884786454868
 30
0.0
 11
252.73941413018551
 21
415.99884624777269
 31
0.0
  0
LINE
  5
1841C
  8
0
 10
236.7394141851336
 20
415.99884624777269
 30
0.0
 11
236.7394141851336
 21
351.99884786454868
 31
0.0
  0
ARC
  5
1841D
  8
0
 10
244.73941413277359
 20
415.99884778080121
 30
0.0
 40
8.000000000007617
 50
0.0000913831393658
 51
180.00009138313931
  0
ARC
  5
1841E
  8
0
 10
244.7394141327745
 20
351.99884778080138
 30
0.0
 40
8.0000000000076739
 50
180.00009138314101
 51
0.0000913831393658
  0
LINE
  5
18426
  8
0
 10
232.6070465145975
 20
380.99884703008371
 30
0.0
 11
236.73942163571411
 21
380.99884703008371
 31
0.0
  0
LINE
  5
18427
  8
0
 10
232.6070465145975
 20
386.99884708223777
 30
0.0
 11
232.6070465145975
 21
380.99884703008371
 31
0.0
  0
LINE
  5
18428
  8
0
 10
236.73941418513351
 20
386.99884708223777
 30
0.0
 11
232.6070465145975
 21
386.99884708223777
 31
0.0
  0
ARC
  5
18429
  8
0
 10
235.627049076845
 20
386.99884745030329
 30
0.0
 40
3.0200000000049458
 50
90.0
 51
130.99703067903741
  0
ARC
  5
1842A
  8
0
 10
235.6270513263932
 20
386.99884262547278
 30
0.0
 40
3.0200048117990188
 50
130.99698626009899
 51
179.99991544588869
  0
ARC
  5
1842B
  8
0
 10
235.62704420746721
 20
380.99884917365802
 30
0.0
 40
3.0199976928703558
 50
180.00004066816271
 51
229.00307529504121
  0
ARC
  5
1842C
  8
0
 10
235.62704907684511
 20
380.99884745030329
 30
0.0
 40
3.0200000000049552
 50
229.00296932055679
 51
270.0
  0
LINE
  5
18438
  8
0
 10
236.7394141851336
 20
390.01884679494339
 30
0.0
 11
235.62704995259341
 21
390.01884679494339
 31
0.0
  0
LINE
  5
1843A
  8
0
 10
235.62704995259341
 20
377.9788473173781
 30
0.0
 11
236.7394141851336
 21
377.9788473173781
 31
0.0
  0
LINE
  5
1845E
  8
0
 10
252.7394221096182
 20
380.9988470561608
 30
0.0
 11
277.86949314161831
 21
380.9988470561608
 31
0.0
  0
LINE
  5
18460
  8
0
 10
277.86949314161831
 20
383.99884705616068
 30
0.0
 11
252.73942449114909
 21
383.99884705616068
 31
0.0
  0
LINE
  5
18461
  8
0
 10
277.86949314161831
 20
386.9988470561608
 30
0.0
 11
252.7394636066972
 21
386.9988470561608
 31
0.0
  0
LINE
  5
18462
  8
0
 10
232.6070465145975
 20
385.34809271989297
 30
0.0
 11
224.57307614370879
 21
388.27222022412258
 31
0.0
  0
ARC
  5
18463
  8
0
 10
224.31998122747709
 20
387.57684715216038
 30
0.0
 40
0.7400000000002521
 50
70.00000000004502
 51
90.000000000006509
  0
LINE
  5
18464
  8
0
 10
224.31998178347641
 20
388.316847339253
 30
0.0
 11
211.0252607612282
 21
388.316847339253
 31
0.0
  0
LINE
  5
18465
  8
0
 10
190.24693630620541
 20
388.316847339253
 30
0.0
 11
187.31798641368451
 21
388.316847339253
 31
0.0
  0
ARC
  5
18466
  8
0
 10
187.31798716466659
 20
383.99884715216029
 30
0.0
 40
4.3179999999999827
 50
90.0
 51
270.0
  0
LINE
  5
18467
  8
0
 10
187.31798641368451
 20
379.68084677306848
 30
0.0
 11
190.2486015109688
 21
379.68084677306848
 31
0.0
  0
LINE
  5
18468
  8
0
 10
211.02359928175511
 20
379.68084677306848
 30
0.0
 11
224.32001903637939
 21
379.68084677306848
 31
0.0
  0
ARC
  5
18469
  8
0
 10
224.32001913108991
 20
380.42084715216077
 30
0.0
 40
0.7400000000003251
 50
269.99999999999352
 51
289.99999999996191
  0
LINE
  5
1846A
  8
0
 10
224.5731133966118
 20
379.72547481952148
 30
0.0
 11
232.6070465145975
 21
382.64958742258978
 31
0.0
  0
LINE
  5
1846B
  8
0
 10
232.958466966949
 20
379.58496036037371
 30
0.0
 11
225.59917382880741
 21
376.90639677641832
 31
0.0
  0
ARC
  5
1846C
  8
0
 10
224.32001913108991
 20
380.42084715216077
 30
0.0
 40
3.7400000000016669
 50
270.0
 51
289.99999999996891
  0
LINE
  5
1846D
  8
0
 10
224.32001903637939
 20
376.68084721265268
 30
0.0
 11
209.1789398340851
 21
376.68084721265268
 31
0.0
  0
LINE
  5
1846E
  8
0
 10
192.09325723334851
 20
376.68084721265268
 30
0.0
 11
187.31798641368451
 21
376.68084721265268
 31
0.0
  0
ARC
  5
1846F
  8
0
 10
187.31798716466659
 20
383.99884715216029
 30
0.0
 40
7.3179999999999827
 50
90.0
 51
270.0
  0
LINE
  5
18470
  8
0
 10
187.31798641368451
 20
391.31684783099132
 30
0.0
 11
192.08983369156419
 21
391.31684783099132
 31
0.0
  0
LINE
  5
18471
  8
0
 10
209.18236710115971
 20
391.31684783099132
 30
0.0
 11
224.31998178347641
 21
391.31684783099132
 31
0.0
  0
ARC
  5
18472
  8
0
 10
224.31998122747709
 20
387.57684715216038
 30
0.0
 40
3.7400000000016478
 50
70.000000000038085
 51
90.0
  0
LINE
  5
18473
  8
0
 10
225.59913657590451
 20
391.0912982672258
 30
0.0
 11
232.95846119494379
 21
388.41272231399643
 31
0.0
  0
LINE
  5
1847B
  8
0
 10
276.73070356234609
 20
390.00105154884892
 30
0.0
 11
252.7394197966903
 21
390.00105154884892
 31
0.0
  0
LINE
  5
1847C
  8
0
 10
276.73070356234609
 20
387.0010510571106
 30
0.0
 11
276.73070356234609
 21
390.00105154884892
 31
0.0
  0
LINE
  5
1847D
  8
0
 10
276.73070356234609
 20
387.0010510571106
 30
0.0
 11
252.73942449114909
 21
387.0010510571106
 31
0.0
  0
LINE
  5
1847E
  8
0
 10
276.73070356234609
 20
377.99664349479508
 30
0.0
 11
276.73070356234609
 21
380.9966439865334
 31
0.0
  0
LINE
  5
1847F
  8
0
 10
252.73941966058189
 20
377.99664349479508
 30
0.0
 11
276.73070356234609
 21
377.99664349479508
 31
0.0
  0
LINE
  5
18484
  8
0
 10
277.4153895674616
 20
378.06426775826048
 30
0.0
 11
276.73070356234609
 21
377.99664349479508
 31
0.0
  0
LINE
  5
18485
  8
0
 10
276.73070356234609
 20
390.00105154884892
 30
0.0
 11
277.4153895674616
 21
389.93342635406088
 31
0.0
  0
LINE
  5
18487
  8
0
 10
277.86949314161831
 20
381.49664406848979
 30
0.0
 11
280.23070320471822
 21
381.49664406848979
 31
0.0
  0
ARC
  5
18488
  8
0
 10
276.73070339517449
 20
381.49664354075958
 30
0.0
 40
3.4999998095438589
 50
281.28121511694911
 51
0.0000086390631333
  0
LINE
  5
18489
  8
0
 10
277.86945402607017
 20
386.50105004383158
 30
0.0
 11
280.23070320471822
 21
386.50105004383158
 31
0.0
  0
ARC
  5
1848A
  8
0
 10
276.73070762260198
 20
386.50105403899488
 30
0.0
 40
3.4999955821185211
 50
359.99993459820593
 51
78.718841645786384
  0
LINE
  5
1848B
  8
0
 10
233.6904913185507
 20
390.00105154884892
 30
0.0
 11
233.6904913185507
 21
389.33400106800627
 31
0.0
  0
LINE
  5
1848C
  8
0
 10
235.2996799416081
 20
390.00105154884892
 30
0.0
 11
233.6904913185507
 21
390.00105154884892
 31
0.0
  0
LINE
  5
1848D
  8
0
 10
233.6904913185507
 20
378.68149032443353
 30
0.0
 11
233.6904913185507
 21
377.99664349479508
 31
0.0
  0
LINE
  5
1848E
  8
0
 10
233.6904913185507
 20
377.99664349479508
 30
0.0
 11
235.299678629857
 21
377.99664349479508
 31
0.0
  0
LINE
  5
1848F
  8
0
 10
280.23070320471822
 20
386.50105004383158
 30
0.0
 11
280.23070320471822
 21
381.49664406848979
 31
0.0
  0
ARC
  5
18491
  8
0
 10
266.25249200974872
 20
368.05093551373108
 30
0.0
 40
6.3500000000000218
 50
270.0
 51
0.0
  0
LINE
  5
18492
  8
0
 10
252.73941963080949
 20
361.70093571020197
 30
0.0
 11
266.2524919955402
 21
361.70093571020197
 31
0.0
  0
LINE
  5
18493
  8
0
 10
272.60249145313799
 20
368.05093551704567
 30
0.0
 11
272.60249145313799
 21
375.99664316696959
 31
0.0
  0
LINE
  5
18496
  8
0
 10
266.2524919955402
 20
406.29675840211939
 30
0.0
 11
252.73941963080949
 21
406.29675840211939
 31
0.0
  0
ARC
  5
18497
  8
0
 10
266.25249200974849
 20
399.94675908812081
 30
0.0
 40
6.349999999999965
 50
0.0000000000016284
 51
90.0
  0
LINE
  5
18498
  8
0
 10
272.60249145313799
 20
392.03664330018597
 30
0.0
 11
272.60249145313799
 21
399.94675894452172
 31
0.0
  0
CIRCLE
  5
18499
  8
0
 10
264.60189200727689
 20
368.10093551373109
 30
0.0
 40
3.5500000000000109
  0
LINE
  5
1849C
  8
0
 10
273.3894925563007
 20
392.03664330018597
 30
0.0
 11
266.8894924221903
 21
392.03664330018597
 31
0.0
  0
LINE
  5
1849D
  8
0
 10
266.8894924221903
 20
375.99664316696959
 30
0.0
 11
273.3894925563007
 21
375.99664316696959
 31
0.0
  0
LINE
  5
1849E
  8
0
 10
269.90189254268699
 20
398.50105014813983
 30
0.0
 11
263.4018924085766
 21
398.50105014813983
 31
0.0
  0
LINE
  5
1849F
  8
0
 10
263.4018924085766
 20
375.99664333279981
 30
0.0
 11
266.8894924221903
 21
375.99664316696959
 31
0.0
  0
LINE
  5
184A1
  8
0
 10
79.078979045152664
 20
226.10860999674119
 30
0.0
 11
80.81103041768074
 21
225.1086079701833
 31
0.0
  0
LINE
  5
184A2
  8
0
 10
99.188319128006697
 20
225.1086079701833
 30
0.0
 11
100.9203700348735
 21
226.10860999674119
 31
0.0
  0
LINE
  5
184A3
  8
0
 10
80.81103041768074
 20
212.8940665349416
 30
0.0
 11
79.078979045152664
 21
211.89406823367389
 31
0.0
  0
LINE
  5
184A4
  8
0
 10
100.9203700348735
 20
211.89406823367389
 30
0.0
 11
99.188319128006697
 21
212.8940665349416
 31
0.0
  0
ARC
  5
184A5
  8
0
 10
50.999999778273597
 20
292.99884558100399
 30
0.0
 40
1.0000000000009299
 50
89.999999999869729
 51
180.0
  0
ARC
  5
184A6
  8
0
 10
128.99999977827349
 20
292.99884558100359
 30
0.0
 40
1.0000000000009299
 50
0.0
 51
90.000000000130271
  0
ARC
  5
184A7
  8
0
 10
50.999999778273491
 20
286.10995669211701
 30
0.0
 40
1.000000000000987
 50
180.0
 51
270.00000000013029
  0
ARC
  5
184A8
  8
0
 10
128.99999977827349
 20
286.10995669211673
 30
0.0
 40
1.0000000000009299
 50
269.99999999986971
 51
0.0
  0
LINE
  5
184A9
  8
0
 10
50.0
 20
292.9988385364465
 30
0.0
 11
50.0
 21
286.1099572107247
 31
0.0
  0
LINE
  5
184AA
  8
0
 10
130.00000007450581
 20
286.1099572107247
 30
0.0
 11
130.00000007450581
 21
292.9988385364465
 31
0.0
  0
LINE
  5
184AB
  8
0
 10
86.979674943722785
 20
253.6516071483544
 30
0.0
 11
83.979676314629614
 21
253.6516071483544
 31
0.0
  0
LINE
  5
184AC
  8
0
 10
96.019675792194903
 20
253.6516071483544
 30
0.0
 11
93.019675300456583
 21
253.6516071483544
 31
0.0
  0
ARC
  5
184B5
  8
0
 10
79.729675659271265
 20
249.40160806774281
 30
0.0
 40
0.75
 50
90.0
 51
179.99999999999841
  0
ARC
  5
184B6
  8
0
 10
79.729675659271265
 20
242.90160806774281
 30
0.0
 40
0.75
 50
179.99999999999841
 51
270.0
  0
ARC
  5
184B7
  8
0
 10
80.229675659271265
 20
249.40160806774281
 30
0.0
 40
0.75
 50
0.0000000000016284
 51
90.0
  0
ARC
  5
184B8
  8
0
 10
80.229675659271265
 20
242.90160806774281
 30
0.0
 40
0.75
 50
270.0
 51
0.0000000000016284
  0
ARC
  5
184B9
  8
0
 10
99.769675659271343
 20
242.90160806774281
 30
0.0
 40
0.75
 50
179.99999999999841
 51
270.0
  0
ARC
  5
184BA
  8
0
 10
99.769675659271343
 20
249.40160806774281
 30
0.0
 40
0.75
 50
90.0
 51
179.99999999999841
  0
ARC
  5
184BB
  8
0
 10
100.2696756592713
 20
249.40160806774281
 30
0.0
 40
0.75
 50
0.0000000000016284
 51
90.0
  0
ARC
  5
184BC
  8
0
 10
100.2696756592713
 20
242.90160806774281
 30
0.0
 40
0.75
 50
270.0
 51
0.0000000000016284
  0
LINE
  5
184BD
  8
0
 10
79.729675152339041
 20
242.15160619468011
 30
0.0
 11
80.229676165618002
 21
242.15160619468011
 31
0.0
  0
LINE
  5
184BE
  8
0
 10
80.229676165618002
 20
250.1516075059823
 30
0.0
 11
79.729675152339041
 21
250.1516075059823
 31
0.0
  0
LINE
  5
184BF
  8
0
 10
100.2696755575016
 20
250.1516075059823
 30
0.0
 11
99.769675475545213
 21
250.1516075059823
 31
0.0
  0
LINE
  5
184C0
  8
0
 10
99.769675475545213
 20
242.15160619468011
 30
0.0
 11
100.2696755575016
 21
242.15160619468011
 31
0.0
  0
ARC
  5
184C1
  8
0
 10
79.72967565926956
 20
198.6016080677592
 30
0.0
 40
0.7499999999999716
 50
90.0
 51
179.99999999999841
  0
ARC
  5
184C2
  8
0
 10
79.72967565926956
 20
192.1016080677592
 30
0.0
 40
0.7500000000000285
 50
179.99999999999841
 51
270.0
  0
ARC
  5
184C3
  8
0
 10
80.22967565926956
 20
198.6016080677592
 30
0.0
 40
0.7500000000000285
 50
0.0000000000016284
 51
90.0
  0
ARC
  5
184C4
  8
0
 10
80.22967565926956
 20
192.1016080677592
 30
0.0
 40
0.7500000000000285
 50
270.0
 51
0.0000000000016284
  0
ARC
  5
184C5
  8
0
 10
99.769675659269524
 20
192.1016080677592
 30
0.0
 40
0.7500000000000285
 50
179.99999999999841
 51
270.0
  0
ARC
  5
184C6
  8
0
 10
99.769675659269524
 20
198.6016080677592
 30
0.0
 40
0.7499999999999716
 50
90.0
 51
179.99999999999841
  0
ARC
  5
184C7
  8
0
 10
100.2696756592695
 20
198.6016080677592
 30
0.0
 40
0.75
 50
0.0000000000016284
 51
90.0
  0
ARC
  5
184C8
  8
0
 10
100.2696756592695
 20
192.1016080677592
 30
0.0
 40
0.7500000000000285
 50
270.0
 51
0.0000000000016284
  0
LINE
  5
184CB
  8
0
 10
100.2696755575016
 20
199.35160811991011
 30
0.0
 11
99.769675475545213
 21
199.35160811991011
 31
0.0
  0
LINE
  5
184CC
  8
0
 10
99.769675475545213
 20
191.35160867125299
 30
0.0
 11
100.2696755575016
 21
191.35160867125299
 31
0.0
  0
LINE
  5
184CE
  8
0
 10
80.979675822891295
 20
188.3516081795147
 30
0.0
 11
81.613527150186655
 21
188.3516081795147
 31
0.0
  0
LINE
  5
184CF
  8
0
 10
98.385873113567541
 20
188.3516081795147
 30
0.0
 11
99.019675818271935
 21
188.3516081795147
 31
0.0
  0
ARC
  5
184D0
  8
0
 10
97.26967565926941
 20
217.5016485830898
 30
0.0
 40
0.75
 50
273.66944708573658
 51
0.0
  0
ARC
  5
184D1
  8
0
 10
82.729675659270796
 20
224.00160806777541
 30
0.0
 40
0.75
 50
93.669475858977506
 51
179.99999999999841
  0
ARC
  5
184D2
  8
0
 10
82.729675659270796
 20
217.50160806777541
 30
0.0
 40
0.7500000000000408
 50
179.99999999999841
 51
266.33052414102258
  0
ARC
  5
184D3
  8
0
 10
97.269675659270774
 20
224.00160806777541
 30
0.0
 40
0.75
 50
0.0000000000016284
 51
86.330552914367743
  0
ARC
  5
184D5
  8
0
 10
76.265268312859234
 20
198.6016485830898
 30
0.0
 40
0.75
 50
90.0
 51
180.0
  0
ARC
  5
184D6
  8
0
 10
76.265268312859234
 20
192.1016485830898
 30
0.0
 40
0.75
 50
180.0
 51
270.0
  0
LINE
  5
184D8
  8
0
 10
76.265268796123564
 20
191.35164778680121
 30
0.0
 11
80.979675822891295
 21
191.35164778680121
 31
0.0
  0
LINE
  5
184DA
  8
0
 10
80.979675822891295
 20
199.35164909810339
 30
0.0
 11
76.265268796123564
 21
199.35164909810339
 31
0.0
  0
LINE
  5
184EB
  8
0
 10
82.329646243543607
 20
229.00235217065131
 30
0.0
 11
97.669698484241962
 21
229.00235217065131
 31
0.0
  0
ARC
  5
184F0
  8
0
 10
82.329649407818692
 20
226.26572698402251
 30
0.0
 40
0.7365987817774528
 50
89.999762710553426
 51
149.99979424446369
  0
ARC
  5
184F2
  8
0
 10
82.329646243543607
 20
226.265767368079
 30
0.0
 40
2.7365848025793378
 50
89.999869879156378
 51
150.0003427154482
  0
LINE
  5
184F3
  8
0
 10
79.959686100482941
 20
227.63404559344571
 30
0.0
 11
79.959686100482941
 21
227.63402696699421
 31
0.0
  0
ARC
  5
184F5
  8
0
 10
97.669694772416733
 20
226.26571688415601
 30
0.0
 40
0.7366088816470369
 50
30.000659320756078
 51
89.999711282435598
  0
ARC
  5
184F7
  8
0
 10
97.669689803126289
 20
226.26574398720311
 30
0.0
 40
2.736608183462006
 50
29.999939911549859
 51
89.999818245339995
  0
POLYLINE
  5
184F8
  8
0
 66
     1
 10
0.0
 20
0.0
 30
0.0
 70
   128
  0
VERTEX
  5
1977E
  8
0
 10
79.959686100482941
 20
227.63402696699421
 30
0.0
  0
VERTEX
  5
1977F
  8
0
 10
79.617449268698692
 20
227.0412587747029
 30
0.0
  0
VERTEX
  5
19780
  8
0
 10
79.355905950069413
 20
226.588252298539
 30
0.0
  0
VERTEX
  5
19781
  8
0
 10
79.179202392697334
 20
226.2821973487786
 30
0.0
  0
VERTEX
  5
19782
  8
0
 10
79.078979045152664
 20
226.10860999674119
 30
0.0
  0
VERTEX
  5
19783
  8
0
 10
79.078979045152664
 20
226.10860999674119
 30
0.0
  0
VERTEX
  5
19784
  8
0
 10
79.179202392697334
 20
226.28220479935919
 30
0.0
  0
VERTEX
  5
19785
  8
0
 10
79.355905950069413
 20
226.5882634744099
 30
0.0
  0
VERTEX
  5
19786
  8
0
 10
79.617449268698692
 20
227.04127367586409
 30
0.0
  0
VERTEX
  5
19787
  8
0
 10
79.959686100482941
 20
227.63404559344571
 30
0.0
  0
SEQEND
  5
19788
  8
0
  0
POLYLINE
  5
184F9
  8
0
 66
     1
 10
0.0
 20
0.0
 30
0.0
 70
   128
  0
VERTEX
  5
19789
  8
0
 10
80.81103041768074
 20
225.1086079701833
 30
0.0
  0
VERTEX
  5
1978A
  8
0
 10
80.822196975350366
 20
225.12794595212259
 30
0.0
  0
VERTEX
  5
1978B
  8
0
 10
80.91125376522541
 20
225.2821953222207
 30
0.0
  0
VERTEX
  5
1978C
  8
0
 10
81.087955459952354
 20
225.58825399727141
 30
0.0
  0
VERTEX
  5
1978D
  8
0
 10
81.349500641226754
 20
226.041256748145
 30
0.0
  0
VERTEX
  5
1978E
  8
0
 10
81.691737473011017
 20
226.6340286657265
 30
0.0
  0
SEQEND
  5
1978F
  8
0
  0
POLYLINE
  5
184FA
  8
0
 66
     1
 10
0.0
 20
0.0
 30
0.0
 70
   128
  0
VERTEX
  5
19790
  8
0
 10
98.307612538337693
 20
226.6340286657265
 30
0.0
  0
VERTEX
  5
19791
  8
0
 10
98.649849370121956
 20
226.041256748145
 30
0.0
  0
VERTEX
  5
19792
  8
0
 10
98.911393620073795
 20
225.58825399727141
 30
0.0
  0
VERTEX
  5
19793
  8
0
 10
99.088096246123314
 20
225.2821953222207
 30
0.0
  0
VERTEX
  5
19794
  8
0
 10
99.177153967320905
 20
225.12794595212259
 30
0.0
  0
VERTEX
  5
19795
  8
0
 10
99.188319128006697
 20
225.1086079701833
 30
0.0
  0
SEQEND
  5
19796
  8
0
  0
LINE
  5
184FE
  8
0
 10
97.669698484241962
 20
211.0002130270725
 30
0.0
 11
82.329652458429337
 21
211.00020930178221
 31
0.0
  0
ARC
  5
18503
  8
0
 10
82.329650790582605
 20
211.73681047857789
 30
0.0
 40
0.7365974515073628
 50
209.99981141849591
 51
270.0001297324402
  0
LINE
  5
18505
  8
0
 10
98.307612538337693
 20
211.36853247888141
 30
0.0
 11
98.307612538337693
 21
211.36851385242991
 31
0.0
  0
ARC
  5
18506
  8
0
 10
97.669697034374963
 20
211.7368142655117
 30
0.0
 40
0.7366012384407222
 50
270.00011277644302
 51
330.00001851478612
  0
ARC
  5
18507
  8
0
 10
97.669700618368225
 20
211.73691923599591
 30
0.0
 40
2.736593176232974
 50
269.99995531801102
 51
330.00015143257008
  0
ARC
  5
1850A
  8
0
 10
82.329650780364432
 20
211.73692244555639
 30
0.0
 40
2.7365963857931801
 50
209.9998873644434
 51
270.0000351334383
  0
POLYLINE
  5
1850C
  8
0
 66
     1
 10
0.0
 20
0.0
 30
0.0
 70
   128
  0
VERTEX
  5
19797
  8
0
 10
79.078979045152664
 20
211.89406823367389
 30
0.0
  0
VERTEX
  5
19798
  8
0
 10
79.090145602822304
 20
211.87472652644431
 30
0.0
  0
VERTEX
  5
19799
  8
0
 10
79.179202392697334
 20
211.72047343105589
 30
0.0
  0
VERTEX
  5
1979A
  8
0
 10
79.355905950069413
 20
211.41441103071489
 30
0.0
  0
VERTEX
  5
1979B
  8
0
 10
79.617449268698692
 20
210.9614008292607
 30
0.0
  0
VERTEX
  5
1979C
  8
0
 10
79.959686100482941
 20
210.3686289116792
 30
0.0
  0
SEQEND
  5
1979D
  8
0
  0
POLYLINE
  5
1850E
  8
0
 66
     1
 10
0.0
 20
0.0
 30
0.0
 70
   128
  0
VERTEX
  5
1979E
  8
0
 10
100.0396634452045
 20
210.3686289116792
 30
0.0
  0
VERTEX
  5
1979F
  8
0
 10
100.3819002769887
 20
210.9614008292607
 30
0.0
  0
VERTEX
  5
197A0
  8
0
 10
100.6434445269406
 20
211.41441103071489
 30
0.0
  0
VERTEX
  5
197A1
  8
0
 10
100.8201466873288
 20
211.72047343105589
 30
0.0
  0
VERTEX
  5
197A2
  8
0
 10
100.90920440852641
 20
211.87472652644431
 30
0.0
  0
VERTEX
  5
197A3
  8
0
 10
100.9203700348735
 20
211.89406823367389
 30
0.0
  0
SEQEND
  5
197A4
  8
0
  0
LINE
  5
1850F
  8
0
 10
96.666341833770275
 20
285.10994773358618
 30
0.0
 11
121.9999996945262
 21
285.10994773358618
 31
0.0
  0
LINE
  5
18510
  8
0
 10
58.000001311302178
 20
285.10994773358618
 30
0.0
 11
83.333009108901024
 21
285.10994773358618
 31
0.0
  0
LINE
  5
18511
  8
0
 10
94.444119557738304
 20
279.9988419935159
 30
0.0
 11
94.444119557738304
 21
282.88773011416708
 31
0.0
  0
LINE
  5
18512
  8
0
 10
85.55523045361042
 20
282.88773011416708
 30
0.0
 11
85.55523045361042
 21
279.9988419935159
 31
0.0
  0
ARC
  5
18513
  8
0
 10
96.666342127151097
 20
282.88772888761741
 30
0.0
 40
2.222222222224373
 50
90.0
 51
179.99999999999841
  0
ARC
  5
18514
  8
0
 10
83.333008793817839
 20
282.88772888761741
 30
0.0
 40
2.222222222224373
 50
0.0000000000016284
 51
90.0
  0
POLYLINE
  5
18515
  8
0
 66
     1
 10
0.0
 20
0.0
 30
0.0
 70
   128
  0
VERTEX
  5
197A5
  8
0
 10
50.999998301267617
 20
293.99884056300442
 30
0.0
  0
VERTEX
  5
197A6
  8
0
 10
51.116860657930367
 20
293.99884056300442
 30
0.0
  0
VERTEX
  5
197A7
  8
0
 10
51.491483300924301
 20
293.99884056300442
 30
0.0
  0
VERTEX
  5
197A8
  8
0
 10
52.14103236794471
 20
293.99885546416562
 30
0.0
  0
VERTEX
  5
197A9
  8
0
 10
53.050252795219421
 20
293.99885546416562
 30
0.0
  0
VERTEX
  5
197AA
  8
0
 10
54.16953116655349
 20
293.99885546416562
 30
0.0
  0
VERTEX
  5
197AB
  8
0
 10
55.423337221145623
 20
293.99885546416562
 30
0.0
  0
VERTEX
  5
197AC
  8
0
 10
56.726257503032677
 20
293.99885546416562
 30
0.0
  0
VERTEX
  5
197AD
  8
0
 10
58.000001311302178
 20
293.99885546416562
 30
0.0
  0
SEQEND
  5
197AE
  8
0
  0
LINE
  5
18516
  8
0
 10
58.000001311302178
 20
293.99884056300442
 30
0.0
 11
50.999998301267617
 21
293.99884056300442
 31
0.0
  0
POLYLINE
  5
18517
  8
0
 66
     1
 10
0.0
 20
0.0
 30
0.0
 70
   128
  0
VERTEX
  5
197AF
  8
0
 10
121.9999996945262
 20
293.99885546416562
 30
0.0
  0
VERTEX
  5
197B0
  8
0
 10
123.2737407088279
 20
293.99885546416562
 30
0.0
  0
VERTEX
  5
197B1
  8
0
 10
124.57666285336011
 20
293.99885546416562
 30
0.0
  0
VERTEX
  5
197B2
  8
0
 10
125.83046890795229
 20
293.99885546416562
 30
0.0
  0
VERTEX
  5
197B3
  8
0
 10
126.9497472792864
 20
293.99885546416562
 30
0.0
  0
VERTEX
  5
197B4
  8
0
 10
127.8589677065611
 20
293.99885546416562
 30
0.0
  0
VERTEX
  5
197B5
  8
0
 10
128.5085186362266
 20
293.99884056300442
 30
0.0
  0
VERTEX
  5
197B6
  8
0
 10
128.88313755393031
 20
293.99884056300442
 30
0.0
  0
VERTEX
  5
197B7
  8
0
 10
128.999999910593
 20
293.99884056300442
 30
0.0
  0
VERTEX
  5
197B8
  8
0
 10
128.88313755393031
 20
293.99884056300442
 30
0.0
  0
VERTEX
  5
197B9
  8
0
 10
128.5085186362266
 20
293.99884056300442
 30
0.0
  0
VERTEX
  5
197BA
  8
0
 10
127.8589677065611
 20
293.99884056300442
 30
0.0
  0
VERTEX
  5
197BB
  8
0
 10
126.9497472792864
 20
293.99884056300442
 30
0.0
  0
VERTEX
  5
197BC
  8
0
 10
125.83046890795229
 20
293.99884056300442
 30
0.0
  0
VERTEX
  5
197BD
  8
0
 10
124.57666285336011
 20
293.99884056300442
 30
0.0
  0
VERTEX
  5
197BE
  8
0
 10
123.2737407088279
 20
293.99884056300442
 30
0.0
  0
VERTEX
  5
197BF
  8
0
 10
121.9999996945262
 20
293.99884056300442
 30
0.0
  0
SEQEND
  5
197C0
  8
0
  0
POLYLINE
  5
18518
  8
0
 66
     1
 10
0.0
 20
0.0
 30
0.0
 70
   128
  0
VERTEX
  5
197C1
  8
0
 10
50.999998301267617
 20
285.10995518416678
 30
0.0
  0
VERTEX
  5
197C2
  8
0
 10
51.116860657930367
 20
285.10995518416678
 30
0.0
  0
VERTEX
  5
197C3
  8
0
 10
51.491483300924301
 20
285.10995518416678
 30
0.0
  0
VERTEX
  5
197C4
  8
0
 10
52.14103236794471
 20
285.10995518416678
 30
0.0
  0
VERTEX
  5
197C5
  8
0
 10
53.050252795219421
 20
285.10995518416678
 30
0.0
  0
VERTEX
  5
197C6
  8
0
 10
54.16953116655349
 20
285.10995518416678
 30
0.0
  0
VERTEX
  5
197C7
  8
0
 10
55.423337221145623
 20
285.10995518416678
 30
0.0
  0
VERTEX
  5
197C8
  8
0
 10
56.726257503032677
 20
285.10994773358618
 30
0.0
  0
VERTEX
  5
197C9
  8
0
 10
58.000001311302178
 20
285.10994773358618
 30
0.0
  0
SEQEND
  5
197CA
  8
0
  0
POLYLINE
  5
18519
  8
0
 66
     1
 10
0.0
 20
0.0
 30
0.0
 70
   128
  0
VERTEX
  5
197CB
  8
0
 10
121.9999996945262
 20
285.10994773358618
 30
0.0
  0
VERTEX
  5
197CC
  8
0
 10
123.2737407088279
 20
285.10994773358618
 30
0.0
  0
VERTEX
  5
197CD
  8
0
 10
124.57666285336011
 20
285.10995518416678
 30
0.0
  0
VERTEX
  5
197CE
  8
0
 10
125.83046890795229
 20
285.10995518416678
 30
0.0
  0
VERTEX
  5
197CF
  8
0
 10
126.9497472792864
 20
285.10995518416678
 30
0.0
  0
VERTEX
  5
197D0
  8
0
 10
127.8589677065611
 20
285.10995518416678
 30
0.0
  0
VERTEX
  5
197D1
  8
0
 10
128.5085186362266
 20
285.10995518416678
 30
0.0
  0
VERTEX
  5
197D2
  8
0
 10
128.88313755393031
 20
285.10995518416678
 30
0.0
  0
VERTEX
  5
197D3
  8
0
 10
128.999999910593
 20
285.10995518416678
 30
0.0
  0
SEQEND
  5
197D4
  8
0
  0
LINE
  5
1851A
  8
0
 10
121.9999996945262
 20
293.99884056300442
 30
0.0
 11
58.000001311302178
 21
293.99884056300442
 31
0.0
  0
LINE
  5
1851B
  8
0
 10
86.555230617523193
 20
278.99883996695792
 30
0.0
 11
93.444120325148106
 21
278.99883996695792
 31
0.0
  0
ARC
  5
1851C
  8
0
 10
86.555231016040025
 20
279.99883999872952
 30
0.0
 40
1.0000000000009299
 50
179.99999999999841
 51
270.0
  0
ARC
  5
1851D
  8
0
 10
93.444119904928925
 20
279.99883999872941
 30
0.0
 40
1.0000000000009299
 50
270.0
 51
0.0000000000016284
  0
LINE
  5
1851E
  8
0
 10
58.000001311302178
 20
293.99885546416562
 30
0.0
 11
121.9999996945262
 21
293.99885546416562
 31
0.0
  0
ARC
  5
1851F
  8
0
 10
91.335609112851785
 20
256.65091100802908
 30
0.0
 40
1.6688511226748679
 50
4.3394561660250339
 51
35.89496484058386
  0
LINE
  5
18520
  8
0
 10
92.999676079489291
 20
247.6095886156015
 30
0.0
 11
92.999676079489291
 21
256.77718531340872
 31
0.0
  0
LINE
  5
18521
  8
0
 10
86.999676027335227
 20
256.77718531340872
 30
0.0
 11
86.999676027335227
 21
247.6095886156015
 31
0.0
  0
ARC
  5
18522
  8
0
 10
88.713307206178911
 20
256.63275926163021
 30
0.0
 40
1.71970657425552
 50
144.58334359515729
 51
175.18245623789471
  0
POLYLINE
  5
18524
  8
0
 66
     1
 10
0.0
 20
0.0
 30
0.0
 70
   128
  0
VERTEX
  5
197D5
  8
0
 10
84.720349707640693
 20
246.30958896130841
 30
0.0
  0
VERTEX
  5
197D6
  8
0
 10
84.552497440017746
 20
246.30958896130841
 30
0.0
  0
VERTEX
  5
197D7
  8
0
 10
84.404208534397185
 20
246.30958896130841
 30
0.0
  0
VERTEX
  5
197D8
  8
0
 10
84.276669495739043
 20
246.30958896130841
 30
0.0
  0
VERTEX
  5
197D9
  8
0
 10
84.170897328294814
 20
246.30958896130841
 30
0.0
  0
VERTEX
  5
197DA
  8
0
 10
84.087741398252547
 20
246.30958896130841
 30
0.0
  0
VERTEX
  5
197DB
  8
0
 10
84.027866669930503
 20
246.30958896130841
 30
0.0
  0
VERTEX
  5
197DC
  8
0
 10
83.99174811784178
 20
246.309596411889
 30
0.0
  0
VERTEX
  5
197DD
  8
0
 10
83.979676314629614
 20
246.309596411889
 30
0.0
  0
SEQEND
  5
197DE
  8
0
  0
ARC
  5
18525
  8
0
 10
92.865305165075597
 20
234.67701082136469
 30
0.0
 40
14.200604690839601
 50
114.396882920501
 51
124.99912929663731
  0
ARC
  5
18526
  8
0
 10
85.527129920521816
 20
231.85956455065681
 30
0.0
 40
17.432791060075189
 50
55.985812082586428
 51
64.618155550436427
  0
POLYLINE
  5
18527
  8
0
 66
     1
 10
0.0
 20
0.0
 30
0.0
 70
   128
  0
VERTEX
  5
197DF
  8
0
 10
96.019675792194903
 20
246.309596411889
 30
0.0
  0
VERTEX
  5
197E0
  8
0
 10
96.007603988982737
 20
246.309596411889
 30
0.0
  0
VERTEX
  5
197E1
  8
0
 10
95.971485436893985
 20
246.30958896130841
 30
0.0
  0
VERTEX
  5
197E2
  8
0
 10
95.911608845926821
 20
246.30958896130841
 30
0.0
  0
VERTEX
  5
197E3
  8
0
 10
95.828452915884554
 20
246.30958896130841
 30
0.0
  0
VERTEX
  5
197E4
  8
0
 10
95.722682611085474
 20
246.30958896130841
 30
0.0
  0
VERTEX
  5
197E5
  8
0
 10
95.595142641104744
 20
246.30958896130841
 30
0.0
  0
VERTEX
  5
197E6
  8
0
 10
95.446853735484183
 20
246.30958896130841
 30
0.0
  0
VERTEX
  5
197E7
  8
0
 10
95.279001467861235
 20
246.30958896130841
 30
0.0
  0
SEQEND
  5
197E8
  8
0
  0
LINE
  5
1852D
  8
0
 10
86.979674943722785
 20
253.6516071483544
 30
0.0
 11
86.979674943722785
 21
247.6004983724475
 31
0.0
  0
LINE
  5
18530
  8
0
 10
93.019675300456583
 20
247.6000844872363
 30
0.0
 11
93.019675300456583
 21
253.6516071483544
 31
0.0
  0
ARC
  5
18531
  8
0
 10
89.999675122089684
 20
253.9960899539364
 30
0.0
 40
4.5194290895227969
 50
53.506316395018303
 51
126.4936836049817
  0
LINE
  5
1857D
  8
0
 10
78.979675659271493
 20
242.9016074522919
 30
0.0
 11
78.979675659271265
 21
249.40160806774281
 31
0.0
  0
LINE
  5
1857E
  8
0
 10
101.0196756592713
 20
242.90160806774281
 30
0.0
 11
101.0196756592713
 21
249.40160806774281
 31
0.0
  0
LINE
  5
1857F
  8
0
 10
78.97967565926956
 20
192.1016080677592
 30
0.0
 11
78.97967565926956
 21
198.6016080677592
 31
0.0
  0
LINE
  5
18580
  8
0
 10
101.0196756592695
 20
192.1016080677592
 30
0.0
 11
101.0196756592695
 21
198.6016080677592
 31
0.0
  0
LINE
  5
18581
  8
0
 10
89.999676519073546
 20
278.99883996695792
 30
0.0
 11
89.999676519073546
 21
266.1547617241792
 31
0.0
  0
ARC
  5
18582
  8
0
 10
86.259675659269647
 20
266.15476120873382
 30
0.0
 40
3.7400000000017868
 50
314.99999999997289
 51
0.0000000000016284
  0
LINE
  5
18583
  8
0
 10
88.90425490681082
 20
263.51017814130103
 30
0.0
 11
84.196417429484427
 21
258.80234252661978
 31
0.0
  0
ARC
  5
18584
  8
0
 10
84.719675659269683
 20
258.27908444930478
 30
0.0
 40
0.7400000000003777
 50
134.99999999997269
 51
179.99999999999841
  0
LINE
  5
18585
  8
0
 10
83.979676314629614
 20
258.27908080071722
 30
0.0
 11
83.979676314629614
 21
235.00231966240199
 31
0.0
  0
ARC
  5
18586
  8
0
 10
80.239675659269665
 20
240.81627824409421
 30
0.0
 40
3.740000000000955
 50
328.999999999978
 51
0.0000000000016284
  0
LINE
  5
18587
  8
0
 10
83.445480861701071
 20
238.89003258199011
 30
0.0
 11
80.085371457971632
 21
233.29787265509879
 31
0.0
  0
ARC
  5
18588
  8
0
 10
80.719675659269683
 20
232.91674635730661
 30
0.0
 40
0.7400000000001814
 50
148.99999999997851
 51
179.99999999999841
  0
LINE
  5
18589
  8
0
 10
79.979675658978522
 20
232.9167456552438
 30
0.0
 11
79.979675658978522
 21
227.6680802668572
 31
0.0
  0
LINE
  5
1858A
  8
0
 10
79.979675658978522
 20
225.58859168006441
 30
0.0
 11
79.979675658978522
 21
213.45394041389741
 31
0.0
  0
ARC
  5
1858B
  8
0
 10
80.719675659269683
 20
213.45394015209649
 30
0.0
 40
0.7400000000001863
 50
179.99999999999841
 51
211.00000000002331
  0
LINE
  5
1858C
  8
0
 10
80.085371457971632
 20
213.0728134140424
 30
0.0
 11
80.352009567803975
 21
212.62905126033499
 31
0.0
  0
LINE
  5
1858D
  8
0
 10
82.532369368709624
 20
209.00032605976381
 30
0.0
 11
83.599402763219118
 21
207.22447775612139
 31
0.0
  0
LINE
  5
1858E
  8
0
 10
83.979676314629614
 20
203.00033252686771
 30
0.0
 11
83.979676314629614
 21
195.58366308385141
 31
0.0
  0
LINE
  5
1858F
  8
0
 10
80.979675822891295
 20
188.3516081795147
 30
0.0
 11
80.979675822891295
 21
205.55440645665439
 31
0.0
  0
ARC
  5
18590
  8
0
 10
80.239675659269665
 20
205.55440826530889
 30
0.0
 40
0.7400000000002155
 50
0.0000000000016284
 51
31.00000000003266
  0
LINE
  5
18591
  8
0
 10
80.873980023898184
 20
205.93553718179979
 30
0.0
 11
77.513870620168746
 21
211.52769710869109
 31
0.0
  0
ARC
  5
18592
  8
0
 10
80.719675659269683
 20
213.45394015209649
 30
0.0
 40
3.740000000000931
 50
179.99999999999841
 51
211.00000000002251
  0
LINE
  5
18593
  8
0
 10
76.979675167240202
 20
213.45394041389741
 30
0.0
 11
76.979675167240202
 21
232.9167456552438
 31
0.0
  0
ARC
  5
18594
  8
0
 10
80.719675659269683
 20
232.91674635730661
 30
0.0
 40
3.740000000000955
 50
148.99999999997749
 51
179.99999999999841
  0
LINE
  5
18595
  8
0
 10
77.513870620168746
 20
234.8429889604501
 30
0.0
 11
80.873980023898184
 21
240.4351488873414
 31
0.0
  0
ARC
  5
18596
  8
0
 10
80.239675659269665
 20
240.81627824409421
 30
0.0
 40
0.740000000000157
 50
328.99999999997851
 51
0.0000000000048853
  0
LINE
  5
18597
  8
0
 10
80.979675822891295
 20
240.81627588719641
 30
0.0
 11
80.979675822891295
 21
258.27908080071722
 31
0.0
  0
ARC
  5
18598
  8
0
 10
84.719675659269683
 20
258.27908444930478
 30
0.0
 40
3.7400000000018072
 50
134.99999999997269
 51
179.99999999999841
  0
LINE
  5
18599
  8
0
 10
82.075095572508872
 20
260.92366438359528
 30
0.0
 11
86.782934912480414
 21
265.63149999827658
 31
0.0
  0
ARC
  5
1859A
  8
0
 10
86.259675659269647
 20
266.15476120873382
 30
0.0
 40
0.7400000000003376
 50
314.99999999997289
 51
0.0000000000016284
  0
LINE
  5
1859B
  8
0
 10
86.999676027335227
 20
266.1547617241792
 30
0.0
 11
86.999676027335227
 21
278.99883996695792
 31
0.0
  0
ARC
  5
1859C
  8
0
 10
86.259675659269547
 20
266.15477237329048
 30
0.0
 40
0.7400000000003376
 50
314.99999999997289
 51
0.0000000000016284
  0
LINE
  5
1859D
  8
0
 10
86.782934912480414
 20
265.63151489943778
 30
0.0
 11
82.075095572508872
 21
260.92367183417588
 31
0.0
  0
ARC
  5
1859E
  8
0
 10
84.719675659269456
 20
258.2790956138615
 30
0.0
 40
3.7400000000017868
 50
134.99999999997269
 51
179.99999999999841
  0
ARC
  5
1859F
  8
0
 10
80.239675659269423
 20
240.81628940865079
 30
0.0
 40
0.740000000000157
 50
328.99999999997851
 51
0.0000000000048853
  0
LINE
  5
185A0
  8
0
 10
80.873980023898184
 20
240.43516378850259
 30
0.0
 11
77.513870620168746
 21
234.8429964110307
 31
0.0
  0
ARC
  5
185A1
  8
0
 10
80.719675659269456
 20
232.9167575218633
 30
0.0
 40
3.740000000000955
 50
148.99999999997749
 51
179.99999999999841
  0
ARC
  5
185A2
  8
0
 10
80.719675659269456
 20
213.45395131665319
 30
0.0
 40
0.740000000000157
 50
179.99999999999841
 51
211.00000000002191
  0
LINE
  5
185A3
  8
0
 10
83.599402763219118
 20
207.22448404099839
 30
0.0
 11
82.532376819290221
 21
209.00032605976381
 31
0.0
  0
LINE
  5
185A4
  8
0
 10
80.352015362753505
 20
212.62905460604381
 30
0.0
 11
80.085371457971632
 21
213.0728245899133
 31
0.0
  0
LINE
  5
185A7
  8
0
 10
82.681675162166485
 20
227.0023183152131
 30
0.0
 11
82.681675162166485
 21
211.0003152117184
 31
0.0
  0
LINE
  5
185A9
  8
0
 10
97.317675780505056
 20
211.0003152117184
 30
0.0
 11
97.317675780505056
 21
227.0023183152131
 31
0.0
  0
LINE
  5
185AA
  8
0
 10
85.683674737811074
 20
227.0023220405034
 30
0.0
 11
85.683674737811074
 21
227.0023183152131
 31
0.0
  0
LINE
  5
185AC
  8
0
 10
94.319675303995595
 20
227.0023183152131
 30
0.0
 11
94.319675303995595
 21
227.0023220405034
 31
0.0
  0
LINE
  5
185AD
  8
0
 10
97.319674864411354
 20
227.0023257657937
 30
0.0
 11
97.319674864411354
 21
227.0023183152131
 31
0.0
  0
LINE
  5
185AE
  8
0
 10
82.683674246072755
 20
227.0023183152131
 30
0.0
 11
82.683674246072755
 21
227.0023257657937
 31
0.0
  0
LINE
  5
185B0
  8
0
 10
96.019675792194903
 20
203.00033252686771
 30
0.0
 11
96.019675792194903
 21
195.5837154390689
 31
0.0
  0
LINE
  5
185B1
  8
0
 10
96.856843169988565
 20
182.9999995604208
 30
0.0
 11
112.2975868172943
 21
182.9999995604208
 31
0.0
  0
LINE
  5
185B2
  8
0
 10
112.2975868172943
 20
180.00000000000509
 30
0.0
 11
96.7418790794909
 21
180.00000000000509
 31
0.0
  0
LINE
  5
185B3
  8
0
 10
96.7418790794909
 20
180.00000000000509
 30
0.0
 11
95.891407750323992
 21
180.078437370915
 31
0.0
  0
LINE
  5
185B4
  8
0
 10
84.110089235376449
 20
180.07710708551991
 30
0.0
 11
83.257471863180385
 21
180.00000000000509
 31
0.0
  0
LINE
  5
185B5
  8
0
 10
83.257471863180385
 20
180.00000000000509
 30
0.0
 11
67.701764125376926
 21
180.00000000000509
 31
0.0
  0
LINE
  5
185B6
  8
0
 10
67.701764125376926
 20
182.9999995604208
 30
0.0
 11
83.142559101725055
 21
182.9999995604208
 31
0.0
  0
LINE
  5
185B7
  8
0
 10
112.2975868172943
 20
180.00000000000509
 30
0.0
 11
112.2975868172943
 21
182.9999995604208
 31
0.0
  0
LINE
  5
185BA
  8
0
 10
67.701764125376926
 20
182.9999995604208
 30
0.0
 11
67.701764125376926
 21
180.00000000000509
 31
0.0
  0
LINE
  5
185BD
  8
0
 10
92.999676079489291
 20
278.99883996695792
 30
0.0
 11
92.999676079489291
 21
266.1547617241792
 31
0.0
  0
ARC
  5
185BE
  8
0
 10
93.739675659269665
 20
266.15476120873382
 30
0.0
 40
0.7400000000003376
 50
179.99999999999841
 51
225.00000000002709
  0
LINE
  5
185BF
  8
0
 10
93.216416263021515
 20
265.63149999827658
 30
0.0
 11
97.924254671670496
 21
260.92366438359528
 31
0.0
  0
ARC
  5
185C0
  8
0
 10
95.279675659269742
 20
258.27908444930478
 30
0.0
 40
3.7400000000017868
 50
0.0000000000016284
 51
45.000000000027249
  0
LINE
  5
185C1
  8
0
 10
99.019675818271935
 20
258.27908080071722
 30
0.0
 11
99.019675818271935
 21
240.81627588719641
 31
0.0
  0
ARC
  5
185C2
  8
0
 10
99.759675659269647
 20
240.81627824409421
 30
0.0
 40
0.740000000000157
 50
179.99999999999841
 51
211.00000000002191
  0
LINE
  5
185C3
  8
0
 10
99.125372082926333
 20
240.4351488873414
 30
0.0
 11
102.4854812538251
 21
234.8429889604501
 31
0.0
  0
ARC
  5
185C4
  8
0
 10
99.279675659269756
 20
232.91674635730661
 30
0.0
 40
3.740000000000931
 50
0.0000000000016284
 51
31.000000000022482
  0
LINE
  5
185C5
  8
0
 10
103.0196757754311
 20
232.9167456552438
 30
0.0
 11
103.0196757754311
 21
213.45394041389741
 31
0.0
  0
ARC
  5
185C6
  8
0
 10
99.279675659269614
 20
213.45394015209649
 30
0.0
 40
3.740000000000955
 50
328.999999999978
 51
0.0000000000016284
  0
LINE
  5
185C7
  8
0
 10
102.4854812538251
 20
211.52769710869109
 30
0.0
 11
99.125372082926333
 21
205.93553718179979
 31
0.0
  0
ARC
  5
185C8
  8
0
 10
99.759675659269647
 20
205.55440826530889
 30
0.0
 40
0.7400000000002107
 50
148.99999999997749
 51
179.99999999999841
  0
LINE
  5
185C9
  8
0
 10
99.019675818271935
 20
205.55440645665439
 30
0.0
 11
99.019675818271935
 21
188.3516081795147
 31
0.0
  0
LINE
  5
185CA
  8
0
 10
96.399403371186523
 20
207.2235717193046
 30
0.0
 11
97.466981806792305
 21
209.00032605976381
 31
0.0
  0
LINE
  5
185CB
  8
0
 10
99.652491812594235
 20
212.63762500137599
 30
0.0
 11
99.913979251869023
 21
213.0728134140424
 31
0.0
  0
ARC
  5
185CC
  8
0
 10
99.279675659269614
 20
213.45394015209649
 30
0.0
 40
0.7400000000002107
 50
328.999999999978
 51
0.0000000000016284
  0
LINE
  5
185CD
  8
0
 10
100.01967551652341
 20
213.45394041389741
 30
0.0
 11
100.01967551652341
 21
225.58859275008351
 31
0.0
  0
LINE
  5
185CE
  8
0
 10
100.01967551652341
 20
227.66809611724059
 30
0.0
 11
100.01967551652341
 21
232.9167456552438
 31
0.0
  0
ARC
  5
185CF
  8
0
 10
99.279675659269756
 20
232.91674635730661
 30
0.0
 40
0.7400000000001863
 50
0.0000000000016284
 51
31.000000000022482
  0
LINE
  5
185D0
  8
0
 10
99.913979251869023
 20
233.29787265509879
 30
0.0
 11
96.553870313800871
 21
238.89003258199011
 31
0.0
  0
ARC
  5
185D1
  8
0
 10
99.759675659269647
 20
240.81627824409421
 30
0.0
 40
3.740000000000931
 50
179.99999999999841
 51
211.00000000002251
  0
LINE
  5
185D2
  8
0
 10
96.019675792194789
 20
235.00231966240199
 30
0.0
 11
96.019675792194903
 21
258.27908080071722
 31
0.0
  0
ARC
  5
185D3
  8
0
 10
95.279675659269742
 20
258.27908444930478
 30
0.0
 40
0.740000000000398
 50
0.0000000000048853
 51
45.000000000036181
  0
LINE
  5
185D4
  8
0
 10
95.80293467734009
 20
258.80234252661978
 30
0.0
 11
91.095096268691123
 21
263.51017814130103
 31
0.0
  0
ARC
  5
185D5
  8
0
 10
93.739675659269665
 20
266.15476120873382
 30
0.0
 40
3.7400000000017868
 50
179.99999999999841
 51
225.00000000002731
  0
ARC
  5
185D6
  8
0
 10
93.739675659269437
 20
266.15477237329048
 30
0.0
 40
0.7400000000003376
 50
179.99999999999841
 51
225.00000000002709
  0
LINE
  5
185D7
  8
0
 10
97.924254671670496
 20
260.92367183417588
 30
0.0
 11
93.216416263021515
 21
265.63151489943778
 31
0.0
  0
ARC
  5
185D8
  8
0
 10
95.279675659269515
 20
258.2790956138615
 30
0.0
 40
3.7400000000017459
 50
0.0000000000016284
 51
45.000000000027249
  0
ARC
  5
185D9
  8
0
 10
99.759675659269533
 20
240.81628940865079
 30
0.0
 40
0.740000000000157
 50
179.99999999999841
 51
211.00000000002191
  0
LINE
  5
185DA
  8
0
 10
102.4854812538251
 20
234.8429964110307
 30
0.0
 11
99.125372082926333
 21
240.43516378850259
 31
0.0
  0
ARC
  5
185DB
  8
0
 10
99.279675659269515
 20
232.9167575218633
 30
0.0
 40
3.740000000000955
 50
0.0000000000016284
 51
31.000000000022482
  0
ARC
  5
185DC
  8
0
 10
99.279675659269515
 20
213.45395131665319
 30
0.0
 40
0.740000000000157
 50
328.99999999997851
 51
0.0000000000016284
  0
LINE
  5
185DD
  8
0
 10
99.913979251869023
 20
213.0728245899133
 30
0.0
 11
99.652487155981362
 21
212.63762500137599
 31
0.0
  0
LINE
  5
185DE
  8
0
 10
97.466975287534297
 20
209.00032605976381
 30
0.0
 11
96.399403371186523
 21
207.2235801887395
 31
0.0
  0
LINE
  5
185E0
  8
0
 10
81.979675659270811
 20
224.00160806777541
 30
0.0
 11
81.979675659270768
 21
217.50160806777541
 31
0.0
  0
LINE
  5
185E1
  8
0
 10
98.019675659269424
 20
217.5016485830898
 30
0.0
 11
98.019675659270774
 21
224.00160806777541
 31
0.0
  0
LINE
  5
185E3
  8
0
 10
75.515269138850272
 20
198.6016475781849
 30
0.0
 11
75.515268312859234
 21
192.1016485830898
 31
0.0
  0
LINE
  5
185EC
  8
0
 10
360.21070377885991
 20
225.57704459876331
 30
0.0
 11
361.02205943301021
 21
225.1086079701833
 31
0.0
  0
LINE
  5
185ED
  8
0
 10
379.39934814333611
 20
225.1086079701833
 30
0.0
 11
380.25070363640481
 21
225.6001376733235
 31
0.0
  0
LINE
  5
185EE
  8
0
 10
361.02205943301021
 20
212.8940665349416
 30
0.0
 11
360.57789213940202
 21
212.63762500137599
 31
0.0
  0
LINE
  5
185EF
  8
0
 10
379.87321251988101
 20
212.6204812154225
 30
0.0
 11
379.39934814333611
 21
212.8940665349416
 31
0.0
  0
ARC
  5
185F0
  8
0
 10
331.2307035009506
 20
286.10995669211673
 30
0.0
 40
1.0000000000009299
 50
180.0
 51
270.00000000012369
  0
ARC
  5
185F1
  8
0
 10
409.23070350095048
 20
286.10995669211701
 30
0.0
 40
1.000000000000987
 50
269.99999999986971
 51
0.0
  0
ARC
  5
185F2
  8
0
 10
331.23070350095043
 20
292.99884558100359
 30
0.0
 40
1.0000000000009299
 50
89.999999999876238
 51
180.0
  0
ARC
  5
185F3
  8
0
 10
409.23070350095048
 20
292.99884558100399
 30
0.0
 40
1.0000000000009299
 50
0.0
 51
90.000000000130271
  0
LINE
  5
185F4
  8
0
 10
330.23070320471822
 20
292.9988385364465
 30
0.0
 11
330.23070320471822
 21
286.1099572107247
 31
0.0
  0
LINE
  5
185F5
  8
0
 10
410.2307032792238
 20
286.1099572107247
 30
0.0
 11
410.2307032792238
 21
292.9988385364465
 31
0.0
  0
LINE
  5
185F7
  8
0
 10
367.2107039949268
 20
253.6516071483544
 30
0.0
 11
364.21070350318848
 21
253.6516071483544
 31
0.0
  0
LINE
  5
185F8
  8
0
 10
376.25070298075372
 20
253.6516071483544
 30
0.0
 11
373.25070435166049
 21
253.6516071483544
 31
0.0
  0
ARC
  5
185FF
  8
0
 10
359.9607036361121
 20
242.90160806774281
 30
0.0
 40
0.7500000000001137
 50
179.99999999999841
 51
270.0
  0
ARC
  5
18600
  8
0
 10
359.9607036361121
 20
249.40160806774281
 30
0.0
 40
0.7500000000001137
 50
90.0
 51
179.99999999999841
  0
ARC
  5
18601
  8
0
 10
360.46070363611199
 20
249.40160806774281
 30
0.0
 40
0.75
 50
0.0000000000016284
 51
90.0
  0
ARC
  5
18602
  8
0
 10
360.46070363611199
 20
242.90160806774281
 30
0.0
 40
0.75
 50
270.0
 51
0.0000000000016284
  0
ARC
  5
18603
  8
0
 10
380.50070363611212
 20
242.90160806774281
 30
0.0
 40
0.75
 50
270.0
 51
0.0000000000016284
  0
ARC
  5
18604
  8
0
 10
380.50070363611212
 20
249.40160806774281
 30
0.0
 40
0.75
 50
0.0000000000016284
 51
90.0
  0
ARC
  5
18605
  8
0
 10
380.00070363611189
 20
242.90160806774281
 30
0.0
 40
0.75
 50
179.99999999999841
 51
270.0
  0
ARC
  5
18606
  8
0
 10
380.00070363611189
 20
249.40160806774281
 30
0.0
 40
0.75
 50
90.0
 51
179.99999999999841
  0
LINE
  5
18607
  8
0
 10
359.96070373788177
 20
242.15160619468011
 30
0.0
 11
360.4607038198381
 21
242.15160619468011
 31
0.0
  0
LINE
  5
18608
  8
0
 10
360.4607038198381
 20
250.1516075059823
 30
0.0
 11
359.96070373788177
 21
250.1516075059823
 31
0.0
  0
LINE
  5
18609
  8
0
 10
380.50070414304417
 20
250.1516075059823
 30
0.0
 11
380.00070312976533
 21
250.1516075059823
 31
0.0
  0
LINE
  5
1860A
  8
0
 10
380.00070312976533
 20
242.15160619468011
 30
0.0
 11
380.50070414304417
 21
242.15160619468011
 31
0.0
  0
ARC
  5
1860B
  8
0
 10
359.96070363611392
 20
192.1016080677592
 30
0.0
 40
0.7500000000000285
 50
179.99999999999841
 51
270.0
  0
ARC
  5
1860C
  8
0
 10
359.96070363611392
 20
198.6016080677592
 30
0.0
 40
0.75
 50
90.0
 51
179.99999999999841
  0
ARC
  5
1860D
  8
0
 10
360.46070363611392
 20
198.6016080677592
 30
0.0
 40
0.75
 50
0.0000000000016284
 51
90.0
  0
ARC
  5
1860E
  8
0
 10
360.46070363611392
 20
192.1016080677592
 30
0.0
 40
0.7500000000000285
 50
270.0
 51
0.0000000000016284
  0
LINE
  5
1860F
  8
0
 10
359.96070373788177
 20
191.35160867125299
 30
0.0
 11
360.4607038198381
 21
191.35160867125299
 31
0.0
  0
LINE
  5
18610
  8
0
 10
360.4607038198381
 20
199.35160811991011
 30
0.0
 11
359.96070373788177
 21
199.35160811991011
 31
0.0
  0
LINE
  5
18614
  8
0
 10
376.23290773465919
 20
188.3516081795147
 30
0.0
 11
379.25070347249198
 21
188.3516081795147
 31
0.0
  0
LINE
  5
18615
  8
0
 10
373.2287027871576
 20
229.4916094467095
 30
0.0
 11
367.23270369678409
 21
229.4916094467095
 31
0.0
  0
LINE
  5
18617
  8
0
 10
367.22850017234379
 20
227.73664753884589
 30
0.0
 11
364.22849968060552
 21
227.73664753884589
 31
0.0
  0
LINE
  5
18618
  8
0
 10
376.23290773465919
 20
227.73664753884589
 30
0.0
 11
373.22870278715777
 21
227.73664753884589
 31
0.0
  0
LINE
  5
18619
  8
0
 10
361.21070347711139
 20
188.3516081795147
 30
0.0
 11
364.22849968060552
 21
188.3516081795147
 31
0.0
  0
ARC
  5
1861A
  8
0
 10
377.48290715994148
 20
217.5016485830898
 30
0.0
 40
0.7499999999999432
 50
270.0
 51
0.0
  0
ARC
  5
1861B
  8
0
 10
377.48290715994148
 20
224.00164858308989
 30
0.0
 40
0.75
 50
0.0
 51
90.0
  0
ARC
  5
1861C
  8
0
 10
376.98290715994131
 20
217.5016485830898
 30
0.0
 40
0.75
 50
180.0
 51
270.0
  0
ARC
  5
1861D
  8
0
 10
376.98290715994131
 20
224.00164858308989
 30
0.0
 40
0.75
 50
90.0
 51
180.0
  0
ARC
  5
1861E
  8
0
 10
363.47849969188991
 20
224.00164858314361
 30
0.0
 40
0.75
 50
0.0
 51
90.0
  0
ARC
  5
1861F
  8
0
 10
363.47849969188991
 20
217.50164858314349
 30
0.0
 40
0.75
 50
270.0
 51
0.0
  0
ARC
  5
18620
  8
0
 10
362.97849969188979
 20
217.50164858314349
 30
0.0
 40
0.75
 50
180.0
 51
270.0
  0
ARC
  5
18621
  8
0
 10
362.97849969188979
 20
224.00164858314361
 30
0.0
 40
0.75
 50
90.0
 51
180.0
  0
LINE
  5
18622
  8
0
 10
377.48290717513328
 20
224.7516469284943
 30
0.0
 11
376.98290802449952
 21
224.7516469284943
 31
0.0
  0
LINE
  5
18623
  8
0
 10
376.98290802449952
 20
216.75164934248241
 30
0.0
 11
377.48290717513328
 21
216.75164934248241
 31
0.0
  0
LINE
  5
18624
  8
0
 10
362.97849981973468
 20
216.75164934253621
 30
0.0
 11
363.47849990169112
 21
216.75164934253621
 31
0.0
  0
LINE
  5
18625
  8
0
 10
363.47849990169112
 20
224.7516469285481
 30
0.0
 11
362.97849981973468
 21
224.7516469285481
 31
0.0
  0
ARC
  5
1862D
  8
0
 10
383.96511098252398
 20
192.1016485830898
 30
0.0
 40
0.7500000000001137
 50
270.0
 51
0.0
  0
ARC
  5
1862E
  8
0
 10
383.96511098252398
 20
198.6016485830898
 30
0.0
 40
0.7500000000001137
 50
0.0
 51
90.0
  0
ARC
  5
1862F
  8
0
 10
376.96511098252398
 20
192.1016485830898
 30
0.0
 40
0.7499999999999716
 50
192.50661890057989
 51
270.0
  0
ARC
  5
18630
  8
0
 10
376.96511098252398
 20
198.6016485830898
 30
0.0
 40
0.75
 50
90.0
 51
167.4933810994155
  0
ARC
  5
18631
  8
0
 10
362.97849968060552
 20
192.1016485830898
 30
0.0
 40
0.75
 50
180.0
 51
270.0
  0
ARC
  5
18632
  8
0
 10
362.97849968060552
 20
198.6016485830898
 30
0.0
 40
0.75
 50
90.0
 51
180.0
  0
ARC
  5
18633
  8
0
 10
363.47849968060552
 20
192.1016485830898
 30
0.0
 40
0.75
 50
270.0
 51
0.0
  0
ARC
  5
18634
  8
0
 10
363.47849968060552
 20
198.6016485830898
 30
0.0
 40
0.75
 50
0.0
 51
90.0
  0
LINE
  5
18635
  8
0
 10
383.96511049925971
 20
199.35164909810339
 30
0.0
 11
376.9651112145155
 21
199.35164909810339
 31
0.0
  0
LINE
  5
18636
  8
0
 10
376.9651112145155
 20
191.35164778680121
 30
0.0
 11
383.96511049925971
 21
191.35164778680121
 31
0.0
  0
LINE
  5
18637
  8
0
 10
363.47849925783999
 20
199.35164909810339
 30
0.0
 11
362.97850010720617
 21
199.35164909810339
 31
0.0
  0
LINE
  5
18638
  8
0
 10
362.97850010720617
 20
191.35164778680121
 30
0.0
 11
363.47849925783999
 21
191.35164778680121
 31
0.0
  0
LINE
  5
1863C
  8
0
 10
367.22850017234379
 20
192.85164896399289
 30
0.0
 11
373.23290724292087
 21
192.85164896399289
 31
0.0
  0
LINE
  5
18641
  8
0
 10
377.88072610258752
 20
227.0023257657937
 30
0.0
 11
376.25071667116907
 21
227.0023816450996
 31
0.0
  0
LINE
  5
18644
  8
0
 10
377.52670431494403
 20
227.00235184282579
 30
0.0
 11
377.88072610258752
 21
227.00235184282579
 31
0.0
  0
LINE
  5
18647
  8
0
 10
377.88072610258752
 20
229.00235217065131
 30
0.0
 11
376.25070298075372
 21
229.00235217065131
 31
0.0
  0
LINE
  5
18648
  8
0
 10
364.21070350318848
 20
229.00235217065131
 30
0.0
 11
362.54068007677489
 21
229.00235217065131
 31
0.0
  0
ARC
  5
18649
  8
0
 10
377.88072415309369
 20
226.26575185116471
 30
0.0
 40
0.7365999916636392
 50
29.9995908990633
 51
89.999848360343705
  0
ARC
  5
1864A
  8
0
 10
377.88072915319822
 20
226.26572698402251
 30
0.0
 40
0.736598781777478
 50
30.000205755529731
 51
90.000237289440037
  0
ARC
  5
1864B
  8
0
 10
362.54068875789062
 20
226.26574398720311
 30
0.0
 40
2.7366081834620299
 50
90.000181754660005
 51
148.3657369749871
  0
ARC
  5
1864C
  8
0
 10
362.54069230582002
 20
226.26573565977029
 30
0.0
 40
0.7366161831569574
 50
90.000951204557936
 51
149.9996819785419
  0
LINE
  5
1864E
  8
0
 10
361.9027660226792
 20
226.6340286657265
 30
0.0
 11
361.9027660226792
 21
226.634047292178
 31
0.0
  0
ARC
  5
18650
  8
0
 10
377.8807323174733
 20
226.265767368079
 30
0.0
 40
2.7365848025794062
 50
29.999657284542401
 51
90.000130120843622
  0
LINE
  5
18658
  8
0
 10
377.88072610258752
 20
211.00035246462139
 30
0.0
 11
376.21511155724221
 21
211.00035246462139
 31
0.0
  0
LINE
  5
18659
  8
0
 10
364.21070350318848
 20
211.00035246462139
 30
0.0
 11
362.54068007677489
 21
211.00035246462139
 31
0.0
  0
ARC
  5
1865C
  8
0
 10
362.54067293703241
 20
211.736946275957
 30
0.0
 40
0.7365938113702281
 50
210.0003171369209
 51
270.00055536323151
  0
ARC
  5
1865D
  8
0
 10
377.88073273335539
 20
211.73694877065361
 30
0.0
 40
0.736596306062099
 50
269.99948422901019
 51
329.99957082942308
  0
POLYLINE
  5
1865F
  8
0
 66
     1
 10
0.0
 20
0.0
 30
0.0
 70
   128
  0
VERTEX
  5
197E9
  8
0
 10
361.9027660226792
 20
211.36864583939831
 30
0.0
  0
VERTEX
  5
197EA
  8
0
 10
361.5605291908949
 20
211.96141775697981
 30
0.0
  0
VERTEX
  5
197EB
  8
0
 10
361.29898494094311
 20
212.41442423314371
 30
0.0
  0
VERTEX
  5
197EC
  8
0
 10
361.1222823148936
 20
212.72047918290411
 30
0.0
  0
VERTEX
  5
197ED
  8
0
 10
361.03322459369599
 20
212.8747285530022
 30
0.0
  0
VERTEX
  5
197EE
  8
0
 10
361.02205943301021
 20
212.8940665349416
 30
0.0
  0
SEQEND
  5
197EF
  8
0
  0
POLYLINE
  5
18660
  8
0
 66
     1
 10
0.0
 20
0.0
 30
0.0
 70
   128
  0
VERTEX
  5
197F0
  8
0
 10
379.39934814333611
 20
212.8940665349416
 30
0.0
  0
VERTEX
  5
197F1
  8
0
 10
379.38818158566642
 20
212.8747285530022
 30
0.0
  0
VERTEX
  5
197F2
  8
0
 10
379.29912479579139
 20
212.72047918290411
 30
0.0
  0
VERTEX
  5
197F3
  8
0
 10
379.12242310106438
 20
212.41442423314371
 30
0.0
  0
VERTEX
  5
197F4
  8
0
 10
378.86087791979003
 20
211.96141775697981
 30
0.0
  0
VERTEX
  5
197F5
  8
0
 10
378.51864108800578
 20
211.36864583939831
 30
0.0
  0
SEQEND
  5
197F6
  8
0
  0
LINE
  5
18661
  8
0
 10
374.6754728256135
 20
279.99884944409638
 30
0.0
 11
374.6754728256135
 21
282.88773756474768
 31
0.0
  0
LINE
  5
18662
  8
0
 10
365.78658372148573
 20
282.88773756474768
 30
0.0
 11
365.78658372148573
 21
279.99884944409638
 31
0.0
  0
LINE
  5
18663
  8
0
 10
376.89769417032289
 20
285.10996263474738
 30
0.0
 11
402.23070196792162
 21
285.10996263474738
 31
0.0
  0
LINE
  5
18664
  8
0
 10
338.23070358469778
 20
285.10996263474738
 30
0.0
 11
363.5643614454537
 21
285.10996263474738
 31
0.0
  0
ARC
  5
18665
  8
0
 10
376.89769448540642
 20
282.88774005217408
 30
0.0
 40
2.222222222224373
 50
90.0
 51
179.99999999999841
  0
ARC
  5
18666
  8
0
 10
363.56436115207299
 20
282.88774005217408
 30
0.0
 40
2.222222222224373
 50
0.0000000000016284
 51
90.0
  0
POLYLINE
  5
18667
  8
0
 66
     1
 10
0.0
 20
0.0
 30
0.0
 70
   128
  0
VERTEX
  5
197F7
  8
0
 10
331.230703368631
 20
285.10995518416678
 30
0.0
  0
VERTEX
  5
197F8
  8
0
 10
331.34756572529369
 20
285.10995518416678
 30
0.0
  0
VERTEX
  5
197F9
  8
0
 10
331.72218464299738
 20
285.10995518416678
 30
0.0
  0
VERTEX
  5
197FA
  8
0
 10
332.37173557266289
 20
285.10996263474738
 30
0.0
  0
VERTEX
  5
197FB
  8
0
 10
333.28095599993759
 20
285.10996263474738
 30
0.0
  0
VERTEX
  5
197FC
  8
0
 10
334.40023437127172
 20
285.10996263474738
 30
0.0
  0
VERTEX
  5
197FD
  8
0
 10
335.6540404258638
 20
285.10996263474738
 30
0.0
  0
VERTEX
  5
197FE
  8
0
 10
336.956962570396
 20
285.10996263474738
 30
0.0
  0
VERTEX
  5
197FF
  8
0
 10
338.23070358469778
 20
285.10996263474738
 30
0.0
  0
SEQEND
  5
19800
  8
0
  0
POLYLINE
  5
18668
  8
0
 66
     1
 10
0.0
 20
0.0
 30
0.0
 70
   128
  0
VERTEX
  5
19801
  8
0
 10
338.23070358469778
 20
285.10994773358618
 30
0.0
  0
VERTEX
  5
19802
  8
0
 10
336.956962570396
 20
285.10994773358618
 30
0.0
  0
VERTEX
  5
19803
  8
0
 10
335.6540404258638
 20
285.10995518416678
 30
0.0
  0
VERTEX
  5
19804
  8
0
 10
334.40023437127172
 20
285.10995518416678
 30
0.0
  0
VERTEX
  5
19805
  8
0
 10
333.28095599993759
 20
285.10995518416678
 30
0.0
  0
VERTEX
  5
19806
  8
0
 10
332.37173557266289
 20
285.10995518416678
 30
0.0
  0
VERTEX
  5
19807
  8
0
 10
331.72218464299738
 20
285.10995518416678
 30
0.0
  0
VERTEX
  5
19808
  8
0
 10
331.34756572529369
 20
285.10995518416678
 30
0.0
  0
VERTEX
  5
19809
  8
0
 10
331.230703368631
 20
285.10995518416678
 30
0.0
  0
SEQEND
  5
1980A
  8
0
  0
POLYLINE
  5
18669
  8
0
 66
     1
 10
0.0
 20
0.0
 30
0.0
 70
   128
  0
VERTEX
  5
1980B
  8
0
 10
402.23070196792162
 20
285.10996263474738
 30
0.0
  0
VERTEX
  5
1980C
  8
0
 10
403.50444577619118
 20
285.10996263474738
 30
0.0
  0
VERTEX
  5
1980D
  8
0
 10
404.80736605807817
 20
285.10996263474738
 30
0.0
  0
VERTEX
  5
1980E
  8
0
 10
406.06117211267031
 20
285.10996263474738
 30
0.0
  0
VERTEX
  5
1980F
  8
0
 10
407.18045048400438
 20
285.10996263474738
 30
0.0
  0
VERTEX
  5
19810
  8
0
 10
408.08967091127909
 20
285.10996263474738
 30
0.0
  0
VERTEX
  5
19811
  8
0
 10
408.7392199782995
 20
285.10995518416678
 30
0.0
  0
VERTEX
  5
19812
  8
0
 10
409.11384262129349
 20
285.10995518416678
 30
0.0
  0
VERTEX
  5
19813
  8
0
 10
409.23070497795618
 20
285.10995518416678
 30
0.0
  0
VERTEX
  5
19814
  8
0
 10
409.11384262129349
 20
285.10995518416678
 30
0.0
  0
VERTEX
  5
19815
  8
0
 10
408.7392199782995
 20
285.10995518416678
 30
0.0
  0
VERTEX
  5
19816
  8
0
 10
408.08967091127909
 20
285.10995518416678
 30
0.0
  0
VERTEX
  5
19817
  8
0
 10
407.18045048400438
 20
285.10995518416678
 30
0.0
  0
VERTEX
  5
19818
  8
0
 10
406.06117211267031
 20
285.10995518416678
 30
0.0
  0
VERTEX
  5
19819
  8
0
 10
404.80736605807817
 20
285.10995518416678
 30
0.0
  0
VERTEX
  5
1981A
  8
0
 10
403.50444577619118
 20
285.10994773358618
 30
0.0
  0
VERTEX
  5
1981B
  8
0
 10
402.23070196792162
 20
285.10994773358618
 30
0.0
  0
SEQEND
  5
1981C
  8
0
  0
POLYLINE
  5
1866A
  8
0
 66
     1
 10
0.0
 20
0.0
 30
0.0
 70
   128
  0
VERTEX
  5
1981D
  8
0
 10
338.23070358469778
 20
293.99885546416562
 30
0.0
  0
VERTEX
  5
1981E
  8
0
 10
336.956962570396
 20
293.99885546416562
 30
0.0
  0
VERTEX
  5
1981F
  8
0
 10
335.6540404258638
 20
293.99885546416562
 30
0.0
  0
VERTEX
  5
19820
  8
0
 10
334.40023437127172
 20
293.99885546416562
 30
0.0
  0
VERTEX
  5
19821
  8
0
 10
333.28095599993759
 20
293.99885546416562
 30
0.0
  0
VERTEX
  5
19822
  8
0
 10
332.37173557266289
 20
293.99885546416562
 30
0.0
  0
VERTEX
  5
19823
  8
0
 10
331.72218464299738
 20
293.99884056300442
 30
0.0
  0
VERTEX
  5
19824
  8
0
 10
331.34756572529369
 20
293.99884056300442
 30
0.0
  0
VERTEX
  5
19825
  8
0
 10
331.230703368631
 20
293.99884056300442
 30
0.0
  0
SEQEND
  5
19826
  8
0
  0
POLYLINE
  5
1866B
  8
0
 66
     1
 10
0.0
 20
0.0
 30
0.0
 70
   128
  0
VERTEX
  5
19827
  8
0
 10
409.23070497795618
 20
293.99884056300442
 30
0.0
  0
VERTEX
  5
19828
  8
0
 10
409.11384262129349
 20
293.99884056300442
 30
0.0
  0
VERTEX
  5
19829
  8
0
 10
408.7392199782995
 20
293.99884056300442
 30
0.0
  0
VERTEX
  5
1982A
  8
0
 10
408.08967091127909
 20
293.99885546416562
 30
0.0
  0
VERTEX
  5
1982B
  8
0
 10
407.18045048400438
 20
293.99885546416562
 30
0.0
  0
VERTEX
  5
1982C
  8
0
 10
406.06117211267031
 20
293.99885546416562
 30
0.0
  0
VERTEX
  5
1982D
  8
0
 10
404.80736605807817
 20
293.99885546416562
 30
0.0
  0
VERTEX
  5
1982E
  8
0
 10
403.50444577619118
 20
293.99885546416562
 30
0.0
  0
VERTEX
  5
1982F
  8
0
 10
402.23070196792162
 20
293.99885546416562
 30
0.0
  0
SEQEND
  5
19830
  8
0
  0
LINE
  5
1866C
  8
0
 10
366.78658295407593
 20
278.99885486811911
 30
0.0
 11
373.67547266170072
 21
278.99885486811911
 31
0.0
  0
LINE
  5
1866D
  8
0
 10
402.23070196792162
 20
293.99885546416562
 30
0.0
 11
338.23070358469778
 21
293.99885546416562
 31
0.0
  0
ARC
  5
1866E
  8
0
 10
366.78658337429522
 20
279.99885116328608
 30
0.0
 40
1.0000000000009299
 50
179.99999999999841
 51
270.00000000000648
  0
ARC
  5
1866F
  8
0
 10
373.6754722631843
 20
279.99885116328608
 30
0.0
 40
1.000000000000987
 50
270.0
 51
0.0000000000016284
  0
LINE
  5
18670
  8
0
 10
363.5643614454537
 20
285.10994773358618
 30
0.0
 11
338.23070358469778
 21
285.10994773358618
 31
0.0
  0
LINE
  5
18671
  8
0
 10
402.23070196792162
 20
285.10994773358618
 30
0.0
 11
376.89769417032289
 21
285.10994773358618
 31
0.0
  0
ARC
  5
18672
  8
0
 10
366.78658337429511
 20
279.99883999872941
 30
0.0
 40
1.0000000000009299
 50
179.99999999999841
 51
270.0
  0
ARC
  5
18673
  8
0
 10
373.67547226318402
 20
279.99883999872952
 30
0.0
 40
1.0000000000009299
 50
270.0
 51
0.0000000000016284
  0
ARC
  5
18674
  8
0
 10
363.56436115207299
 20
282.88772888761741
 30
0.0
 40
2.222222222224373
 50
0.0000000000016284
 51
90.0
  0
ARC
  5
18675
  8
0
 10
376.89769448540619
 20
282.88772888761741
 30
0.0
 40
2.222222222224373
 50
90.0
 51
179.99999999999841
  0
LINE
  5
18678
  8
0
 10
364.21070350318848
 20
243.45903407782831
 30
0.0
 11
367.2107039949268
 21
243.45903407782831
 31
0.0
  0
LINE
  5
18679
  8
0
 10
367.2107039949268
 20
253.6516071483544
 30
0.0
 11
367.2107039949268
 21
243.45903407782831
 31
0.0
  0
LINE
  5
1867B
  8
0
 10
373.25070435166049
 20
243.45903407782831
 30
0.0
 11
376.25070298075372
 21
243.45903407782831
 31
0.0
  0
LINE
  5
1867D
  8
0
 10
373.25070435166049
 20
243.45903407782831
 30
0.0
 11
373.25070435166049
 21
253.6516071483544
 31
0.0
  0
LINE
  5
1867E
  8
0
 10
367.2107039949268
 20
243.45903407782831
 30
0.0
 11
367.2107039949268
 21
227.73664753884589
 31
0.0
  0
LINE
  5
18681
  8
0
 10
373.25070435166049
 20
227.73664753884589
 30
0.0
 11
373.25070435166049
 21
243.45903407782831
 31
0.0
  0
ARC
  5
18683
  8
0
 10
370.2307041732937
 20
251.3979841732245
 30
0.0
 40
4.5194581694584359
 50
53.506589128014653
 51
126.4934108719853
  0
ARC
  5
18685
  8
0
 10
370.2307041732937
 20
253.9960899539364
 30
0.0
 40
4.5194290895227969
 50
53.506316395018303
 51
126.4936836049817
  0
ARC
  5
18687
  8
0
 10
368.28027406412599
 20
254.2735681744125
 30
0.0
 40
1.0573290485205831
 50
134.22236737838381
 51
173.05489278544371
  0
ARC
  5
18688
  8
0
 10
372.16020977002842
 20
254.26320190016631
 30
0.0
 40
1.0793795472894361
 50
7.3570429791997514
 51
45.365424801204973
  0
LINE
  5
1868A
  8
0
 10
367.2307032158941
 20
256.77718531340872
 30
0.0
 11
367.2307032158941
 21
250.14234643430029
 31
0.0
  0
ARC
  5
1868B
  8
0
 10
368.8947701825316
 20
256.65091100802908
 30
0.0
 40
1.668851122674895
 50
144.1050351594161
 51
175.66054383397491
  0
LINE
  5
1868C
  8
0
 10
373.23070326804827
 20
250.14234643430029
 30
0.0
 11
373.2307032680481
 21
256.77718531340872
 31
0.0
  0
ARC
  5
1868D
  8
0
 10
371.51707208920448
 20
256.63275926163021
 30
0.0
 40
1.71970657425552
 50
4.817543762105247
 51
35.416656404842612
  0
LINE
  5
186AE
  8
0
 10
367.22850017234379
 20
191.35694142431529
 30
0.0
 11
373.23290724292087
 21
191.35694142431529
 31
0.0
  0
LINE
  5
186D9
  8
0
 10
367.2107039949268
 20
242.16086726636209
 30
0.0
 11
373.25070435166049
 21
242.16086726636209
 31
0.0
  0
LINE
  5
186DA
  8
0
 10
367.2107039949268
 20
250.14234643430029
 30
0.0
 11
373.25070435166049
 21
250.14234643430029
 31
0.0
  0
LINE
  5
186DB
  8
0
 10
359.2107036361121
 20
249.40160806774281
 30
0.0
 11
359.2107036361121
 21
242.90160806774281
 31
0.0
  0
LINE
  5
186DC
  8
0
 10
381.25070363611212
 20
249.40160806774281
 30
0.0
 11
381.25070363611212
 21
242.90160806774281
 31
0.0
  0
LINE
  5
186DD
  8
0
 10
359.21070363611381
 20
198.6016080677592
 30
0.0
 11
359.21070361494719
 21
192.10256200284269
 31
0.0
  0
LINE
  5
186DE
  8
0
 10
379.25070347249198
 20
191.35164778680121
 30
0.0
 11
379.25070347249198
 21
188.3516081795147
 31
0.0
  0
LINE
  5
186E0
  8
0
 10
373.2307032680481
 20
278.99885486811911
 30
0.0
 11
373.2307032680481
 21
266.15476917475968
 31
0.0
  0
ARC
  5
186E1
  8
0
 10
373.97070363611391
 20
266.15477237329048
 30
0.0
 40
0.7400000000003577
 50
179.99999999999841
 51
225.00000000002709
  0
LINE
  5
186E2
  8
0
 10
373.44744438290292
 20
265.63151489943778
 30
0.0
 11
378.1552837228744
 21
260.92367183417588
 31
0.0
  0
ARC
  5
186E3
  8
0
 10
375.51070363611387
 20
258.2790956138615
 30
0.0
 40
3.7400000000017668
 50
0.0000000000016284
 51
45.000000000027249
  0
LINE
  5
186E4
  8
0
 10
379.25070347249198
 20
258.27909570187842
 30
0.0
 11
379.25070347249198
 21
240.81629078835761
 31
0.0
  0
ARC
  5
186E5
  8
0
 10
379.99070363611401
 20
240.81628940865079
 30
0.0
 40
0.7400000000000352
 50
179.99999999999511
 51
211.00000000003271
  0
LINE
  5
186E6
  8
0
 10
379.35639927148509
 20
240.43516378850259
 30
0.0
 11
382.71650867521453
 21
234.8429964110307
 31
0.0
  0
ARC
  5
186E7
  8
0
 10
379.51070363611387
 20
232.9167575218633
 30
0.0
 40
3.7400000000010039
 50
0.0000000000016284
 51
31.000000000022482
  0
LINE
  5
186E8
  8
0
 10
383.25070412814313
 20
232.91676055640499
 30
0.0
 11
383.25070412814313
 21
213.45395158976831
 31
0.0
  0
ARC
  5
186E9
  8
0
 10
379.51070363611387
 20
213.45395131665319
 30
0.0
 40
3.7400000000008782
 50
328.999999999978
 51
0.0000000000016284
  0
LINE
  5
186EA
  8
0
 10
382.71650867521453
 20
211.52770828456201
 30
0.0
 11
379.35639927148509
 21
205.93554835767071
 31
0.0
  0
ARC
  5
186EB
  8
0
 10
379.99070363611401
 20
205.55441942986559
 30
0.0
 40
0.7400000000000646
 50
148.9999999999668
 51
179.99999999999841
  0
ARC
  5
186EC
  8
0
 10
379.99070363611401
 20
205.55441942986559
 30
0.0
 40
3.7400000000009359
 50
148.99999999997749
 51
179.99999999999841
  0
LINE
  5
186ED
  8
0
 10
376.7848984336822
 20
207.48066093773161
 30
0.0
 11
380.14500783741158
 21
213.0728245899133
 31
0.0
  0
ARC
  5
186EE
  8
0
 10
379.51070363611387
 20
213.45395131665319
 30
0.0
 40
0.7400000000001327
 50
328.999999999978
 51
0.0000000000016284
  0
LINE
  5
186EF
  8
0
 10
380.25070363640481
 20
213.45395158976831
 30
0.0
 11
380.25070363640481
 21
232.91676055640499
 31
0.0
  0
ARC
  5
186F0
  8
0
 10
379.51070363611387
 20
232.9167575218633
 30
0.0
 40
0.7400000000001327
 50
0.0000000000016284
 51
31.000000000021959
  0
LINE
  5
186F1
  8
0
 10
380.14500783741158
 20
233.29788755626001
 30
0.0
 11
376.7848984336822
 21
238.89004748315131
 31
0.0
  0
ARC
  5
186F2
  8
0
 10
379.99070363611401
 20
240.81628940865079
 30
0.0
 40
3.740000000000907
 50
179.99999999999841
 51
211.00000000002331
  0
ARC
  5
186F5
  8
0
 10
375.51070363611387
 20
258.2790956138615
 30
0.0
 40
0.7400000000003978
 50
0.0000000000048853
 51
45.000000000027249
  0
LINE
  5
186F6
  8
0
 10
376.0339618658989
 20
258.80235742778098
 30
0.0
 11
371.32612438857251
 21
263.51019304246222
 31
0.0
  0
ARC
  5
186F7
  8
0
 10
373.97070363611391
 20
266.15477237329048
 30
0.0
 40
3.7400000000017668
 50
179.99999999999841
 51
225.00000000002731
  0
LINE
  5
186F8
  8
0
 10
370.23070277630978
 20
266.15476917475968
 30
0.0
 11
370.23070277630978
 21
278.99885486811911
 31
0.0
  0
LINE
  5
186F9
  8
0
 10
379.25070347249198
 20
205.55441763252529
 30
0.0
 11
379.25070347249198
 21
199.35164909810339
 31
0.0
  0
LINE
  5
186FA
  8
0
 10
376.25070298075372
 20
198.82995199412619
 30
0.0
 11
376.25070298075372
 21
205.55441763252529
 31
0.0
  0
ARC
  5
186FB
  8
0
 10
379.99070363611372
 20
205.55440826530889
 30
0.0
 40
0.7400000000001912
 50
148.9999999999668
 51
179.99999999999841
  0
LINE
  5
186FC
  8
0
 10
379.35639927148509
 20
205.93553718179979
 30
0.0
 11
382.71650867521453
 21
211.52769710869109
 31
0.0
  0
ARC
  5
186FD
  8
0
 10
379.5107036361137
 20
213.45394015209649
 30
0.0
 40
3.7400000000010039
 50
328.999999999978
 51
0.0000000000016284
  0
ARC
  5
186FE
  8
0
 10
379.5107036361137
 20
232.91674635730661
 30
0.0
 40
0.7400000000002301
 50
0.0000000000016284
 51
31.00000000002094
  0
LINE
  5
186FF
  8
0
 10
376.7848984336822
 20
238.89003258199011
 30
0.0
 11
380.14500783741158
 21
233.29787265509879
 31
0.0
  0
ARC
  5
18700
  8
0
 10
379.99070363611349
 20
240.81627824409421
 30
0.0
 40
3.7400000000008089
 50
179.99999999999841
 51
211.00000000002331
  0
ARC
  5
18701
  8
0
 10
375.5107036361137
 20
258.27908444930478
 30
0.0
 40
0.7400000000003978
 50
0.0000000000016284
 51
45.000000000027249
  0
LINE
  5
18702
  8
0
 10
371.32612438857251
 20
263.51017814130103
 30
0.0
 11
376.0339618658989
 21
258.80234252661978
 31
0.0
  0
ARC
  5
18703
  8
0
 10
373.97070363611351
 20
266.15476120873382
 30
0.0
 40
3.7400000000017259
 50
179.99999999999841
 51
225.00000000002731
  0
LINE
  5
18707
  8
0
 10
367.23270369678409
 20
229.4916094467095
 30
0.0
 11
367.23270369678409
 21
215.19256579699481
 31
0.0
  0
LINE
  5
1870A
  8
0
 10
373.22870278715777
 20
215.40302033757499
 30
0.0
 11
373.22870278715777
 21
229.4916094467095
 31
0.0
  0
LINE
  5
18713
  8
0
 10
370.23070324197079
 20
229.4916094467095
 30
0.0
 11
370.23070324197079
 21
211.70856733861689
 31
0.0
  0
LINE
  5
18714
  8
0
 10
373.22870278715777
 20
229.44023769349371
 30
0.0
 11
373.22870278715777
 21
229.4916094467095
 31
0.0
  0
LINE
  5
18717
  8
0
 10
364.21070350318848
 20
227.0023816451482
 30
0.0
 11
362.54068007677489
 21
227.00235184282579
 31
0.0
  0
LINE
  5
1871E
  8
0
 10
362.8907036966055
 20
227.00237419456761
 30
0.0
 11
362.8907036966055
 21
224.7483761236123
 31
0.0
  0
LINE
  5
1871F
  8
0
 10
362.8907036966055
 20
216.7548828944615
 30
0.0
 11
362.8907036966055
 21
211.00037481636321
 31
0.0
  0
LINE
  5
18721
  8
0
 10
377.52670431494403
 20
211.00037481636321
 30
0.0
 11
377.52670431494403
 21
216.7520591244153
 31
0.0
  0
LINE
  5
18722
  8
0
 10
377.52670431494403
 20
224.75119616836821
 30
0.0
 11
377.52670431494403
 21
227.00237419456761
 31
0.0
  0
ARC
  5
18724
  8
0
 10
368.72652701089072
 20
216.6694175212354
 30
0.0
 40
4.439829161944691
 50
176.26580256552219
 51
257.00950260553509
  0
ARC
  5
18727
  8
0
 10
369.43444020792208
 20
196.7718063542161
 30
0.0
 40
2.205940101473399
 50
140.654700431149
 51
180.0140044970961
  0
LINE
  5
18728
  8
0
 10
364.22849968060552
 20
196.77126716822889
 30
0.0
 11
367.22850017234379
 21
196.77126716822889
 31
0.0
  0
POLYLINE
  5
18729
  8
0
 66
     1
 10
0.0
 20
0.0
 30
0.0
 70
   128
  0
VERTEX
  5
19831
  8
0
 10
364.22849968060552
 20
196.77126716822889
 30
0.0
  0
VERTEX
  5
19832
  8
0
 10
364.4415052606135
 20
197.15511735529219
 30
0.0
  0
VERTEX
  5
19833
  8
0
 10
365.06346296503841
 20
197.4959218129566
 30
0.0
  0
VERTEX
  5
19834
  8
0
 10
366.00715722873508
 20
197.79397483915599
 30
0.0
  0
VERTEX
  5
19835
  8
0
 10
367.15066209420257
 20
198.05598195642739
 30
0.0
  0
VERTEX
  5
19836
  8
0
 10
367.72850025430017
 20
198.17035581917079
 30
0.0
  0
SEQEND
  5
19837
  8
0
  0
LINE
  5
1872B
  8
0
 10
364.29612394407093
 20
220.7516499981335
 30
0.0
 11
364.22849968060552
 21
223.06382592767989
 31
0.0
  0
LINE
  5
1872C
  8
0
 10
364.29612394407093
 20
216.9585743174008
 30
0.0
 11
364.29612394407093
 21
220.7516499981335
 31
0.0
  0
ARC
  5
1872D
  8
0
 10
370.2307034867365
 20
216.95857478832181
 30
0.0
 40
5.2500078305693094
 50
241.5358029418463
 51
298.46419705815379
  0
ARC
  5
1872E
  8
0
 10
370.50271130730567
 20
188.93584221271581
 30
0.0
 40
9.5000000000000142
 50
76.422673800393355
 51
90.0
  0
LINE
  5
1872F
  8
0
 10
370.50271090104877
 20
198.43584235758101
 30
0.0
 11
369.95869558289348
 21
198.43584235758101
 31
0.0
  0
ARC
  5
18730
  8
0
 10
369.95869566616727
 20
188.93584221271581
 30
0.0
 40
9.5000000000000693
 50
90.0
 51
103.5773261996066
  0
LINE
  5
18731
  8
0
 10
376.23290773465919
 20
196.77126716822889
 30
0.0
 11
373.23290724292087
 21
196.77126716822889
 31
0.0
  0
ARC
  5
18732
  8
0
 10
371.06242038449369
 20
196.7844753410651
 30
0.0
 40
2.1705270462345112
 50
359.65133941521481
 51
39.680023297096177
  0
POLYLINE
  5
18733
  8
0
 66
     1
 10
0.0
 20
0.0
 30
0.0
 70
   128
  0
VERTEX
  5
19838
  8
0
 10
372.73290622964191
 20
198.17035581917079
 30
0.0
  0
VERTEX
  5
19839
  8
0
 10
373.90874009564209
 20
197.93592330068859
 30
0.0
  0
VERTEX
  5
1983A
  8
0
 10
374.94060825541311
 20
197.66097079963001
 30
0.0
  0
VERTEX
  5
1983B
  8
0
 10
375.72347428634453
 20
197.34597887844359
 30
0.0
  0
VERTEX
  5
1983C
  8
0
 10
376.16208251550478
 20
196.99290703982621
 30
0.0
  0
VERTEX
  5
1983D
  8
0
 10
376.23290773465919
 20
196.77126716822889
 30
0.0
  0
SEQEND
  5
1983E
  8
0
  0
ARC
  5
18734
  8
0
 10
359.04597891360692
 20
216.131052069194
 30
0.0
 40
14.20139734940317
 50
344.53065174280653
 51
357.06145549644611
  0
ARC
  5
18736
  8
0
 10
371.6724523720934
 20
216.71584366101339
 30
0.0
 40
4.4993823007216198
 50
283.63222657817659
 51
3.0924682507722379
  0
LINE
  5
18737
  8
0
 10
376.16528253987121
 20
220.7516499981335
 30
0.0
 11
376.16528253987121
 21
216.9585743174008
 31
0.0
  0
LINE
  5
18738
  8
0
 10
376.23290773465919
 20
223.06382592767989
 30
0.0
 11
376.16528253987121
 21
220.7516499981335
 31
0.0
  0
LINE
  5
18739
  8
0
 10
376.23290715994148
 20
183.73999998640559
 30
0.0
 11
376.23290715994108
 21
227.73664753884589
 31
0.0
  0
LINE
  5
18740
  8
0
 10
364.22849968060552
 20
227.73664753884589
 30
0.0
 11
364.2284998135313
 21
183.7399999537694
 31
0.0
  0
LINE
  5
18745
  8
0
 10
347.93279189601242
 20
182.9999995604208
 30
0.0
 11
347.93279189601242
 21
180.00000000000509
 31
0.0
  0
ARC
  5
18748
  8
0
 10
363.48849981353129
 20
183.7399999537694
 30
0.0
 40
3.7400000000000091
 50
270.0
 51
0.0000000000016284
  0
ARC
  5
18749
  8
0
 10
363.48849981353129
 20
183.7399999537694
 30
0.0
 40
0.7400000000000091
 50
270.0
 51
0.0000000000016284
  0
LINE
  5
1874A
  8
0
 10
347.93279189601242
 20
182.9999995604208
 30
0.0
 11
363.48849963381588
 21
182.9999995604208
 31
0.0
  0
LINE
  5
1874B
  8
0
 10
363.48849963381588
 20
180.00000000000509
 30
0.0
 11
347.93279189601242
 21
180.00000000000509
 31
0.0
  0
LINE
  5
1874C
  8
0
 10
367.22850017234379
 20
196.7712671682043
 30
0.0
 11
367.22850017234379
 21
183.740000538533
 31
0.0
  0
ARC
  5
1874E
  8
0
 10
376.9729071599416
 20
183.7399999537694
 30
0.0
 40
0.7400000000000091
 50
179.99999999999841
 51
270.0
  0
LINE
  5
1874F
  8
0
 10
376.97290685012632
 20
182.9999995604208
 30
0.0
 11
392.52861458792972
 21
182.9999995604208
 31
0.0
  0
LINE
  5
18750
  8
0
 10
392.52861458792972
 20
180.00000000000509
 30
0.0
 11
376.97290685012632
 21
180.00000000000509
 31
0.0
  0
ARC
  5
18751
  8
0
 10
376.9729071599416
 20
183.7399999537694
 30
0.0
 40
3.7400000000000091
 50
179.99999999999841
 51
270.0
  0
LINE
  5
18753
  8
0
 10
373.23290724292087
 20
183.740000538533
 30
0.0
 11
373.23290724292087
 21
196.77126716822889
 31
0.0
  0
LINE
  5
18754
  8
0
 10
392.52861458792972
 20
180.00000000000509
 30
0.0
 11
392.52861458792972
 21
182.9999995604208
 31
0.0
  0
LINE
  5
18757
  8
0
 10
361.21070347711139
 20
188.3516081795147
 30
0.0
 11
361.21070347711139
 21
195.35161305219441
 31
0.0
  0
ARC
  5
18758
  8
0
 10
366.49070363611389
 20
266.15477237329048
 30
0.0
 40
3.7400000000017259
 50
314.99999999997277
 51
0.0000000000016284
  0
LINE
  5
18759
  8
0
 10
369.13528302669221
 20
263.51019304246222
 30
0.0
 11
364.4274446180433
 21
258.80235742778098
 31
0.0
  0
ARC
  5
1875A
  8
0
 10
364.95070363611387
 20
258.2790956138615
 30
0.0
 40
0.7400000000003978
 50
134.99999999997269
 51
179.99999999999841
  0
LINE
  5
1875C
  8
0
 10
364.21070363611329
 20
258.27908444930478
 30
0.0
 11
364.21075951835041
 21
227.0023816453388
 31
0.0
  0
ARC
  5
1875D
  8
0
 10
360.4707036361138
 20
240.81628940865079
 30
0.0
 40
3.7400000000010039
 50
328.999999999978
 51
0.0000000000016284
  0
LINE
  5
1875E
  8
0
 10
363.67650898158251
 20
238.89004748315131
 30
0.0
 11
360.31640004351431
 21
233.29788755626001
 31
0.0
  0
ARC
  5
1875F
  8
0
 10
360.95070363611387
 20
232.9167575218633
 30
0.0
 40
0.7400000000001327
 50
148.999999999978
 51
179.99999999999841
  0
LINE
  5
18760
  8
0
 10
360.21070377885991
 20
232.91676055640499
 30
0.0
 11
360.21070377885991
 21
213.45395158976831
 31
0.0
  0
ARC
  5
18761
  8
0
 10
360.95070363611399
 20
213.45395131665319
 30
0.0
 40
0.7400000000002301
 50
179.99999999999841
 51
211.00000000002089
  0
LINE
  5
18762
  8
0
 10
360.31640004351431
 20
213.0728245899133
 30
0.0
 11
363.67650898158251
 21
207.48066093773161
 31
0.0
  0
ARC
  5
18763
  8
0
 10
360.4707036361138
 20
205.55441942986559
 30
0.0
 40
3.7400000000010341
 50
0.0000000000016284
 51
31.000000000022482
  0
ARC
  5
18764
  8
0
 10
360.4707036361138
 20
205.55441942986559
 30
0.0
 40
0.7400000000002595
 50
0.0000000000016284
 51
31.000000000021959
  0
LINE
  5
18765
  8
0
 10
361.105007212457
 20
205.93554835767071
 30
0.0
 11
357.7448980415582
 21
211.52770828456201
 31
0.0
  0
ARC
  5
18766
  8
0
 10
360.95070363611399
 20
213.45395131665319
 30
0.0
 40
3.740000000000975
 50
179.99999999999841
 51
211.00000000002251
  0
LINE
  5
18767
  8
0
 10
357.21070351995229
 20
213.45395158976831
 30
0.0
 11
357.21070351995229
 21
232.91676055640499
 31
0.0
  0
ARC
  5
18768
  8
0
 10
360.95070363611387
 20
232.9167575218633
 30
0.0
 40
3.740000000000907
 50
148.99999999997749
 51
179.99999999999841
  0
LINE
  5
18769
  8
0
 10
357.7448980415582
 20
234.8429964110307
 30
0.0
 11
361.105007212457
 21
240.43516378850259
 31
0.0
  0
ARC
  5
1876A
  8
0
 10
360.4707036361138
 20
240.81628940865079
 30
0.0
 40
0.7400000000001327
 50
328.999999999978
 51
0.0000000000016284
  0
LINE
  5
1876B
  8
0
 10
361.21070347711139
 20
240.81629078835761
 30
0.0
 11
361.21070347711139
 21
258.27909570187842
 31
0.0
  0
ARC
  5
1876C
  8
0
 10
364.95070363611387
 20
258.2790956138615
 30
0.0
 40
3.7400000000018072
 50
134.99999999997291
 51
179.99999999999841
  0
LINE
  5
1876D
  8
0
 10
362.30612462371289
 20
260.92367183417588
 30
0.0
 11
367.0139630323618
 21
265.63151489943778
 31
0.0
  0
ARC
  5
1876E
  8
0
 10
366.49070363611389
 20
266.15477237329048
 30
0.0
 40
0.7400000000002774
 50
314.99999999997249
 51
0.0000000000016284
  0
LINE
  5
1876F
  8
0
 10
367.2307032158941
 20
266.15476917475968
 30
0.0
 11
367.2307032158941
 21
278.99885486811911
 31
0.0
  0
LINE
  5
18770
  8
0
 10
361.21070347711139
 20
195.35161305219441
 30
0.0
 11
361.21070347711139
 21
205.55441763252529
 31
0.0
  0
ARC
  5
18771
  8
0
 10
360.47070363611363
 20
205.55440826530889
 30
0.0
 40
0.7400000000002595
 50
0.0000000000016284
 51
31.000000000021959
  0
LINE
  5
18772
  8
0
 10
357.7448980415582
 20
211.52769710869109
 30
0.0
 11
361.105007212457
 21
205.93553718179979
 31
0.0
  0
ARC
  5
18773
  8
0
 10
360.9507036361137
 20
213.45394015209649
 30
0.0
 40
3.7400000000010039
 50
179.99999999999841
 51
211.00000000002251
  0
ARC
  5
18774
  8
0
 10
360.9507036361137
 20
232.91674635730661
 30
0.0
 40
0.7400000000002595
 50
148.999999999978
 51
179.99999999999841
  0
LINE
  5
18775
  8
0
 10
360.31640004351431
 20
233.29787265509879
 30
0.0
 11
363.67650898158251
 21
238.89003258199011
 31
0.0
  0
ARC
  5
18776
  8
0
 10
360.47070363611363
 20
240.81627824409421
 30
0.0
 40
3.7400000000010039
 50
328.999999999978
 51
0.0000000000016284
  0
ARC
  5
18777
  8
0
 10
364.9507036361137
 20
258.27908444930478
 30
0.0
 40
0.740000000000438
 50
134.9999999999726
 51
179.99999999999511
  0
LINE
  5
18778
  8
0
 10
364.4274446180433
 20
258.80234252661978
 30
0.0
 11
369.13528302669221
 21
263.51017814130103
 31
0.0
  0
ARC
  5
18779
  8
0
 10
366.49070363611372
 20
266.15476120873382
 30
0.0
 40
3.7400000000018072
 50
314.99999999997289
 51
0.0000000000016284
  0
LINE
  5
1877B
  8
0
 10
378.23290683240663
 20
217.50094765352759
 30
0.0
 11
378.23290683240663
 21
224.00164913386621
 31
0.0
  0
LINE
  5
1877C
  8
0
 10
376.25071667116907
 20
227.0023816450996
 30
0.0
 11
376.25070363611439
 21
258.2790956138615
 31
0.0
  0
LINE
  5
1877E
  8
0
 10
362.22849969188991
 20
224.00164858314361
 30
0.0
 11
362.22849923113881
 21
217.5016471371643
 31
0.0
  0
LINE
  5
18780
  8
0
 10
384.7151109825241
 20
192.10164877370309
 30
0.0
 11
384.715110156533
 21
198.6016475781849
 31
0.0
  0
LINE
  5
18781
  8
0
 10
362.22849951861031
 20
198.60164757818501
 30
0.0
 11
362.22849968060552
 21
192.1016485830898
 31
0.0
  0
ARC
  5
18789
  8
0
 10
273.38949200724392
 20
82.712203894103965
 30
0.0
 40
0.75
 50
270.0
 51
0.0
  0
ARC
  5
1878A
  8
0
 10
273.38949200724392
 20
83.212203894103965
 30
0.0
 40
0.75
 50
0.0
 51
90.0
  0
ARC
  5
1878B
  8
0
 10
273.38949200724392
 20
96.752203894103957
 30
0.0
 40
0.75
 50
270.0
 51
0.0
  0
ARC
  5
1878C
  8
0
 10
273.38949200724392
 20
97.252203894103957
 30
0.0
 40
0.75
 50
0.0
 51
90.0
  0
LINE
  5
1878D
  8
0
 10
274.13949221357399
 20
82.712203878911893
 30
0.0
 11
274.13949221357399
 21
83.212203029545705
 31
0.0
  0
LINE
  5
1878E
  8
0
 10
274.13949221357399
 20
96.752203684302742
 30
0.0
 11
274.13949221357399
 21
97.252203766259115
 31
0.0
  0
ARC
  5
18791
  8
0
 10
263.40189200335362
 20
76.24779654769381
 30
0.0
 40
0.750000000000057
 50
180.0
 51
270.0
  0
LINE
  5
18792
  8
0
 10
262.65189181998068
 20
77.068567890676434
 30
0.0
 11
262.65189181998068
 21
76.247797030958111
 31
0.0
  0
LINE
  5
18793
  8
0
 10
269.1518928854137
 20
86.997796464713986
 30
0.0
 11
269.1518928854137
 21
93.00220353529113
 31
0.0
  0
LINE
  5
18794
  8
0
 10
264.15189206584989
 20
93.00220353529113
 30
0.0
 11
264.15189206584989
 21
86.997796464713986
 31
0.0
  0
CIRCLE
  5
18795
  8
0
 10
200.6361621725554
 20
90.000000000002544
 30
0.0
 40
8.4751374052344346
  0
ARC
  5
18797
  8
0
 10
200.6361263557545
 20
90.000000000002544
 30
0.0
 40
11.25000000002297
 50
137.01711656346939
 51
222.98288343653061
  0
ARC
  5
18798
  8
0
 10
200.63612954593671
 20
90.000000000002544
 30
0.0
 40
11.25000000002303
 50
137.01711656346919
 51
222.98288343653061
  0
ARC
  5
18799
  8
0
 10
200.63612954593671
 20
90.000000000002544
 30
0.0
 40
11.25000000002297
 50
317.01711656346941
 51
42.982883436530607
  0
ARC
  5
1879A
  8
0
 10
200.4753508368151
 20
87.579908671105045
 30
0.0
 40
9.6267578449516087
 50
213.0484337425209
 51
232.3290139095854
  0
ARC
  5
1879B
  8
0
 10
202.0345969508289
 20
86.438258931416286
 30
0.0
 40
7.9717056521173211
 50
305.64383482358289
 51
328.97862020441249
  0
ARC
  5
1879C
  8
0
 10
200.7970012530015
 20
92.420166168343684
 30
0.0
 40
9.6266381277156192
 50
33.048373678191673
 51
52.329204957147603
  0
ARC
  5
1879D
  8
0
 10
199.23815471798019
 20
93.561289583804609
 30
0.0
 40
7.9723626014023976
 50
125.6448546310734
 51
148.97766405350501
  0
ARC
  5
1879E
  8
0
 10
200.6361267599471
 20
99.975755022584735
 30
0.0
 40
20.908352922498921
 50
253.1978188571299
 51
286.80218114286998
  0
ARC
  5
1879F
  8
0
 10
200.6361267599471
 20
80.024268504062178
 30
0.0
 40
20.908330109109531
 50
73.197799979757235
 51
106.80220002024279
  0
LINE
  5
187A4
  8
0
 10
236.73941425880631
 20
58.000001533036311
 30
0.0
 11
236.73941425880631
 21
83.997795972975666
 31
0.0
  0
LINE
  5
187A5
  8
0
 10
236.73941425880619
 20
96.002204027029464
 30
0.0
 11
236.73941425880631
 21
121.99999991626029
 31
0.0
  0
LINE
  5
187A7
  8
0
 10
252.73941970448229
 20
67.702089119705136
 30
0.0
 11
252.7394197044822
 21
58.000001533036311
 31
0.0
  0
LINE
  5
187A8
  8
0
 10
252.7394197044822
 20
121.99999991626029
 30
0.0
 11
252.73941970448229
 21
112.2979118116225
 31
0.0
  0
ARC
  5
187A9
  8
0
 10
244.73941970011791
 20
122.0000000000077
 30
0.0
 40
8.000000000007617
 50
359.99990861686058
 51
179.99990861686061
  0
ARC
  5
187AA
  8
0
 10
244.73941970011711
 20
58.000000000007681
 30
0.0
 40
8.0000000000076739
 50
179.99990861686061
 51
359.99990861686058
  0
LINE
  5
187B1
  8
0
 10
232.6070468011504
 20
88.650747351350944
 30
0.0
 11
232.6070468011504
 21
91.349252648654144
 31
0.0
  0
LINE
  5
187B2
  8
0
 10
232.607078466118
 20
88.650758527221853
 30
0.0
 11
232.607078466118
 21
91.349241472783262
 31
0.0
  0
LINE
  5
187B3
  8
0
 10
235.60707895785629
 20
90.257330946626837
 30
0.0
 11
235.60707895785629
 21
89.742669053378265
 31
0.0
  0
ARC
  5
187B8
  8
0
 10
235.62707719064471
 20
86.980196813185273
 30
0.0
 40
3.0200000000090821
 50
207.51978965918281
 51
230.11465599644541
  0
ARC
  5
187BA
  8
0
 10
235.6270771906448
 20
92.980196813185245
 30
0.0
 40
3.0200000000089871
 50
129.8853440035457
 51
151.68797920535189
  0
LINE
  5
187E7
  8
0
 10
248.73940357923209
 20
86.997796464713986
 30
0.0
 11
248.73940357923209
 21
93.00220353529113
 31
0.0
  0
LINE
  5
187E8
  8
0
 10
240.73958061620289
 20
86.997796464713986
 30
0.0
 11
240.73958061620289
 21
93.00220353529113
 31
0.0
  0
LINE
  5
187E9
  8
0
 10
247.60480402022301
 20
76.962203402074735
 30
0.0
 11
243.39897967859801
 21
76.962203402074735
 31
0.0
  0
LINE
  5
187F1
  8
0
 10
264.15189206585001
 20
90.000000000002544
 30
0.0
 11
248.73940357923209
 21
90.000000000002544
 31
0.0
  0
LINE
  5
187F6
  8
0
 10
240.73958061620311
 20
90.000000000002544
 30
0.0
 11
236.9677340279577
 21
89.999995915148347
 31
0.0
  0
LINE
  5
187FD
  8
0
 10
277.23070271297991
 20
90.000000000002544
 30
0.0
 11
269.1518928854137
 21
90.000000000002544
 31
0.0
  0
LINE
  5
18801
  8
0
 10
235.69990015357789
 20
89.776442535224135
 30
0.0
 11
236.9677340279577
 21
89.999995915148347
 31
0.0
  0
LINE
  5
18803
  8
0
 10
236.9677340279577
 20
89.999995915148347
 30
0.0
 11
235.6999374064809
 21
90.223542563619773
 31
0.0
  0
POLYLINE
  5
18807
  8
0
 66
     1
 10
0.0
 20
0.0
 30
0.0
 70
   128
  0
VERTEX
  5
1983F
  8
0
 10
233.60701343745049
 20
89.014695174994642
 30
0.0
  0
VERTEX
  5
19840
  8
0
 10
233.8700189325219
 20
89.110420234503906
 30
0.0
  0
VERTEX
  5
19841
  8
0
 10
234.1328903171426
 20
89.206098727884466
 30
0.0
  0
VERTEX
  5
19842
  8
0
 10
234.3954972061521
 20
89.301680363717253
 30
0.0
  0
VERTEX
  5
19843
  8
0
 10
234.65770362645449
 20
89.39711485058325
 30
0.0
  0
VERTEX
  5
19844
  8
0
 10
234.9193810555345
 20
89.492357484998877
 30
0.0
  0
VERTEX
  5
19845
  8
0
 10
235.18039352029621
 20
89.587357975545103
 30
0.0
  0
VERTEX
  5
19846
  8
0
 10
235.44061063557919
 20
89.682069756093185
 30
0.0
  0
VERTEX
  5
19847
  8
0
 10
235.69990015357789
 20
89.776442535224135
 30
0.0
  0
SEQEND
  5
19848
  8
0
  0
LINE
  5
18808
  8
0
 10
224.57310250729381
 20
85.726619847121412
 30
0.0
 11
233.60701343745049
 21
89.014695174994642
 31
0.0
  0
POLYLINE
  5
18809
  8
0
 66
     1
 10
0.0
 20
0.0
 30
0.0
 70
   128
  0
VERTEX
  5
19849
  8
0
 10
235.6999374064809
 20
90.223542563619773
 30
0.0
  0
VERTEX
  5
1984A
  8
0
 10
235.4406478884822
 20
90.317915342750723
 30
0.0
  0
VERTEX
  5
1984B
  8
0
 10
235.18043077319919
 20
90.412627123298805
 30
0.0
  0
VERTEX
  5
1984C
  8
0
 10
234.9194183084374
 20
90.507627613845045
 30
0.0
  0
VERTEX
  5
1984D
  8
0
 10
234.6577427420026
 20
90.602870248260672
 30
0.0
  0
VERTEX
  5
1984E
  8
0
 10
234.395534459055
 20
90.698305666449244
 30
0.0
  0
VERTEX
  5
1984F
  8
0
 10
234.13292757004561
 20
90.79388730228203
 30
0.0
  0
VERTEX
  5
19850
  8
0
 10
233.87005618542489
 20
90.889564864340002
 30
0.0
  0
VERTEX
  5
19851
  8
0
 10
233.6070506903535
 20
90.985290855171854
 30
0.0
  0
SEQEND
  5
19852
  8
0
  0
LINE
  5
1880B
  8
0
 10
233.6070506903535
 20
90.985290855171854
 30
0.0
 11
224.5731397601968
 21
94.273365251722495
 31
0.0
  0
ARC
  5
1880E
  8
0
 10
187.31798745121949
 20
89.999992919083724
 30
0.0
 40
7.3180000000000121
 50
90.0
 51
270.0
  0
ARC
  5
18810
  8
0
 10
224.32000703867789
 20
86.42199291908355
 30
0.0
 40
3.7400000000016478
 50
270.0
 51
289.99999999996191
  0
LINE
  5
18811
  8
0
 10
224.32000628441631
 20
82.681992240252654
 30
0.0
 11
209.18239346474471
 21
82.681992240252654
 31
0.0
  0
LINE
  5
18812
  8
0
 10
192.08986005514919
 20
82.681992240252654
 30
0.0
 11
187.31801650255969
 21
82.681992240252654
 31
0.0
  0
LINE
  5
18813
  8
0
 10
187.31801650255969
 20
97.317992858591253
 30
0.0
 11
192.09328732222369
 21
97.317992858591253
 31
0.0
  0
LINE
  5
18814
  8
0
 10
209.17896992296039
 20
97.317992858591253
 30
0.0
 11
224.32004539996441
 21
97.317992858591253
 31
0.0
  0
ARC
  5
18815
  8
0
 10
224.32004494229071
 20
93.577992919083243
 30
0.0
 40
3.7400000000016602
 50
70.000000000031164
 51
90.0
  0
ARC
  5
18816
  8
0
 10
224.32004494229071
 20
93.577992919083243
 30
0.0
 40
0.7400000000003372
 50
70.000000000031164
 51
90.0
  0
LINE
  5
18817
  8
0
 10
224.32004539996441
 20
94.317993298175494
 30
0.0
 11
211.0236256453401
 21
94.317993298175494
 31
0.0
  0
LINE
  5
18818
  8
0
 10
190.24862787455379
 20
94.317993298175494
 30
0.0
 11
187.31801650255969
 21
94.317993298175494
 31
0.0
  0
ARC
  5
18819
  8
0
 10
187.3180129758673
 20
89.999992919083752
 30
0.0
 40
4.3179999999999827
 50
90.0
 51
270.0
  0
LINE
  5
1881A
  8
0
 10
187.31801650255969
 20
85.681992731990974
 30
0.0
 11
190.2469663950807
 21
85.681992731990974
 31
0.0
  0
LINE
  5
1881B
  8
0
 10
211.02529085010349
 20
85.681992731990974
 30
0.0
 11
224.32000628441631
 21
85.681992731990974
 31
0.0
  0
ARC
  5
1881C
  8
0
 10
224.32000703867789
 20
86.42199291908355
 30
0.0
 40
0.7400000000002983
 50
270.0
 51
289.99999999996191
  0
LINE
  5
1881D
  8
0
 10
225.59920019239249
 20
97.092443294825713
 30
0.0
 11
233.6904916051036
 21
94.147454164924795
 31
0.0
  0
LINE
  5
1881E
  8
0
 10
233.6904916051036
 20
85.852545835080321
 30
0.0
 11
225.5991629394895
 21
82.907541804018194
 31
0.0
  0
ARC
  5
18827
  8
0
 10
243.8504920072765
 20
74.052088433704142
 30
0.0
 40
6.3499999999999508
 50
180.0
 51
270.0
  0
LINE
  5
18828
  8
0
 10
237.500491924432
 20
86.997796464713986
 30
0.0
 11
237.50049192443191
 21
74.052088577302854
 31
0.0
  0
LINE
  5
18829
  8
0
 10
272.60249145313799
 20
74.052088577302854
 30
0.0
 11
272.60249145313799
 21
86.997796464713986
 31
0.0
  0
ARC
  5
1882A
  8
0
 10
266.25249200974849
 20
74.05208843370383
 30
0.0
 40
6.349999999999965
 50
270.0
 51
0.0
  0
LINE
  5
1882B
  8
0
 10
243.85049231335219
 20
67.702089119705136
 30
0.0
 11
266.2524919955402
 21
67.702089119705136
 31
0.0
  0
CIRCLE
  5
1882C
  8
0
 10
245.5018920072765
 20
74.102088433704182
 30
0.0
 40
3.5499999999284451
  0
ARC
  5
1882F
  8
0
 10
266.25249200974872
 20
105.9479120080935
 30
0.0
 40
6.3500000000000218
 50
0.0
 51
90.0
  0
LINE
  5
18830
  8
0
 10
272.60249145313787
 20
93.00220353529113
 30
0.0
 11
272.60249145313799
 21
105.9479120047788
 31
0.0
  0
LINE
  5
18831
  8
0
 10
237.50049192443191
 20
105.9479120047788
 30
0.0
 11
237.50049192443191
 21
93.00220353529113
 31
0.0
  0
ARC
  5
18832
  8
0
 10
243.85049200335899
 20
105.9479120080937
 30
0.0
 40
6.349999999999965
 50
90.0
 51
180.0
  0
LINE
  5
18833
  8
0
 10
266.2524919955402
 20
112.2979118116225
 30
0.0
 11
243.85049231335219
 21
112.2979118116225
 31
0.0
  0
CIRCLE
  5
18834
  8
0
 10
245.50189200727689
 20
105.8979120080936
 30
0.0
 40
3.5499999999852321
  0
CIRCLE
  5
18835
  8
0
 10
264.6018920072766
 20
74.102088433703898
 30
0.0
 40
3.5500000000225209
  0
CIRCLE
  5
1883C
  8
0
 10
264.60189200727689
 20
105.8979120080934
 30
0.0
 40
3.5500000000224068
  0
LINE
  5
1883D
  8
0
 10
233.6904913185507
 20
96.002204027029435
 30
0.0
 11
233.6904913185507
 21
93.00220353529113
 31
0.0
  0
LINE
  5
1883E
  8
0
 10
233.6904913185507
 20
96.002204027029435
 30
0.0
 11
237.50049192443191
 21
96.002204027029435
 31
0.0
  0
LINE
  5
18840
  8
0
 10
233.6904913185507
 20
83.997795972975666
 30
0.0
 11
233.6904913185507
 21
86.997796464713986
 31
0.0
  0
LINE
  5
18842
  8
0
 10
237.50049192443191
 20
83.997795972975666
 30
0.0
 11
233.6904913185507
 21
83.997795972975666
 31
0.0
  0
LINE
  5
18844
  8
0
 10
233.6904913185507
 20
86.997796464713986
 30
0.0
 11
276.73070356234609
 21
86.997796464713986
 31
0.0
  0
LINE
  5
18845
  8
0
 10
276.73070356234609
 20
83.997795972975666
 30
0.0
 11
272.60249145313799
 21
83.997795972975666
 31
0.0
  0
LINE
  5
18847
  8
0
 10
272.60249145313799
 20
96.002204027029435
 30
0.0
 11
276.73070356234609
 21
96.002204027029435
 31
0.0
  0
LINE
  5
18848
  8
0
 10
276.73070356234609
 20
93.00220353529113
 30
0.0
 11
233.6904913185507
 21
93.00220353529113
 31
0.0
  0
POLYLINE
  5
1884A
  8
0
 66
     1
 10
0.0
 20
0.0
 30
0.0
 70
   128
  0
VERTEX
  5
19853
  8
0
 10
276.73070356234609
 20
93.00220353529113
 30
0.0
  0
VERTEX
  5
19854
  8
0
 10
276.91295221432739
 20
92.967806067320282
 30
0.0
  0
VERTEX
  5
19855
  8
0
 10
277.17394605263769
 20
92.733583096417362
 30
0.0
  0
VERTEX
  5
19856
  8
0
 10
277.23070271297991
 20
92.502203453334744
 30
0.0
  0
SEQEND
  5
19857
  8
0
  0
ARC
  5
1884B
  8
0
 10
276.73070571925791
 20
92.502206541568341
 30
0.0
 40
3.4999974854617721
 50
359.99994944489259
 51
90.000035309153844
  0
POLYLINE
  5
1884C
  8
0
 66
     1
 10
0.0
 20
0.0
 30
0.0
 70
   128
  0
VERTEX
  5
19858
  8
0
 10
277.23070271297991
 20
87.497797477992947
 30
0.0
  0
VERTEX
  5
19859
  8
0
 10
277.17044800504738
 20
87.259838972243244
 30
0.0
  0
VERTEX
  5
1985A
  8
0
 10
276.94371566161209
 20
87.045441064986164
 30
0.0
  0
VERTEX
  5
1985B
  8
0
 10
276.73070356234609
 20
86.997796464713986
 30
0.0
  0
SEQEND
  5
1985C
  8
0
  0
ARC
  5
1884E
  8
0
 10
276.73070263436489
 20
87.497796543328974
 30
0.0
 40
3.50000057035346
 50
270.00001519125902
 51
0.000015300654611
  0
LINE
  5
1884F
  8
0
 10
277.23070271297991
 20
87.497797477992947
 30
0.0
 11
277.23070271297991
 21
92.502203453334744
 31
0.0
  0
LINE
  5
18851
  8
0
 10
280.23070320471822
 20
92.502203453334744
 30
0.0
 11
280.23070320471822
 21
87.497797477992947
 31
0.0
  0
LINE
  5
18855
  8
0
 10
243.44826713189181
 20
103.0022040102656
 30
0.0
 11
247.55551656692921
 21
103.0022040102656
 31
0.0
  0
LINE
  5
18856
  8
0
 10
272.60249145313799
 20
81.962204221638615
 30
0.0
 11
273.3894925563007
 21
81.962204221638615
 31
0.0
  0
LINE
  5
18857
  8
0
 10
273.3894925563007
 20
98.002204354854996
 30
0.0
 11
272.60249145313799
 21
98.002204354854996
 31
0.0
  0
LINE
  5
18858
  8
0
 10
263.4018924085766
 20
75.497797373684804
 30
0.0
 11
267.86313336327368
 21
75.497797373684804
 31
0.0
  0
LINE
  5
18861
  8
0
 10
237.7394141327768
 20
293.99883999872532
 30
0.0
 11
251.73941333530391
 21
293.9988511632817
 31
0.0
  0
LINE
  5
18862
  8
0
 10
237.73942042391579
 20
285.10995110983868
 30
0.0
 11
251.73941962644301
 21
285.10996227439512
 31
0.0
  0
LINE
  5
18863
  8
0
 10
235.60707680865821
 20
228.5504223033837
 30
0.0
 11
235.60707867130341
 21
227.68439289182939
 31
0.0
  0
LINE
  5
190AD
  8
0
 10
204.6360650088078
 20
245.5004565358108
 30
0.0
 11
204.1365211377144
 21
245.99999866157549
 31
0.0
  0
LINE
  5
190B0
  8
0
 10
196.63607452688311
 20
203.000345888162
 30
0.0
 11
196.6360758501954
 21
195.74999782885359
 31
0.0
  0
LINE
  5
190B1
  8
0
 10
204.63607721021589
 20
195.75000062338879
 30
0.0
 11
204.63607225530509
 21
203.00035054544301
 31
0.0
  0
ARC
  5
190B3
  8
0
 10
208.6112157838177
 20
188.73301148765759
 30
0.0
 40
0.5000000000016902
 50
344.05462634488089
 51
19.653846307935979
  0
ARC
  5
190B4
  8
0
 10
192.66094097335909
 20
188.7330052936272
 30
0.0
 40
0.5000000000016903
 50
160.3461981918272
 51
195.94541815488989
  0
LINE
  5
190B5
  8
0
 10
192.1801805602542
 20
188.5956451506035
 30
0.0
 11
194.53246994263969
 21
180.36263725255949
 31
0.0
  0
LINE
  5
190B6
  8
0
 10
206.7396912568301
 20
180.36264193073899
 30
0.0
 11
209.0919778887141
 21
188.59565101380801
 31
0.0
  0
LINE
  5
190B7
  8
0
 10
209.08208732726459
 20
188.90117992492429
 30
0.0
 11
206.7545872332764
 21
195.4181701563389
 31
0.0
  0
LINE
  5
190B8
  8
0
 10
194.51756359657131
 20
195.41816596281649
 30
0.0
 11
192.19007129037499
 21
188.9011737481778
 31
0.0
  0
ARC
  5
190B9
  8
0
 10
206.2837162497018
 20
195.2500021931867
 30
0.0
 40
0.5000000000173471
 50
19.653846303474101
 51
90.000022249879777
  0
ARC
  5
190BA
  8
0
 10
194.98843544593981
 20
195.2499978068478
 30
0.0
 40
0.5000000000173002
 50
90.000022249879777
 51
160.34619819628631
  0
ARC
  5
190BB
  8
0
 10
206.25893086936591
 20
180.5000021835605
 30
0.0
 40
0.5000000000133175
 50
270.00002224987981
 51
344.05462634597689
  0
ARC
  5
190BC
  8
0
 10
195.01323228212101
 20
180.4999978164762
 30
0.0
 40
0.5000000000133701
 50
195.94541815379131
 51
270.00002224987981
  0
LINE
  5
190BD
  8
0
 10
207.03605985615741
 20
203.00035194262051
 30
0.0
 11
208.02614232877619
 21
203.99043636447561
 31
0.0
  0
LINE
  5
190BE
  8
0
 10
194.23605986797921
 20
209.0003455106764
 30
0.0
 11
193.24597367006999
 21
208.01026108923131
 31
0.0
  0
LINE
  5
190BF
  8
0
 10
193.24597847375799
 20
203.9904306884678
 30
0.0
 11
194.23605916991269
 21
203.00034449096839
 31
0.0
  0
LINE
  5
190C0
  8
0
 10
208.02614125037849
 20
208.0102667648294
 30
0.0
 11
207.03605682852381
 21
209.00034923744809
 31
0.0
  0
LINE
  5
190C1
  8
0
 10
194.23605202569311
 20
235.00231966208489
 30
0.0
 11
193.24596955266421
 21
234.0122315149398
 31
0.0
  0
LINE
  5
190C2
  8
0
 10
207.03605573875171
 20
229.00232236832889
 30
0.0
 11
208.0261382109608
 21
229.99240306489361
 31
0.0
  0
LINE
  5
190C3
  8
0
 10
208.02613713297279
 20
234.01223719053769
 30
0.0
 11
207.0360527111178
 21
235.00231966315661
 31
0.0
  0
LINE
  5
190C4
  8
0
 10
193.2459706306521
 20
229.9923973892958
 30
0.0
 11
194.23605505250711
 21
229.00231491667671
 31
0.0
  0
ARC
  5
190CA
  8
0
 10
200.4814003455993
 20
210.96761802490749
 30
0.0
 40
7.968770774300082
 50
271.1120754017104
 51
298.88796469760342
  0
ARC
  5
190CB
  8
0
 10
200.8412816443051
 20
211.15633485485719
 30
0.0
 40
8.1585681441917721
 50
241.44140890617561
 51
268.55861934180172
  0
LINE
  5
190CC
  8
0
 10
196.9410183593198
 20
208.01026437046869
 30
0.0
 11
196.94101943730749
 21
203.99043024482461
 31
0.0
  0
ARC
  5
190CD
  8
0
 10
200.790737261186
 20
201.0330126895299
 30
0.0
 40
7.9688378476755926
 50
91.112194640335971
 51
118.88784545897811
  0
ARC
  5
190CE
  8
0
 10
200.43083807983149
 20
200.84436259843989
 30
0.0
 40
8.1585681441917437
 50
61.441408906168277
 51
88.558619341801744
  0
LINE
  5
190CF
  8
0
 10
204.3311013648167
 20
203.99043308282819
 30
0.0
 11
204.3311002868289
 21
208.01026720847241
 31
0.0
  0
ARC
  5
190D0
  8
0
 10
206.43515501308741
 20
205.69784851538381
 30
0.0
 40
2.7096695765588712
 50
219.0589339648493
 51
264.56754785794692
  0
ARC
  5
190D1
  8
0
 10
194.83694957649419
 20
206.30282069641831
 30
0.0
 40
2.709699124057094
 50
39.05919600889586
 51
84.567285813897143
  0
ARC
  5
190D2
  8
0
 10
206.37193864119379
 20
206.42081247419219
 30
0.0
 40
2.586771644535566
 50
94.285876374730506
 51
142.087670740064
  0
ARC
  5
190D3
  8
0
 10
194.90018108294271
 20
205.57988497910469
 30
0.0
 40
2.586771644535566
 50
274.28587637473697
 51
322.08767074006403
  0
ARC
  5
190D4
  8
0
 10
205.98529723730991
 20
205.5798932361765
 30
0.0
 40
2.5867782731345241
 50
274.28609774893511
 51
322.0877250798822
  0
ARC
  5
190D5
  8
0
 10
205.92209293580501
 20
206.30286224919101
 30
0.0
 40
2.7096585559958499
 50
39.058825784815518
 51
84.567559860184829
  0
LINE
  5
190D6
  8
0
 10
208.02614232877619
 20
203.99043636447561
 30
0.0
 11
208.02614125037849
 21
208.0102667648294
 31
0.0
  0
ARC
  5
190D7
  8
0
 10
195.35002678833149
 20
205.6978352041061
 30
0.0
 40
2.7096585559958499
 50
219.0588257848155
 51
264.56755986018487
  0
LINE
  5
190D8
  8
0
 10
193.24597367006999
 20
208.01026108923131
 30
0.0
 11
193.24597847375799
 21
203.9904306884678
 31
0.0
  0
ARC
  5
190D9
  8
0
 10
195.28682624917241
 20
206.42078951698491
 30
0.0
 40
2.5867932133452949
 50
94.286156515204297
 51
142.0875700959941
  0
ARC
  5
190DA
  8
0
 10
200.48140454105021
 20
236.9695836773864
 30
0.0
 40
7.9687658406365749
 50
271.11201630923841
 51
298.88791600263869
  0
ARC
  5
190DB
  8
0
 10
200.84125754212499
 20
237.15824536842121
 30
0.0
 40
8.1585077483245652
 50
241.44130805519791
 51
268.5587490632978
  0
LINE
  5
190DC
  8
0
 10
196.94101051662369
 20
234.0122347965868
 30
0.0
 11
196.94101159461161
 21
229.9924006709426
 31
0.0
  0
ARC
  5
190DD
  8
0
 10
200.7906674573326
 20
227.03518438046339
 30
0.0
 40
7.9686316937274562
 50
91.111777825250513
 51
118.88815448662331
  0
ARC
  5
190DE
  8
0
 10
200.4308502214999
 20
226.8463892114124
 30
0.0
 40
8.1585077483245652
 50
61.441308055197929
 51
88.558749063297839
  0
LINE
  5
190DF
  8
0
 10
204.33109616901331
 20
234.01223390889061
 30
0.0
 11
204.3310972470012
 21
229.9923997832465
 31
0.0
  0
ARC
  5
190E0
  8
0
 10
194.83698109027921
 20
232.3048553772542
 30
0.0
 40
2.7096280756747309
 50
39.058665388425688
 51
84.567899774479656
  0
ARC
  5
190E1
  8
0
 10
206.43517306149681
 20
231.69986576429511
 30
0.0
 40
2.7097186402990112
 50
219.0594685719426
 51
264.56709659097442
  0
ARC
  5
190E2
  8
0
 10
194.90016335284091
 20
231.5818731268954
 30
0.0
 40
2.5867903344049248
 50
274.28614770910019
 51
322.08749562312471
  0
ARC
  5
190E3
  8
0
 10
206.37187959304109
 20
232.42288240430929
 30
0.0
 40
2.5866648775792642
 50
94.284916214258232
 51
142.08872711796789
  0
ARC
  5
190E4
  8
0
 10
195.34999840633591
 20
231.69977469246291
 30
0.0
 40
2.7096254605051922
 50
219.05865263575549
 51
264.56800870474871
  0
LINE
  5
190E5
  8
0
 10
193.24596955266421
 20
234.0122315149398
 30
0.0
 11
193.2459706306521
 21
229.9923973892958
 31
0.0
  0
ARC
  5
190E6
  8
0
 10
195.2868189941064
 20
232.42275609188221
 30
0.0
 40
2.5867931040460008
 50
94.286087013703408
 51
142.08746010109769
  0
ARC
  5
190E7
  8
0
 10
205.9852887695186
 20
231.58187848795171
 30
0.0
 40
2.5867931040460008
 50
274.28608701370342
 51
322.0874601010978
  0
ARC
  5
190E8
  8
0
 10
205.92210935728909
 20
232.30485988737101
 30
0.0
 40
2.7096254605051922
 50
39.058652635755458
 51
84.568008704748678
  0
LINE
  5
190E9
  8
0
 10
208.02613713297279
 20
234.01223719053769
 30
0.0
 11
208.0261382109608
 21
229.99240306489361
 31
0.0
  0
LINE
  5
190FB
  8
0
 10
195.01323247628821
 20
179.99999781646281
 30
0.0
 11
206.25893106353271
 21
180.00000218354731
 31
0.0
  0
LINE
  5
190FC
  8
0
 10
192.1801805602542
 20
188.5956451506035
 30
0.0
 11
209.0919778887141
 21
188.59565101380801
 31
0.0
  0
LINE
  5
190FD
  8
0
 10
209.08208732726459
 20
188.90117992492429
 30
0.0
 11
192.1900699522549
 21
188.9011733092718
 31
0.0
  0
LINE
  5
190FE
  8
0
 10
194.98840318567201
 20
195.74999780582431
 30
0.0
 11
206.28371605548921
 21
195.7500021932041
 31
0.0
  0
LINE
  5
190FF
  8
0
 10
207.03605985615741
 20
203.00035194262051
 30
0.0
 11
194.23605916991269
 21
203.00034449096839
 31
0.0
  0
LINE
  5
19102
  8
0
 10
207.0360527111178
 20
235.00231966315661
 30
0.0
 11
194.23605202569311
 21
235.00231966208489
 31
0.0
  0
LINE
  5
19103
  8
3
 10
203.96115190811591
 20
195.7500012924435
 30
0.0
 11
203.96115190811591
 21
203.00035015460099
 31
0.0
  0
LINE
  5
19105
  8
3
 10
197.31415190811569
 20
195.7499987092028
 30
0.0
 11
197.31415190811569
 21
203.00034628360061
 31
0.0
  0
LINE
  5
19107
  8
0
 10
204.6360650088078
 20
245.5004565358108
 30
0.0
 11
196.63606668193111
 21
245.50045507567469
 31
0.0
  0
LINE
  5
19108
  8
0
 10
197.13609217808329
 20
246.00000133863551
 30
0.0
 11
204.13652125179979
 21
245.99999866157549
 31
0.0
  0
LINE
  5
19110
  8
0
 10
196.63606668193091
 20
245.50045546716771
 30
0.0
 11
197.13609217808329
 21
246.00000133863551
 31
0.0
  0
LINE
  5
19112
  8
1
 10
200.63631250116981
 20
177.99999999986011
 30
0.0
 11
200.6358915814705
 21
248.00000000001671
 31
0.0
  0
LINE
  5
1911E
  8
1
 10
244.73949200335389
 20
188.3516080677592
 30
0.0
 11
244.73949200335389
 21
296.99884558106692
 31
0.0
  0
LINE
  5
19122
  8
1
 10
245.50189200727689
 20
178.00000000000509
 30
0.0
 11
245.50189200727689
 21
184.9999995604208
 31
0.0
  0
LINE
  5
19123
  8
1
 10
264.60189200727689
 20
178.00000000000509
 30
0.0
 11
264.60189200727689
 21
184.9999995604208
 31
0.0
  0
ARC
  5
19184
  8
0
 10
86.643579235158995
 20
209.1707507875889
 30
0.0
 40
6.1729830670750827
 50
271.44646235863303
 51
302.93114807529059
  0
ARC
  5
19185
  8
0
 10
87.007195003500314
 20
209.33655650868849
 30
0.0
 40
6.3402277202046466
 50
237.48724439285149
 51
268.12187470992649
  0
ARC
  5
19186
  8
0
 10
86.955277406849973
 20
202.82855543803029
 30
0.0
 40
6.17314855686271
 50
91.446895329291024
 51
122.930715104638
  0
ARC
  5
19187
  8
0
 10
86.591601630586183
 20
202.66290437211421
 30
0.0
 40
6.3402376205887121
 50
57.487202866684072
 51
88.121794493114834
  0
LINE
  5
19188
  8
0
 10
89.999403067202806
 20
208.00944553945979
 30
0.0
 11
89.999403067202806
 21
203.98961516355001
 31
0.0
  0
ARC
  5
19189
  8
0
 10
93.406316833164965
 20
209.33590992619509
 30
0.0
 40
6.3395527521891033
 50
237.49277114161509
 51
268.129618424456
  0
ARC
  5
1918A
  8
0
 10
93.356089360738906
 20
202.82807662818021
 30
0.0
 40
6.1736477602783486
 50
91.454313402737426
 51
122.9366892374649
  0
ARC
  5
1918B
  8
0
 10
93.042728050688993
 20
209.17137789005449
 30
0.0
 40
6.173631520228553
 50
271.45421535863079
 51
302.93666553860521
  0
ARC
  5
1918C
  8
0
 10
92.992474428795944
 20
202.66351149769699
 30
0.0
 40
6.3396022824517519
 50
57.492893757419331
 51
88.129495808656614
  0
LINE
  5
1918D
  8
0
 10
83.599402763219118
 20
209.0003466818186
 30
0.0
 11
83.599402763219118
 21
203.0003456983419
 31
0.0
  0
LINE
  5
1918E
  8
0
 10
96.399403371186523
 20
203.0003456983419
 30
0.0
 11
96.399403371186523
 21
209.0003466818186
 31
0.0
  0
ARC
  5
1918F
  8
0
 10
93.042681719752977
 20
235.1734059886733
 30
0.0
 40
6.1736833000581024
 50
271.45435080835551
 51
302.936530088876
  0
ARC
  5
19190
  8
0
 10
93.406260617079738
 20
235.3378233822593
 30
0.0
 40
6.3394886943947713
 50
237.492678592961
 51
268.12983272488623
  0
LINE
  5
19191
  8
0
 10
89.999372640497427
 20
234.01142224533359
 30
0.0
 11
89.999372640497427
 21
229.9915881441334
 31
0.0
  0
ARC
  5
19192
  8
0
 10
93.356064459428907
 20
228.830012262624
 30
0.0
 40
6.1736852346231279
 50
91.454355868896798
 51
122.9365250283352
  0
ARC
  5
19193
  8
0
 10
92.992486488555755
 20
228.66560170500821
 30
0.0
 40
6.3394837315195671
 50
57.492666306640452
 51
88.129845011201013
  0
ARC
  5
19194
  8
0
 10
86.591613708377167
 20
228.66499458844129
 30
0.0
 40
6.3401190548623836
 50
57.486975425900532
 51
88.122143676861242
  0
ARC
  5
19195
  8
0
 10
86.64352739177923
 20
235.1728162263355
 30
0.0
 40
6.1730723123209748
 50
271.44664028606672
 51
302.93084839607212
  0
ARC
  5
19196
  8
0
 10
87.007131268633771
 20
235.33842558295879
 30
0.0
 40
6.3401190548623862
 50
237.48697542590051
 51
268.1221436768613
  0
ARC
  5
19197
  8
0
 10
86.955221515008006
 20
228.83059124117409
 30
0.0
 40
6.1730851113740766
 50
91.446673772050914
 51
122.9308149100879
  0
LINE
  5
19198
  8
0
 10
96.399372944481115
 20
229.00158131166421
 30
0.0
 11
96.399372944481115
 21
235.00231966240199
 31
0.0
  0
LINE
  5
19199
  8
0
 10
83.599372336513738
 20
235.00231966240199
 30
0.0
 11
83.599372336513966
 21
229.00309823373789
 31
0.0
  0
LINE
  5
191E1
  8
0
 10
83.599402763219118
 20
203.0003456983419
 30
0.0
 11
96.399403371186523
 21
203.0003456983419
 31
0.0
  0
LINE
  5
191E3
  8
0
 10
97.669700618368225
 20
209.0003260597629
 30
0.0
 11
82.329652458429337
 21
209.00032605976381
 31
0.0
  0
LINE
  5
191EB
  8
0
 10
96.399372944481115
 20
235.00231966240199
 30
0.0
 11
83.599372336513738
 21
235.00231966240199
 31
0.0
  0
LINE
  5
19211
  8
0
 10
85.999696226093974
 20
203.0003456983419
 30
0.0
 11
85.999697549406164
 21
195.74999782885359
 31
0.0
  0
LINE
  5
19212
  8
0
 10
93.999698909426684
 20
195.75000062338879
 30
0.0
 11
93.999693954519174
 21
203.0003456983419
 31
0.0
  0
ARC
  5
19213
  8
0
 10
97.974837483028409
 20
188.73301148765759
 30
0.0
 40
0.5000000000016902
 50
344.05462634488089
 51
19.653846307935979
  0
ARC
  5
19214
  8
0
 10
82.024562672569914
 20
188.7330052936272
 30
0.0
 40
0.5000000000016903
 50
160.3461981918268
 51
195.9454181548895
  0
LINE
  5
19215
  8
0
 10
81.543802259464996
 20
188.5956451506035
 30
0.0
 11
83.896091641850489
 21
180.36263725255949
 31
0.0
  0
LINE
  5
19216
  8
0
 10
96.103312956040895
 20
180.36264193073899
 30
0.0
 11
98.455599587924894
 21
188.59565101380801
 31
0.0
  0
LINE
  5
19217
  8
0
 10
98.445709026475356
 20
188.90117992492429
 30
0.0
 11
96.118208932487164
 21
195.4181701563389
 31
0.0
  0
LINE
  5
19218
  8
0
 10
83.881185295782075
 20
195.41816596281649
 30
0.0
 11
81.553692989585784
 21
188.9011737481778
 31
0.0
  0
ARC
  5
19219
  8
0
 10
95.647337948912536
 20
195.2500021931867
 30
0.0
 40
0.5000000000173471
 50
19.653846303474101
 51
90.000022249879777
  0
ARC
  5
1921A
  8
0
 10
84.352057145150525
 20
195.2499978068478
 30
0.0
 40
0.5000000000173002
 50
90.000022249879777
 51
160.34619819628631
  0
ARC
  5
1921B
  8
0
 10
95.622552568576666
 20
180.5000021835605
 30
0.0
 40
0.5000000000133175
 50
270.00002224987981
 51
344.05462634597689
  0
ARC
  5
1921C
  8
0
 10
84.376853981331806
 20
180.4999978164762
 30
0.0
 40
0.5000000000133701
 50
195.94541815379131
 51
270.00002224987981
  0
LINE
  5
1921D
  8
0
 10
84.376854175498906
 20
179.99999781646281
 30
0.0
 11
95.622552762743453
 21
180.00000218354731
 31
0.0
  0
LINE
  5
1921E
  8
0
 10
81.543802259464996
 20
188.5956451506035
 30
0.0
 11
98.455599587924894
 21
188.59565101380801
 31
0.0
  0
LINE
  5
1921F
  8
0
 10
98.445709026475356
 20
188.90117992492429
 30
0.0
 11
81.553691651465655
 21
188.9011733092718
 31
0.0
  0
LINE
  5
19220
  8
0
 10
84.352024884882766
 20
195.74999780582431
 30
0.0
 11
95.647337754699933
 21
195.7500021932041
 31
0.0
  0
LINE
  5
19221
  8
3
 10
93.328328907310606
 20
195.7500012924435
 30
0.0
 11
93.327861111206374
 21
203.00034569834199
 31
0.0
  0
LINE
  5
19222
  8
3
 10
86.681328893641535
 20
195.7499987105837
 30
0.0
 11
86.680861097370666
 21
203.0003456983419
 31
0.0
  0
LINE
  5
19223
  8
1
 10
89.999733442759407
 20
175.00000000001631
 30
0.0
 11
89.998987820460343
 21
298.9988554641655
 31
0.0
  0
LINE
  5
19224
  8
0
 10
93.999260693162455
 20
245.4993321970291
 30
0.0
 11
93.499716822069104
 21
245.9988743227938
 31
0.0
  0
LINE
  5
19225
  8
0
 10
85.999263058022265
 20
245.4993256767942
 30
0.0
 11
85.999692988585252
 21
235.00119532370499
 31
0.0
  0
LINE
  5
19226
  8
0
 10
93.99969441686369
 20
235.00119532437481
 30
0.0
 11
93.999260693162455
 21
245.4993321970291
 31
0.0
  0
LINE
  5
19227
  8
3
 10
93.325795000805314
 20
235.00119532431839
 30
0.0
 11
93.324670220845292
 21
245.9993279334042
 31
0.0
  0
LINE
  5
19228
  8
3
 10
86.678794986972079
 20
235.00119532376181
 30
0.0
 11
86.677670207237611
 21
245.99932440032029
 31
0.0
  0
LINE
  5
19229
  8
0
 10
93.999260693162455
 20
245.4993321970291
 30
0.0
 11
85.99926305802137
 21
245.49933112853
 31
0.0
  0
LINE
  5
1922A
  8
0
 10
86.499713884054927
 20
245.9988770000547
 30
0.0
 11
93.499716936154414
 21
245.9988743227938
 31
0.0
  0
LINE
  5
1922B
  8
0
 10
85.999780243722284
 20
245.49881606626639
 30
0.0
 11
86.499713884054927
 21
245.9988770000547
 31
0.0
  0
LINE
  5
19236
  8
0
 10
82.329649407818692
 20
227.00232576580001
 30
0.0
 11
97.669698484241962
 21
227.0023257657937
 31
0.0
  0
LINE
  5
19238
  8
0
 10
80.81103041768074
 20
212.8940665349416
 30
0.0
 11
81.691737473011145
 21
211.3685138524298
 31
0.0
  0
LINE
  5
19239
  8
0
 10
99.188319128006697
 20
212.8940665349416
 30
0.0
 11
98.307612538337693
 21
211.36853247888141
 31
0.0
  0
LINE
  5
1932D
  8
1
 10
74.101756163459299
 20
178.00000000000509
 30
0.0
 11
74.101756163459299
 21
184.9999995604208
 31
0.0
  0
LINE
  5
1932E
  8
1
 10
105.8975797378489
 20
178.00000000000509
 30
0.0
 11
105.8975797378489
 21
184.9999995604208
 31
0.0
  0
LINE
  5
1933E
  8
0
 10
196.63606668193091
 20
245.50045546716771
 30
0.0
 11
196.63606859802019
 21
235.00231749196021
 31
0.0
  0
LINE
  5
1933F
  8
0
 10
204.63606995804071
 20
235.00232028649529
 30
0.0
 11
204.6360650088078
 21
245.5004565358108
 31
0.0
  0
LINE
  5
19340
  8
3
 10
203.9611446559407
 20
235.00232095555009
 30
0.0
 11
203.9611446559407
 21
245.9999987282873
 31
0.0
  0
LINE
  5
19341
  8
3
 10
197.3141446559404
 20
235.0023183723093
 30
0.0
 11
197.3141446559404
 21
246.00000127053659
 31
0.0
  0
LINE
  5
1934C
  8
1
 10
370.23070324197101
 20
174.99999999999329
 30
0.0
 11
370.23070324197101
 21
298.9988554641655
 31
0.0
  0
LINE
  5
19353
  8
0
 10
361.8445563589554
 20
188.3516081795147
 30
0.0
 11
363.37358831049357
 21
182.9999995604208
 31
0.0
  0
LINE
  5
19354
  8
0
 10
377.08787237875708
 20
182.9999995604208
 30
0.0
 11
378.6169023223361
 21
188.3516081795147
 31
0.0
  0
ARC
  5
19355
  8
0
 10
375.8535817773452
 20
180.5000021835605
 30
0.0
 40
0.5000000000133175
 50
270.00002224987981
 51
305.51255007922288
  0
ARC
  5
19356
  8
0
 10
364.60788319010038
 20
180.4999978164762
 30
0.0
 40
0.5000000000133701
 50
234.48482442367799
 51
270.00002224987981
  0
LINE
  5
19357
  8
0
 10
364.6078833842675
 20
179.99999781646281
 30
0.0
 11
375.85358197151209
 21
180.00000218354731
 31
0.0
  0
LINE
  5
19454
  8
1
 10
354.33278537222787
 20
178.00000000000509
 30
0.0
 11
354.33278537222787
 21
184.9999995604208
 31
0.0
  0
LINE
  5
19455
  8
1
 10
386.12860894661759
 20
178.00000000000509
 30
0.0
 11
386.12860894661759
 21
184.9999995604208
 31
0.0
  0
ARC
  5
1945F
  8
0
 10
373.2736515189647
 20
235.17343579099571
 30
0.0
 40
6.1736833000581024
 50
298.83026025333049
 51
302.936530088876
  0
ARC
  5
19463
  8
0
 10
373.22345628776719
 20
228.6656315073306
 30
0.0
 40
6.3394837315195671
 50
57.49266630664038
 51
61.47627689238476
  0
ARC
  5
19466
  8
0
 10
367.23810106784538
 20
235.33845538528121
 30
0.0
 40
6.3401190548623862
 50
237.4869754259004
 51
241.4778455143171
  0
ARC
  5
19467
  8
0
 10
367.18619131421963
 20
228.83062104349639
 30
0.0
 40
6.1730851113740766
 50
118.8167507736225
 51
122.9308149100878
  0
LINE
  5
19468
  8
0
 10
376.63034274369261
 20
229.0016111139866
 30
0.0
 11
376.63034274369261
 21
235.0023494647244
 31
0.0
  0
LINE
  5
19469
  8
0
 10
363.8303421357254
 20
235.0023494647244
 30
0.0
 11
363.83034213572557
 21
229.0031280360603
 31
0.0
  0
LINE
  5
1946A
  8
0
 10
376.63034274369261
 20
235.0023494647244
 30
0.0
 11
376.25070298075372
 21
235.0023494647244
 31
0.0
  0
LINE
  5
1946B
  8
0
 10
364.21070350318848
 20
235.0023494647244
 30
0.0
 11
363.8303421357254
 21
235.0023494647244
 31
0.0
  0
ARC
  5
19470
  8
0
 10
380.50718324385588
 20
216.03455945756849
 30
0.0
 40
13.30115636213913
 50
183.62938075233879
 51
196.1122786060989
  0
ARC
  5
19482
  8
0
 10
264.6018920072766
 20
399.89675908812069
 30
0.0
 40
3.5499999999999989
 50
336.84889174742938
 51
236.68128280940519
  0
LINE
  5
1957A
  8
0
 10
276.73070356234609
 20
380.9966439865334
 30
0.0
 11
252.73942449114909
 21
380.9966439865334
 31
0.0
  0
LINE
  5
19587
  8
0
 10
200.6372470208596
 20
387.99884584916668
 30
0.0
 11
200.63612943377001
 21
387.99884584916668
 31
0.0
  0
CIRCLE
  5
19588
  8
3
 10
200.63607572397899
 20
383.99884672983183
 30
0.0
 40
3.3218179778753512
  0
LINE
  5
1958A
  8
0
 10
196.9423141130398
 20
377.598846752177
 30
0.0
 11
204.3323997208069
 21
377.598846752177
 31
0.0
  0
LINE
  5
1958B
  8
0
 10
204.3323997208069
 20
390.39884736014437
 30
0.0
 11
196.9423141130398
 21
390.39884736014437
 31
0.0
  0
LINE
  5
1958C
  8
0
 10
208.02744066204531
 20
383.99884705616068
 30
0.0
 11
204.3323997208069
 21
377.598846752177
 31
0.0
  0
LINE
  5
1958D
  8
0
 10
196.9423141130398
 20
377.598846752177
 30
0.0
 11
193.2472731718014
 21
383.99884705616068
 31
0.0
  0
LINE
  5
1958E
  8
0
 10
193.2472731718014
 20
383.99884705616068
 30
0.0
 11
196.9423141130398
 21
390.39884736014437
 31
0.0
  0
LINE
  5
1958F
  8
0
 10
204.3323997208069
 20
390.39884736014437
 30
0.0
 11
208.02744066204531
 21
383.99884705616068
 31
0.0
  0
LINE
  5
19590
  8
1
 10
200.63607572397899
 20
393.39884736014449
 30
0.0
 11
200.63607572397899
 21
374.59884675217711
 31
0.0
  0
CIRCLE
  5
19591
  8
0
 10
200.6361309243407
 20
383.99884672983183
 30
0.0
 40
4.0
  0
LINE
  5
195A3
  8
1
 10
285.23070320471822
 20
383.99884705616068
 30
0.0
 11
174.99998716466661
 21
383.99884705616068
 31
0.0
  0
LINE
  5
195A6
  8
1
 10
259.05189200727682
 20
368.10093551373109
 30
0.0
 11
270.15189200727701
 21
368.10093551373109
 31
0.0
  0
LINE
  5
195A7
  8
1
 10
264.60189200727689
 20
373.6509355137311
 30
0.0
 11
264.60189200727689
 21
362.55093551373108
 31
0.0
  0
LINE
  5
195A9
  8
1
 10
259.05189200727648
 20
399.89675908812069
 30
0.0
 11
270.15189200727662
 21
399.89675908812069
 31
0.0
  0
LINE
  5
195AA
  8
1
 10
264.6018920072766
 20
405.44675908812059
 30
0.0
 11
264.6018920072766
 21
394.34675908812068
 31
0.0
  0
CIRCLE
  5
195B9
  8
0
 10
200.6361621725554
 20
90.000000000002544
 30
0.0
 40
5.6290973814289718
  0
CIRCLE
  5
195BA
  8
0
 10
200.6361621725554
 20
90.000000000002544
 30
0.0
 40
6.1098360974009953
  0
LINE
  5
195C8
  8
1
 10
285.23070320471822
 20
90.000000000002544
 30
0.0
 11
174.99998745122161
 21
90.000000000002544
 31
0.0
  0
LINE
  5
195CB
  8
1
 10
200.6361621725554
 20
101.47513740523701
 30
0.0
 11
200.6361621725554
 21
78.524862594768138
 31
0.0
  0
LINE
  5
195CD
  8
1
 10
259.05189200727682
 20
105.8979120080935
 30
0.0
 11
270.15189200727701
 21
105.8979120080935
 31
0.0
  0
LINE
  5
195CE
  8
1
 10
264.60189200727689
 20
111.4479120080935
 30
0.0
 11
264.60189200727689
 21
100.3479120080935
 31
0.0
  0
LINE
  5
195CF
  8
1
 10
239.9518920072768
 20
105.8979120080936
 30
0.0
 11
251.0518920072769
 21
105.8979120080936
 31
0.0
  0
LINE
  5
195D0
  8
1
 10
245.50189200727689
 20
111.4479120080936
 30
0.0
 11
245.50189200727689
 21
100.3479120080936
 31
0.0
  0
LINE
  5
195D1
  8
1
 10
239.95189200727651
 20
74.102088433704182
 30
0.0
 11
251.05189200727659
 21
74.102088433704182
 31
0.0
  0
LINE
  5
195D2
  8
1
 10
245.5018920072765
 20
79.652088433704193
 30
0.0
 11
245.5018920072765
 21
68.552088433704171
 31
0.0
  0
LINE
  5
195D3
  8
1
 10
259.05189200727648
 20
74.102088433703898
 30
0.0
 11
270.15189200727662
 21
74.102088433703898
 31
0.0
  0
LINE
  5
195D4
  8
1
 10
264.6018920072766
 20
79.652088433703895
 30
0.0
 11
264.6018920072766
 21
68.552088433703886
 31
0.0
  0
LINE
  5
196DC
  8
0
 10
100.0396634452044
 20
227.63404559344559
 30
0.0
 11
100.9203743826491
 21
226.1086125069356
 31
0.0
  0
LINE
  5
196DD
  8
0
 10
378.51864108800589
 20
226.634047292178
 30
0.0
 11
379.39935162110891
 21
225.10860997807379
 31
0.0
  0
LINE
  5
196DE
  8
0
 10
361.02205943301021
 20
225.1086079701833
 30
0.0
 11
361.9027660226792
 21
226.6340286657265
 31
0.0
  0
ARC
  5
196EC
  8
0
 10
367.1864456969451
 20
202.82855543803029
 30
0.0
 40
6.17314855686271
 50
118.6307671457706
 51
122.9307151046379
  0
ARC
  5
196ED
  8
0
 10
373.22364271889109
 20
202.66351149769699
 30
0.0
 40
6.3396022824517519
 50
57.492893757419338
 51
61.661667618738001
  0
LINE
  5
196EE
  8
0
 10
363.8305710533142
 20
209.0003466818186
 30
0.0
 11
363.8305710533142
 21
207.19724959115521
 31
0.0
  0
LINE
  5
196EF
  8
0
 10
376.63057166128158
 20
207.19670841531141
 30
0.0
 11
376.63057166128158
 21
209.0003466818186
 31
0.0
  0
LINE
  5
196F0
  8
0
 10
377.6980049492729
 20
209.0003260597629
 30
0.0
 11
376.23290715994119
 21
209.00032605976301
 31
0.0
  0
LINE
  5
196F1
  8
0
 10
364.22849973721299
 20
209.00032605976369
 30
0.0
 11
362.76340259253408
 21
209.00032605976369
 31
0.0
  0
LINE
  5
196F2
  8
0
 10
364.21070350318843
 20
198.76406028893359
 30
0.0
 11
364.21070350318843
 21
205.55441763252529
 31
0.0
  0
ENDSEC
  0
EOF
