  0
SECTION
  2
HEADER
  9
$ACADVER
  1
AC1009
  9
$INSBASE
 10
0.0
 20
0.0
 30
0.0
  9
$EXTMIN
 10
0.0
 20
-2.960436562073669
 30
0.0
  9
$EXTMAX
 10
350.00000062579971
 20
311.99967859937402
 30
0.0
  9
$LIMMIN
 10
0.0
 20
0.0
  9
$LIMMAX
 10
420.0
 20
297.0
  9
$ORTHOMODE
 70
     1
  9
$REGENMODE
 70
     1
  9
$FILLMODE
 70
     1
  9
$QTEXTMODE
 70
     0
  9
$MIRRTEXT
 70
     0
  9
$DRAGMODE
 70
     2
  9
$LTSCALE
 40
5.0
  9
$OSMODE
 70
    37
  9
$ATTMODE
 70
     1
  9
$TEXTSIZE
 40
2.5
  9
$TRACEWID
 40
1.0
  9
$TEXTSTYLE
  7
STANDARD
  9
$CLAYER
  8
0
  9
$CELTYPE
  6
BYLAYER
  9
$CECOLOR
 62
   256
  9
$DIMSCALE
 40
1.0
  9
$DIMASZ
 40
2.5
  9
$DIMEXO
 40
1.0
  9
$DIMDLI
 40
3.75
  9
$DIMRND
 40
0.0
  9
$DIMDLE
 40
0.0
  9
$DIMEXE
 40
1.0
  9
$DIMTP
 40
0.0
  9
$DIMTM
 40
0.0
  9
$DIMTXT
 40
2.5
  9
$DIMCEN
 40
2.5
  9
$DIMTSZ
 40
0.0
  9
$DIMTOL
 70
     0
  9
$DIMLIM
 70
     0
  9
$DIMTIH
 70
     0
  9
$DIMTOH
 70
     0
  9
$DIMSE1
 70
     0
  9
$DIMSE2
 70
     0
  9
$DIMTAD
 70
     1
  9
$DIMZIN
 70
     8
  9
$DIMBLK
  1

  9
$DIMASO
 70
     1
  9
$DIMSHO
 70
     1
  9
$DIMPOST
  1

  9
$DIMAPOST
  1

  9
$DIMALT
 70
     0
  9
$DIMALTD
 70
     3
  9
$DIMALTF
 40
0.03937007874016
  9
$DIMLFAC
 40
1.0
  9
$DIMTOFL
 70
     1
  9
$DIMTVP
 40
0.0
  9
$DIMTIX
 70
     0
  9
$DIMSOXD
 70
     0
  9
$DIMSAH
 70
     0
  9
$DIMBLK1
  1

  9
$DIMBLK2
  1

  9
$DIMSTYLE
  2
ISO-25
  9
$DIMCLRD
 70
     0
  9
$DIMCLRE
 70
     0
  9
$DIMCLRT
 70
     0
  9
$DIMTFAC
 40
1.0
  9
$DIMGAP
 40
1.0
  9
$LUNITS
 70
     2
  9
$LUPREC
 70
     1
  9
$SKETCHINC
 40
1.0
  9
$FILLETRAD
 40
1.0
  9
$AUNITS
 70
     0
  9
$AUPREC
 70
     1
  9
$MENU
  1
.
  9
$ELEVATION
 40
0.0
  9
$PELEVATION
 40
0.0
  9
$THICKNESS
 40
0.0
  9
$LIMCHECK
 70
     0
  9
$BLIPMODE
 70
     0
  9
$CHAMFERA
 40
0.0
  9
$CHAMFERB
 40
0.0
  9
$SKPOLY
 70
     0
  9
$TDCREATE
 40
2454083.4444627082
  9
$TDUPDATE
 40
2459268.6309827431
  9
$TDINDWG
 40
3.8662666898000002
  9
$TDUSRTIMER
 40
3.8662666898000002
  9
$USRTIMER
 70
     1
  9
$ANGBASE
 50
0.0
  9
$ANGDIR
 70
     0
  9
$PDMODE
 70
     0
  9
$PDSIZE
 40
0.0
  9
$PLINEWID
 40
0.0
  9
$COORDS
 70
     1
  9
$SPLFRAME
 70
     0
  9
$SPLINETYPE
 70
     6
  9
$SPLINESEGS
 70
     8
  9
$ATTDIA
 70
     0
  9
$ATTREQ
 70
     1
  9
$HANDLING
 70
     1
  9
$HANDSEED
  5
1EF7B
  9
$SURFTAB1
 70
     6
  9
$SURFTAB2
 70
     6
  9
$SURFTYPE
 70
     6
  9
$SURFU
 70
     6
  9
$SURFV
 70
     6
  9
$UCSNAME
  2

  9
$UCSORG
 10
0.0
 20
0.0
 30
0.0
  9
$UCSXDIR
 10
1.0
 20
0.0
 30
0.0
  9
$UCSYDIR
 10
0.0
 20
1.0
 30
0.0
  9
$PUCSNAME
  2

  9
$PUCSORG
 10
0.0
 20
0.0
 30
0.0
  9
$PUCSXDIR
 10
1.0
 20
0.0
 30
0.0
  9
$PUCSYDIR
 10
0.0
 20
1.0
 30
0.0
  9
$USERI1
 70
     0
  9
$USERI2
 70
     0
  9
$USERI3
 70
     0
  9
$USERI4
 70
     0
  9
$USERI5
 70
     0
  9
$USERR1
 40
0.0
  9
$USERR2
 40
0.0
  9
$USERR3
 40
0.0
  9
$USERR4
 40
0.0
  9
$USERR5
 40
0.0
  9
$WORLDVIEW
 70
     1
  9
$SHADEDGE
 70
     3
  9
$SHADEDIF
 70
    70
  9
$TILEMODE
 70
     1
  9
$MAXACTVP
 70
    64
  9
$PLIMCHECK
 70
     0
  9
$PEXTMIN
 10
0.0
 20
0.0
 30
0.0
  9
$PEXTMAX
 10
0.0
 20
0.0
 30
0.0
  9
$PLIMMIN
 10
0.0
 20
0.0
  9
$PLIMMAX
 10
12.0
 20
9.0
  9
$UNITMODE
 70
     0
  9
$VISRETAIN
 70
     1
  9
$PLINEGEN
 70
     0
  9
$PSLTSCALE
 70
     1
  0
ENDSEC
  0
SECTION
  2
TABLES
  0
TABLE
  2
VPORT
 70
     1
  0
VPORT
  2
*ACTIVE
 70
     0
 10
0.0
 20
0.0
 11
1.0
 21
1.0
 12
344.18937846413849
 22
154.5172099160437
 13
0.0
 23
0.0
 14
10.0
 24
10.0
 15
10.0
 25
10.0
 16
0.0
 26
0.0
 36
1.0
 17
0.0
 27
0.0
 37
0.0
 40
317.72902759206198
 41
2.415644171779141
 42
50.0
 43
0.0
 44
0.0
 50
0.0
 51
0.0
 71
     0
 72
  1000
 73
     1
 74
     3
 75
     0
 76
     0
 77
     0
 78
     0
  0
ENDTAB
  0
TABLE
  2
LTYPE
 70
     3
  0
LTYPE
  2
CONTINUOUS
 70
     0
  3
Solid line
 72
    65
 73
     0
 40
0.0
  0
LTYPE
  2
CENTER
 70
     0
  3
____ _ ____ _ ____ _ ____ _ ____ _ ____ _ ____
 72
    65
 73
     4
 40
2.0
 49
1.25
 49
-0.25
 49
0.25
 49
-0.25
  0
LTYPE
  2
HIDDEN
 70
     0
  3
Hidden __ __ __ __ __ __ __ __ __ __ __ __ __ __
 72
    65
 73
     2
 40
1.905
 49
1.27
 49
-0.635
  0
ENDTAB
  0
TABLE
  2
LAYER
 70
     5
  0
LAYER
  2
0
 70
     0
 62
     7
  6
CONTINUOUS
  0
LAYER
  2
DEFPOINTS
 70
     0
 62
     7
  6
CONTINUOUS
  0
LAYER
  2
1
 70
     0
 62
     1
  6
CENTER
  0
LAYER
  2
3
 70
     0
 62
     3
  6
CONTINUOUS
  0
LAYER
  2
2
 70
     0
 62
     2
  6
HIDDEN
  0
ENDTAB
  0
TABLE
  2
STYLE
 70
     2
  0
STYLE
  2
STANDARD
 70
     0
 40
0.0
 41
1.0
 50
0.0
 71
     0
 42
2.5
  3
txt
  4

  0
STYLE
  2
STANDARD1
 70
     0
 40
0.0
 41
1.0
 50
0.0
 71
     0
 42
3.0
  3
txt
  4

  0
ENDTAB
  0
TABLE
  2
VIEW
 70
     2
  0
VIEW
  2
OLE1
 70
     0
 40
17.336203194614189
 10
1078.262703908531
 20
377.67444865954309
 41
31.074911629702001
 11
0.0
 21
0.0
 31
1.0
 12
0.0
 22
0.0
 32
0.0
 42
50.0
 43
0.0
 44
0.0
 50
0.0
 71
     0
  0
VIEW
  2
OLE2
 70
     0
 40
50.523198253338478
 10
1031.767738941523
 20
579.92835671582054
 41
90.562155008667546
 11
0.0
 21
0.0
 31
1.0
 12
0.0
 22
0.0
 32
0.0
 42
50.0
 43
0.0
 44
0.0
 50
0.0
 71
     0
  0
ENDTAB
  0
TABLE
  2
UCS
 70
     0
  0
ENDTAB
  0
TABLE
  2
APPID
 70
    44
  0
APPID
  2
ACAD
 70
     0
  0
APPID
  2
_FTCNV
 70
     0
  0
APPID
  2
DCO15
 70
     0
  0
APPID
  2
GENIUS_GENOREF_13
 70
     0
  0
APPID
  2
GENIUS_GENOENT_13
 70
     0
  0
APPID
  2
GENIUS_GENBH_13
 70
     0
  0
APPID
  2
GENIUS_GENOBJ_13
 70
     0
  0
APPID
  2
GENIUS_GENODEF_13
 70
     0
  0
APPID
  2
GENIUS_GENOLIS_13
 70
     0
  0
APPID
  2
GENIUS_GENOBJ-NBEHI-BHF_13
 70
     0
  0
APPID
  2
GENIUS_GENOBJ-NBEHI-BHB_13
 70
     0
  0
APPID
  2
GENIUS_GENOBJ-F-PART_13
 70
     0
  0
APPID
  2
GENIUS_GEFSTDP_13
 70
     0
  0
APPID
  2
GENIUS_GENOBJ-N-RSSYM_13
 70
     0
  0
APPID
  2
GENIUS_GENSYMENT_13
 70
     0
  0
APPID
  2
GENIUS_GENOBJ-N-TIT_13
 70
     0
  0
APPID
  2
GENIUS_GENTITLE_13
 70
     0
  0
APPID
  2
GENIUS_GENZVEED_13
 70
     0
  0
APPID
  2
GENIUS_GENOBJ-N-LEADER_13
 70
     0
  0
APPID
  2
GENIUS_GENOBJ-N-FIL_13
 70
     0
  0
APPID
  2
GENIUS_GENOBJ-N-SEC_13
 70
     0
  0
APPID
  2
GENIUS_GENOBJ-N-CRS_13
 70
     0
  0
APPID
  2
GENIUS_GENOBJ-N-ZOO_13
 70
     0
  0
APPID
  2
GENIUS_GENZOO_13
 70
     0
  0
APPID
  2
GENIUS_GENOBJ-F-TOL_13
 70
     0
  0
APPID
  2
GENIUS_GENFIL_13
 70
     0
  0
APPID
  2
GENIUS_GENOBJ-N-CHA_13
 70
     0
  0
APPID
  2
_CALL_MAC$
 70
     0
  0
APPID
  2
ASM_BASE
 70
     0
  0
APPID
  2
ASM_EXPLO_VER_2_00
 70
     0
  0
APPID
  2
ASM_CADM_VER_12_00
 70
     0
  0
APPID
  2
ASM_BASEFORO
 70
     0
  0
APPID
  2
ASM_BASETRAVI
 70
     0
  0
APPID
  2
ASM_BASETRAVI1
 70
     0
  0
APPID
  2
ASM_GRUPPI
 70
     0
  0
APPID
  2
ASM_CADM_ALBERO
 70
     0
  0
APPID
  2
ASM_GOLE
 70
     0
  0
APPID
  2
ACAD_MLEADERVER
 70
     0
  0
APPID
  2
ACAD_EXEMPT_FROM_CAD_STANDARDS
 70
     0
  0
APPID
  2
ACAD_DSTYLE_DIMJAG
 70
     0
  0
APPID
  2
ACAD_DSTYLE_DIMTALN
 70
     0
  0
APPID
  2
ACAD_NAV_VCDISPLAY
 70
     0
  0
APPID
  2
ACADANNOPO
 70
     0
  0
APPID
  2
ACADANNOMONITORALERTICONDI
 70
     0
  0
ENDTAB
  0
TABLE
  2
DIMSTYLE
 70
     2
  0
DIMSTYLE
  2
ISO-25
 70
     0
  3

  4

  5

  6

  7

 40
1.0
 41
2.5
 42
1.0
 43
3.75
 44
1.0
 45
0.0
 46
0.0
 47
0.0
 48
0.0
140
2.5
141
2.5
142
0.0
143
0.03937007874016
144
1.0
145
0.0
146
1.0
147
1.0
 71
     0
 72
     0
 73
     0
 74
     0
 75
     0
 76
     0
 77
     1
 78
     8
170
     0
171
     3
172
     1
173
     0
174
     0
175
     0
176
     0
177
     0
178
     0
  0
DIMSTYLE
  2
STANDARD
 70
     0
  3

  4

  5

  6

  7

 40
1.0
 41
0.18
 42
0.0625
 43
0.38
 44
0.18
 45
0.0
 46
0.0
 47
0.0
 48
0.0
140
0.18
141
0.09
142
0.0
143
25.399999999999999
144
1.0
145
0.0
146
1.0
147
0.09
 71
     0
 72
     0
 73
     1
 74
     1
 75
     0
 76
     0
 77
     0
 78
     0
170
     0
171
     2
172
     0
173
     0
174
     0
175
     0
176
     0
177
     0
178
     0
  0
ENDTAB
  0
ENDSEC
  0
SECTION
  2
BLOCKS
  0
BLOCK
  8
0
  2
$MODEL_SPACE
 70
     0
 10
0.0
 20
0.0
 30
0.0
  3
$MODEL_SPACE
  1

  0
ENDBLK
  5
21
  8
0
  0
BLOCK
 67
     1
  8
0
  2
$PAPER_SPACE
 70
     0
 10
0.0
 20
0.0
 30
0.0
  3
$PAPER_SPACE
  1

  0
ENDBLK
  5
53
 67
     1
  8
0
  0
ENDSEC
  0
SECTION
  2
ENTITIES
  0
TEXT
  5
F8AB
  8
0
 62
     3
 10
0.0
 20
0.0
 30
0.0
 40
10.0
  1
ST-HTC1825PS
  7
STANDARD1
  0
ARC
  5
1D9E1
  8
0
 10
214.98615517152169
 20
194.1328374706093
 30
0.0
 40
0.1487416375521782
 50
218.54196438246061
 51
287.19055305540729
  0
ARC
  5
1D9E3
  8
0
 10
200.77346881132451
 20
211.4629188653804
 30
0.0
 40
0.1598309332000003
 50
186.50638339457589
 51
278.1529874301047
  0
ARC
  5
1D9E4
  8
0
 10
233.39703954204489
 20
190.8534294541096
 30
0.0
 40
0.159414912922319
 50
30.557732939652499
 51
124.3353165636384
  0
LINE
  5
1D9EB
  8
0
 10
155.50074987109991
 20
163.49999941889999
 30
0.0
 11
180.9999997377999
 21
163.49999941889999
 31
0.0
  0
LINE
  5
1D9EC
  8
0
 10
203.00000049169989
 20
163.49999941889999
 30
0.0
 11
212.8645114599999
 21
163.49999941889999
 31
0.0
  0
LINE
  5
1D9ED
  8
0
 10
212.8580965100999
 20
172.49999903150001
 30
0.0
 11
203.00000049169989
 21
172.49999903150001
 31
0.0
  0
LINE
  5
1D9EE
  8
0
 10
180.9999997377999
 20
172.49999903150001
 30
0.0
 11
155.50074987109991
 21
172.49999903150001
 31
0.0
  0
LINE
  5
1D9EF
  8
0
 10
155.50074987109991
 20
172.49999903150001
 30
0.0
 11
155.00075072049989
 21
171.99999941519999
 31
0.0
  0
LINE
  5
1D9F0
  8
0
 10
155.00075072049989
 20
163.99999903520001
 30
0.0
 11
155.50074987109991
 21
163.49999941889999
 31
0.0
  0
ARC
  5
1D9F1
  8
0
 10
202.19999976150001
 20
176.1999992252
 30
0.0
 40
0.8000000000000113
 50
0.0
 51
90.0
  0
ARC
  5
1D9F2
  8
0
 10
181.7999997615
 20
176.1999992252
 30
0.0
 40
0.8000000000000113
 50
90.0
 51
180.0
  0
LINE
  5
1D9F3
  8
0
 10
202.19999998799989
 20
176.99999883769999
 30
0.0
 11
181.7999997757999
 21
176.99999883769999
 31
0.0
  0
POLYLINE
  5
1D9F4
  8
0
 66
     1
 10
0.0
 20
0.0
 30
0.0
 70
   128
  0
VERTEX
  5
1E4E5
  8
0
 10
210.4265213011999
 20
221.3031738997
 30
0.0
  0
VERTEX
  5
1E4E6
  8
0
 10
210.588016361
 20
221.20075821879999
 30
0.0
  0
VERTEX
  5
1E4E7
  8
0
 10
210.6673557311
 20
221.07216119770001
 30
0.0
  0
VERTEX
  5
1E4E8
  8
0
 10
210.65360382189999
 20
220.9312148393
 30
0.0
  0
VERTEX
  5
1E4E9
  8
0
 10
210.56231372049999
 20
220.8059445024
 30
0.0
  0
VERTEX
  5
1E4EA
  8
0
 10
210.3915166109
 20
220.6880278886
 30
0.0
  0
VERTEX
  5
1E4EB
  8
0
 10
210.16681268810001
 20
220.60762494810001
 30
0.0
  0
VERTEX
  5
1E4EC
  8
0
 10
209.92557965209991
 20
220.5719925464
 30
0.0
  0
VERTEX
  5
1E4ED
  8
0
 10
209.66292805969999
 20
220.58050856
 30
0.0
  0
VERTEX
  5
1E4EE
  8
0
 10
209.4328429549
 20
220.63665986059999
 30
0.0
  0
VERTEX
  5
1E4EF
  8
0
 10
209.3745402991
 20
220.6608444453
 30
0.0
  0
VERTEX
  5
1E4F0
  8
0
 10
209.21226106579999
 20
220.7683078945
 30
0.0
  0
VERTEX
  5
1E4F1
  8
0
 10
209.13646630939999
 20
220.898283273
 30
0.0
  0
VERTEX
  5
1E4F2
  8
0
 10
209.1467425226999
 20
221.0303373635
 30
0.0
  0
VERTEX
  5
1E4F3
  8
0
 10
209.24584269519991
 20
221.16412743929999
 30
0.0
  0
VERTEX
  5
1E4F4
  8
0
 10
209.41129215059991
 20
221.26732543110001
 30
0.0
  0
VERTEX
  5
1E4F5
  8
0
 10
209.62867774060001
 20
221.3421665132
 30
0.0
  0
VERTEX
  5
1E4F6
  8
0
 10
209.8876953125
 20
221.38081267480001
 30
0.0
  0
VERTEX
  5
1E4F7
  8
0
 10
210.13199239959999
 20
221.37495651840001
 30
0.0
  0
VERTEX
  5
1E4F8
  8
0
 10
210.36503724749991
 20
221.32630050190011
 30
0.0
  0
VERTEX
  5
1E4F9
  8
0
 10
210.4265213011999
 20
221.3031738997
 30
0.0
  0
SEQEND
  5
1E4FA
  8
0
  0
POLYLINE
  5
1D9F5
  8
0
 66
     1
 10
0.0
 20
0.0
 30
0.0
 70
   128
  0
VERTEX
  5
1E4FB
  8
0
 10
216.69793948529991
 20
217.8395293653
 30
0.0
  0
VERTEX
  5
1E4FC
  8
0
 10
216.81857928629989
 20
217.6030926407
 30
0.0
  0
VERTEX
  5
1E4FD
  8
0
 10
216.86685159800001
 20
217.38224625589999
 30
0.0
  0
VERTEX
  5
1E4FE
  8
0
 10
216.84353500599991
 20
217.17317923909999
 30
0.0
  0
VERTEX
  5
1E4FF
  8
0
 10
216.75548404450001
 20
217.0213885606
 30
0.0
  0
VERTEX
  5
1E500
  8
0
 10
216.6025198996
 20
216.9171996415001
 30
0.0
  0
VERTEX
  5
1E501
  8
0
 10
216.40288159249999
 20
216.88861176379999
 30
0.0
  0
VERTEX
  5
1E502
  8
0
 10
216.18696749209991
 20
216.9384337962
 30
0.0
  0
VERTEX
  5
1E503
  8
0
 10
215.96718654029999
 20
217.06887111070009
 30
0.0
  0
VERTEX
  5
1E504
  8
0
 10
215.7904550433
 20
217.2537274659
 30
0.0
  0
VERTEX
  5
1E505
  8
0
 10
215.7457441091
 20
217.31791421770009
 30
0.0
  0
VERTEX
  5
1E506
  8
0
 10
215.62946289769991
 20
217.55793094640001
 30
0.0
  0
VERTEX
  5
1E507
  8
0
 10
215.58740064499989
 20
217.7919127047
 30
0.0
  0
VERTEX
  5
1E508
  8
0
 10
215.61191305509999
 20
217.99560040239999
 30
0.0
  0
VERTEX
  5
1E509
  8
0
 10
215.70713520050001
 20
218.16470250489999
 30
0.0
  0
VERTEX
  5
1E50A
  8
0
 10
215.84924012419989
 20
218.25232133270001
 30
0.0
  0
VERTEX
  5
1E50B
  8
0
 10
216.02892950169999
 20
218.27320158489999
 30
0.0
  0
VERTEX
  5
1E50C
  8
0
 10
216.2484459579
 20
218.21808964019999
 30
0.0
  0
VERTEX
  5
1E50D
  8
0
 10
216.4667218923
 20
218.08662042029999
 30
0.0
  0
VERTEX
  5
1E50E
  8
0
 10
216.6614390908999
 20
217.88995116949999
 30
0.0
  0
VERTEX
  5
1E50F
  8
0
 10
216.69793948529991
 20
217.8395293653
 30
0.0
  0
SEQEND
  5
1E510
  8
0
  0
POLYLINE
  5
1D9F6
  8
0
 66
     1
 10
0.0
 20
0.0
 30
0.0
 70
   128
  0
VERTEX
  5
1E511
  8
0
 10
210.48861816519991
 20
219.1837966442001
 30
0.0
  0
VERTEX
  5
1E512
  8
0
 10
210.63861697909991
 20
218.9993053675
 30
0.0
  0
VERTEX
  5
1E513
  8
0
 10
210.70001162579999
 20
218.79870221019999
 30
0.0
  0
VERTEX
  5
1E514
  8
0
 10
210.6762833892999
 20
218.5789473355
 30
0.0
  0
VERTEX
  5
1E515
  8
0
 10
210.57421602299999
 20
218.3890916407
 30
0.0
  0
VERTEX
  5
1E516
  8
0
 10
210.3939455002
 20
218.22211667900001
 30
0.0
  0
VERTEX
  5
1E517
  8
0
 10
210.15546917910001
 20
218.11476871369999
 30
0.0
  0
VERTEX
  5
1E518
  8
0
 10
209.9010448901999
 20
218.08197125800001
 30
0.0
  0
VERTEX
  5
1E519
  8
0
 10
209.63449291879999
 20
218.12348216780001
 30
0.0
  0
VERTEX
  5
1E51A
  8
0
 10
209.40818339579999
 20
218.23519617319999
 30
0.0
  0
VERTEX
  5
1E51B
  8
0
 10
209.3587599693999
 20
218.2730972767001
 30
0.0
  0
VERTEX
  5
1E51C
  8
0
 10
209.27237048739991
 20
218.35803762079999
 30
0.0
  0
VERTEX
  5
1E51D
  8
0
 10
209.16989892719991
 20
218.53638961909999
 30
0.0
  0
VERTEX
  5
1E51E
  8
0
 10
209.14588198059991
 20
218.72928887609999
 30
0.0
  0
VERTEX
  5
1E51F
  8
0
 10
209.19487886129991
 20
218.9241178334
 30
0.0
  0
VERTEX
  5
1E520
  8
0
 10
209.32901352639999
 20
219.11680474880001
 30
0.0
  0
VERTEX
  5
1E521
  8
0
 10
209.52943973239991
 20
219.26115602260009
 30
0.0
  0
VERTEX
  5
1E522
  8
0
 10
209.78129543360001
 20
219.346960634
 30
0.0
  0
VERTEX
  5
1E523
  8
0
 10
210.0472737103
 20
219.35756281019999
 30
0.0
  0
VERTEX
  5
1E524
  8
0
 10
210.29306463890001
 20
219.29790973670001
 30
0.0
  0
VERTEX
  5
1E525
  8
0
 10
210.48861816519991
 20
219.1837966442001
 30
0.0
  0
SEQEND
  5
1E526
  8
0
  0
POLYLINE
  5
1D9F7
  8
0
 66
     1
 10
0.0
 20
0.0
 30
0.0
 70
   128
  0
VERTEX
  5
1E527
  8
0
 10
213.61458748570001
 20
220.94386965039999
 30
0.0
  0
VERTEX
  5
1E528
  8
0
 10
213.77846300600001
 20
220.80289721490001
 30
0.0
  0
VERTEX
  5
1E529
  8
0
 10
213.8605684042
 20
220.66831365229999
 30
0.0
  0
VERTEX
  5
1E52A
  8
0
 10
213.86438682670001
 20
220.53342834119999
 30
0.0
  0
VERTEX
  5
1E52B
  8
0
 10
213.7825272977
 20
220.42550668120001
 30
0.0
  0
VERTEX
  5
1E52C
  8
0
 10
213.61760497089989
 20
220.3524798155
 30
0.0
  0
VERTEX
  5
1E52D
  8
0
 10
213.40460777280001
 20
220.33300399780001
 30
0.0
  0
VERTEX
  5
1E52E
  8
0
 10
213.16699385640001
 20
220.3610479832
 30
0.0
  0
VERTEX
  5
1E52F
  8
0
 10
212.9119269549
 20
220.43972983960001
 30
0.0
  0
VERTEX
  5
1E530
  8
0
 10
212.7032976596999
 20
220.55015489460001
 30
0.0
  0
VERTEX
  5
1E531
  8
0
 10
212.65053823589989
 20
220.5867409706
 30
0.0
  0
VERTEX
  5
1E532
  8
0
 10
212.48824410139991
 20
220.73687016970001
 30
0.0
  0
VERTEX
  5
1E533
  8
0
 10
212.40353658789991
 20
220.8896666766
 30
0.0
  0
VERTEX
  5
1E534
  8
0
 10
212.4024208635
 20
221.02269679310001
 30
0.0
  0
VERTEX
  5
1E535
  8
0
 10
212.48831674449991
 20
221.12985476850011
 30
0.0
  0
VERTEX
  5
1E536
  8
0
 10
212.6428250223
 20
221.18698954589999
 30
0.0
  0
VERTEX
  5
1E537
  8
0
 10
212.85488530989991
 20
221.1987651885
 30
0.0
  0
VERTEX
  5
1E538
  8
0
 10
213.10474425550001
 20
221.16072252399999
 30
0.0
  0
VERTEX
  5
1E539
  8
0
 10
213.3397616446
 20
221.0855983198
 30
0.0
  0
VERTEX
  5
1E53A
  8
0
 10
213.5679617523999
 20
220.97358629109999
 30
0.0
  0
VERTEX
  5
1E53B
  8
0
 10
213.61458748570001
 20
220.94386965039999
 30
0.0
  0
SEQEND
  5
1E53C
  8
0
  0
POLYLINE
  5
1D9F8
  8
0
 66
     1
 10
0.0
 20
0.0
 30
0.0
 70
   128
  0
VERTEX
  5
1E53D
  8
0
 10
218.9677327871
 20
211.09025329350001
 30
0.0
  0
VERTEX
  5
1E53E
  8
0
 10
219.0764144062999
 20
210.84295734770001
 30
0.0
  0
VERTEX
  5
1E53F
  8
0
 10
219.10709217189989
 20
210.5934970081
 30
0.0
  0
VERTEX
  5
1E540
  8
0
 10
219.0565437077999
 20
210.35634875299999
 30
0.0
  0
VERTEX
  5
1E541
  8
0
 10
218.94106343379991
 20
210.1752661169001
 30
0.0
  0
VERTEX
  5
1E542
  8
0
 10
218.75652372830001
 20
210.03917008639999
 30
0.0
  0
VERTEX
  5
1E543
  8
0
 10
218.5369811951999
 20
209.98582020410001
 30
0.0
  0
VERTEX
  5
1E544
  8
0
 10
218.3122679590999
 20
210.0110888481
 30
0.0
  0
VERTEX
  5
1E545
  8
0
 10
218.0834829806999
 20
210.1182952524
 30
0.0
  0
VERTEX
  5
1E546
  8
0
 10
217.90284365409991
 20
210.2923817933
 30
0.0
  0
VERTEX
  5
1E547
  8
0
 10
217.8606286644
 20
210.3530667723
 30
0.0
  0
VERTEX
  5
1E548
  8
0
 10
217.75351911780001
 20
210.60087308289999
 30
0.0
  0
VERTEX
  5
1E549
  8
0
 10
217.73240789769989
 20
210.8576349914
 30
0.0
  0
VERTEX
  5
1E54A
  8
0
 10
217.7882909773999
 20
211.09323725109999
 30
0.0
  0
VERTEX
  5
1E54B
  8
0
 10
217.92199164620001
 20
211.2969249487
 30
0.0
  0
VERTEX
  5
1E54C
  8
0
 10
218.09697225689999
 20
211.41778454190001
 30
0.0
  0
VERTEX
  5
1E54D
  8
0
 10
218.3064006269
 20
211.46935746080001
 30
0.0
  0
VERTEX
  5
1E54E
  8
0
 10
218.53862404819989
 20
211.4381805063
 30
0.0
  0
VERTEX
  5
1E54F
  8
0
 10
218.74424517150001
 20
211.3302737475
 30
0.0
  0
VERTEX
  5
1E550
  8
0
 10
218.9259164035
 20
211.1508488655
 30
0.0
  0
VERTEX
  5
1E551
  8
0
 10
218.9677327871
 20
211.09025329350001
 30
0.0
  0
SEQEND
  5
1E552
  8
0
  0
POLYLINE
  5
1D9F9
  8
0
 66
     1
 10
0.0
 20
0.0
 30
0.0
 70
   128
  0
VERTEX
  5
1E553
  8
0
 10
213.77286389470001
 20
218.8067190349
 30
0.0
  0
VERTEX
  5
1E554
  8
0
 10
213.91497626899991
 20
218.5938298703
 30
0.0
  0
VERTEX
  5
1E555
  8
0
 10
213.97559419269999
 20
218.3666095138
 30
0.0
  0
VERTEX
  5
1E556
  8
0
 10
213.94704729310001
 20
218.13912093639999
 30
0.0
  0
VERTEX
  5
1E557
  8
0
 10
213.84118199339991
 20
217.95807555319999
 30
0.0
  0
VERTEX
  5
1E558
  8
0
 10
213.65750282999991
 20
217.81486421829999
 30
0.0
  0
VERTEX
  5
1E559
  8
0
 10
213.42465355990001
 20
217.7466355265
 30
0.0
  0
VERTEX
  5
1E55A
  8
0
 10
213.17822933190001
 20
217.75574758650001
 30
0.0
  0
VERTEX
  5
1E55B
  8
0
 10
212.92109116910001
 20
217.8438805044
 30
0.0
  0
VERTEX
  5
1E55C
  8
0
 10
212.7095766365
 20
217.99643486740001
 30
0.0
  0
VERTEX
  5
1E55D
  8
0
 10
212.6553699374
 20
218.0529400707
 30
0.0
  0
VERTEX
  5
1E55E
  8
0
 10
212.51424849029991
 20
218.26937198639999
 30
0.0
  0
VERTEX
  5
1E55F
  8
0
 10
212.45654560619991
 20
218.5014128685001
 30
0.0
  0
VERTEX
  5
1E560
  8
0
 10
212.48127408319999
 20
218.71539726859999
 30
0.0
  0
VERTEX
  5
1E561
  8
0
 10
212.5920176505999
 20
218.91100108629999
 30
0.0
  0
VERTEX
  5
1E562
  8
0
 10
212.76736706489999
 20
219.04011592270001
 30
0.0
  0
VERTEX
  5
1E563
  8
0
 10
212.99317553629999
 20
219.1054575146
 30
0.0
  0
VERTEX
  5
1E564
  8
0
 10
213.25372606510001
 20
219.09488886599999
 30
0.0
  0
VERTEX
  5
1E565
  8
0
 10
213.4933516383
 20
219.01287660009999
 30
0.0
  0
VERTEX
  5
1E566
  8
0
 10
213.71578499669999
 20
218.8631348312
 30
0.0
  0
VERTEX
  5
1E567
  8
0
 10
213.77286389470001
 20
218.8067190349
 30
0.0
  0
SEQEND
  5
1E568
  8
0
  0
POLYLINE
  5
1D9FA
  8
0
 66
     1
 10
0.0
 20
0.0
 30
0.0
 70
   128
  0
VERTEX
  5
1E569
  8
0
 10
213.48008215420001
 20
215.7586865127
 30
0.0
  0
VERTEX
  5
1E56A
  8
0
 10
213.58761638399989
 20
215.53576886659999
 30
0.0
  0
VERTEX
  5
1E56B
  8
0
 10
213.62424343820001
 20
215.282009542
 30
0.0
  0
VERTEX
  5
1E56C
  8
0
 10
213.57414945959999
 20
215.01965224750001
 30
0.0
  0
VERTEX
  5
1E56D
  8
0
 10
213.4469680487999
 20
214.80345129969999
 30
0.0
  0
VERTEX
  5
1E56E
  8
0
 10
213.24586570260001
 20
214.63424488909999
 30
0.0
  0
VERTEX
  5
1E56F
  8
0
 10
213.00403103229991
 20
214.54975157979999
 30
0.0
  0
VERTEX
  5
1E570
  8
0
 10
212.75650411839999
 20
214.5509138704
 30
0.0
  0
VERTEX
  5
1E571
  8
0
 10
212.51009479160001
 20
214.63959068060009
 30
0.0
  0
VERTEX
  5
1E572
  8
0
 10
212.3238004744
 20
214.79645520450001
 30
0.0
  0
VERTEX
  5
1E573
  8
0
 10
212.26963847869999
 20
214.86709415920001
 30
0.0
  0
VERTEX
  5
1E574
  8
0
 10
212.16249726710001
 20
215.0897063315
 30
0.0
  0
VERTEX
  5
1E575
  8
0
 10
212.12994195519991
 20
215.35493955019999
 30
0.0
  0
VERTEX
  5
1E576
  8
0
 10
212.18197122209989
 20
215.60593470929999
 30
0.0
  0
VERTEX
  5
1E577
  8
0
 10
212.3195443301999
 20
215.83820655950009
 30
0.0
  0
VERTEX
  5
1E578
  8
0
 10
212.51631230109999
 20
215.9991018474
 30
0.0
  0
VERTEX
  5
1E579
  8
0
 10
212.75789737699989
 20
216.0855062306
 30
0.0
  0
VERTEX
  5
1E57A
  8
0
 10
213.01436871289999
 20
216.07827916740001
 30
0.0
  0
VERTEX
  5
1E57B
  8
0
 10
213.22851330040001
 20
215.99218770869999
 30
0.0
  0
VERTEX
  5
1E57C
  8
0
 10
213.42267170539989
 20
215.83201140169999
 30
0.0
  0
VERTEX
  5
1E57D
  8
0
 10
213.48008215420001
 20
215.7586865127
 30
0.0
  0
SEQEND
  5
1E57E
  8
0
  0
POLYLINE
  5
1D9FB
  8
0
 66
     1
 10
0.0
 20
0.0
 30
0.0
 70
   128
  0
VERTEX
  5
1E57F
  8
0
 10
220.95059677949999
 20
204.1726015509
 30
0.0
  0
VERTEX
  5
1E580
  8
0
 10
221.05378732080001
 20
203.92261222010001
 30
0.0
  0
VERTEX
  5
1E581
  8
0
 10
221.0716575383999
 20
203.67230996489999
 30
0.0
  0
VERTEX
  5
1E582
  8
0
 10
221.00470289579991
 20
203.42681705960001
 30
0.0
  0
VERTEX
  5
1E583
  8
0
 10
220.86871489879991
 20
203.23264375330001
 30
0.0
  0
VERTEX
  5
1E584
  8
0
 10
220.6631794571
 20
203.0875958503
 30
0.0
  0
VERTEX
  5
1E585
  8
0
 10
220.42729407539991
 20
203.02845686680001
 30
0.0
  0
VERTEX
  5
1E586
  8
0
 10
220.1895982026999
 20
203.0503727496
 30
0.0
  0
VERTEX
  5
1E587
  8
0
 10
219.95488256210001
 20
203.15624177460001
 30
0.0
  0
VERTEX
  5
1E588
  8
0
 10
219.7777040302
 20
203.32707986240001
 30
0.0
  0
VERTEX
  5
1E589
  8
0
 10
219.7398103773001
 20
203.3821955324
 30
0.0
  0
VERTEX
  5
1E58A
  8
0
 10
219.6365267038
 20
203.6317341030001
 30
0.0
  0
VERTEX
  5
1E58B
  8
0
 10
219.6246989071
 20
203.88985946779999
 30
0.0
  0
VERTEX
  5
1E58C
  8
0
 10
219.69234272829999
 20
204.12645637989999
 30
0.0
  0
VERTEX
  5
1E58D
  8
0
 10
219.84129846089991
 20
204.3374344707
 30
0.0
  0
VERTEX
  5
1E58E
  8
0
 10
220.03815025089989
 20
204.47141453629999
 30
0.0
  0
VERTEX
  5
1E58F
  8
0
 10
220.27123793960001
 20
204.53260615470009
 30
0.0
  0
VERTEX
  5
1E590
  8
0
 10
220.51875367759999
 20
204.50617894530001
 30
0.0
  0
VERTEX
  5
1E591
  8
0
 10
220.72891220449989
 20
204.40365523099999
 30
0.0
  0
VERTEX
  5
1E592
  8
0
 10
220.91205120079991
 20
204.2284399271
 30
0.0
  0
VERTEX
  5
1E593
  8
0
 10
220.95059677949999
 20
204.1726015509
 30
0.0
  0
SEQEND
  5
1E594
  8
0
  0
POLYLINE
  5
1D9FC
  8
0
 66
     1
 10
0.0
 20
0.0
 30
0.0
 70
   128
  0
VERTEX
  5
1E595
  8
0
 10
221.40637114640001
 20
207.21269175410001
 30
0.0
  0
VERTEX
  5
1E596
  8
0
 10
221.51394262909989
 20
206.96478858590001
 30
0.0
  0
VERTEX
  5
1E597
  8
0
 10
221.54454961409991
 20
206.71998113399999
 30
0.0
  0
VERTEX
  5
1E598
  8
0
 10
221.4968025684
 20
206.48445338010001
 30
0.0
  0
VERTEX
  5
1E599
  8
0
 10
221.38385921709991
 20
206.3039071858
 30
0.0
  0
VERTEX
  5
1E59A
  8
0
 10
221.20235189789989
 20
206.16968870170001
 30
0.0
  0
VERTEX
  5
1E59B
  8
0
 10
220.98556235429999
 20
206.11829087140009
 30
0.0
  0
VERTEX
  5
1E59C
  8
0
 10
220.762655884
 20
206.14575371149999
 30
0.0
  0
VERTEX
  5
1E59D
  8
0
 10
220.53659409279999
 20
206.2550090254
 30
0.0
  0
VERTEX
  5
1E59E
  8
0
 10
220.3588567674
 20
206.42960220579999
 30
0.0
  0
VERTEX
  5
1E59F
  8
0
 10
220.3181281684999
 20
206.48887157440001
 30
0.0
  0
VERTEX
  5
1E5A0
  8
0
 10
220.21170407529991
 20
206.73700571059999
 30
0.0
  0
VERTEX
  5
1E5A1
  8
0
 10
220.19084244960001
 20
206.99164792900001
 30
0.0
  0
VERTEX
  5
1E5A2
  8
0
 10
220.24523168799999
 20
207.22367390989999
 30
0.0
  0
VERTEX
  5
1E5A3
  8
0
 10
220.37585899230001
 20
207.42522701620001
 30
0.0
  0
VERTEX
  5
1E5A4
  8
0
 10
220.54884284729999
 20
207.54553154109999
 30
0.0
  0
VERTEX
  5
1E5A5
  8
0
 10
220.7559019327
 20
207.59537220000001
 30
0.0
  0
VERTEX
  5
1E5A6
  8
0
 10
220.98496630779991
 20
207.5617402792
 30
0.0
  0
VERTEX
  5
1E5A7
  8
0
 10
221.1880132556
 20
207.4516579509
 30
0.0
  0
VERTEX
  5
1E5A8
  8
0
 10
221.36727049940001
 20
207.2703778744
 30
0.0
  0
VERTEX
  5
1E5A9
  8
0
 10
221.40637114640001
 20
207.21269175410001
 30
0.0
  0
SEQEND
  5
1E5AA
  8
0
  0
CIRCLE
  5
1D9FD
  8
0
 10
214.82275430749991
 20
208.30535258629999
 30
0.0
 40
0.7541349043186112
  0
POLYLINE
  5
1D9FE
  8
0
 66
     1
 10
0.0
 20
0.0
 30
0.0
 70
   128
  0
VERTEX
  5
1E5AB
  8
0
 10
218.51057261219989
 20
208.02967026830001
 30
0.0
  0
VERTEX
  5
1E5AC
  8
0
 10
218.6153091489999
 20
207.78038501739999
 30
0.0
  0
VERTEX
  5
1E5AD
  8
0
 10
218.6344347893999
 20
207.52799287440001
 30
0.0
  0
VERTEX
  5
1E5AE
  8
0
 10
218.5679383575
 20
207.28047341109999
 30
0.0
  0
VERTEX
  5
1E5AF
  8
0
 10
218.4314846991999
 20
207.0832975209
 30
0.0
  0
VERTEX
  5
1E5B0
  8
0
 10
218.22479069229999
 20
206.9357573986
 30
0.0
  0
VERTEX
  5
1E5B1
  8
0
 10
217.9893784224999
 20
206.8754896522
 30
0.0
  0
VERTEX
  5
1E5B2
  8
0
 10
217.7521444857
 20
206.8958483637
 30
0.0
  0
VERTEX
  5
1E5B3
  8
0
 10
217.51691848039991
 20
207.00005963449999
 30
0.0
  0
VERTEX
  5
1E5B4
  8
0
 10
217.33903586859989
 20
207.16945230959999
 30
0.0
  0
VERTEX
  5
1E5B5
  8
0
 10
217.3011235891999
 20
207.22382292149999
 30
0.0
  0
VERTEX
  5
1E5B6
  8
0
 10
217.1961262822
 20
207.4726089836
 30
0.0
  0
VERTEX
  5
1E5B7
  8
0
 10
217.18241348859999
 20
207.73179605609999
 30
0.0
  0
VERTEX
  5
1E5B8
  8
0
 10
217.24926754829991
 20
207.97090008859999
 30
0.0
  0
VERTEX
  5
1E5B9
  8
0
 10
217.39782467479989
 20
208.1837929786
 30
0.0
  0
VERTEX
  5
1E5BA
  8
0
 10
217.59590208529991
 20
208.32086503510001
 30
0.0
  0
VERTEX
  5
1E5BB
  8
0
 10
217.83157512539989
 20
208.3847016096
 30
0.0
  0
VERTEX
  5
1E5BC
  8
0
 10
218.07891204949999
 20
208.35958197720001
 30
0.0
  0
VERTEX
  5
1E5BD
  8
0
 10
218.28705519429991
 20
208.25950577859999
 30
0.0
  0
VERTEX
  5
1E5BE
  8
0
 10
218.47070455549999
 20
208.08650702240001
 30
0.0
  0
VERTEX
  5
1E5BF
  8
0
 10
218.51057261219989
 20
208.02967026830001
 30
0.0
  0
SEQEND
  5
1E5C0
  8
0
  0
POLYLINE
  5
1D9FF
  8
0
 66
     1
 10
0.0
 20
0.0
 30
0.0
 70
   128
  0
VERTEX
  5
1E5C1
  8
0
 10
226.25509351490001
 20
202.24670469759999
 30
0.0
  0
VERTEX
  5
1E5C2
  8
0
 10
226.3712257146
 20
202.00383067129999
 30
0.0
  0
VERTEX
  5
1E5C3
  8
0
 10
226.4295376837
 20
201.77818238739999
 30
0.0
  0
VERTEX
  5
1E5C4
  8
0
 10
226.42742544410001
 20
201.56818404800001
 30
0.0
  0
VERTEX
  5
1E5C5
  8
0
 10
226.3636521995
 20
201.41449719670001
 30
0.0
  0
VERTEX
  5
1E5C6
  8
0
 10
226.23584866519991
 20
201.31197348239999
 30
0.0
  0
VERTEX
  5
1E5C7
  8
0
 10
226.0667800903
 20
201.28874257210001
 30
0.0
  0
VERTEX
  5
1E5C8
  8
0
 10
225.88039636609989
 20
201.3380505145
 30
0.0
  0
VERTEX
  5
1E5C9
  8
0
 10
225.68216249339989
 20
201.46385729319999
 30
0.0
  0
VERTEX
  5
1E5CA
  8
0
 10
225.51938220849999
 20
201.64499580859999
 30
0.0
  0
VERTEX
  5
1E5CB
  8
0
 10
225.48011019820001
 20
201.70506238940001
 30
0.0
  0
VERTEX
  5
1E5CC
  8
0
 10
225.36959201089999
 20
201.9508197904
 30
0.0
  0
VERTEX
  5
1E5CD
  8
0
 10
225.33053234210001
 20
202.1923005581001
 30
0.0
  0
VERTEX
  5
1E5CE
  8
0
 10
225.35357326260001
 20
202.40290239460001
 30
0.0
  0
VERTEX
  5
1E5CF
  8
0
 10
225.43791756030001
 20
202.57893353700001
 30
0.0
  0
VERTEX
  5
1E5D0
  8
0
 10
225.56357160210001
 20
202.674304694
 30
0.0
  0
VERTEX
  5
1E5D1
  8
0
 10
225.7192887365
 20
202.69405990839999
 30
0.0
  0
VERTEX
  5
1E5D2
  8
0
 10
225.8956626056999
 20
202.6298768819
 30
0.0
  0
VERTEX
  5
1E5D3
  8
0
 10
226.059038937
 20
202.4997413159
 30
0.0
  0
VERTEX
  5
1E5D4
  8
0
 10
226.2159965932
 20
202.30819806459999
 30
0.0
  0
VERTEX
  5
1E5D5
  8
0
 10
226.25509351490001
 20
202.24670469759999
 30
0.0
  0
SEQEND
  5
1E5D6
  8
0
  0
POLYLINE
  5
1DA00
  8
0
 66
     1
 10
0.0
 20
0.0
 30
0.0
 70
   128
  0
VERTEX
  5
1E5D7
  8
0
 10
219.11947131150001
 20
213.95166367300001
 30
0.0
  0
VERTEX
  5
1E5D8
  8
0
 10
219.23628151409989
 20
213.70882689960001
 30
0.0
  0
VERTEX
  5
1E5D9
  8
0
 10
219.2905440925999
 20
213.47448751330001
 30
0.0
  0
VERTEX
  5
1E5DA
  8
0
 10
219.27579939360001
 20
213.26218321920001
 30
0.0
  0
VERTEX
  5
1E5DB
  8
0
 10
219.20145377509991
 20
213.11114504939999
 30
0.0
  0
VERTEX
  5
1E5DC
  8
0
 10
219.06337589019989
 20
213.00193071370001
 30
0.0
  0
VERTEX
  5
1E5DD
  8
0
 10
218.8791900873
 20
212.96716257930001
 30
0.0
  0
VERTEX
  5
1E5DE
  8
0
 10
218.6816193162999
 20
213.00696730620001
 30
0.0
  0
VERTEX
  5
1E5DF
  8
0
 10
218.47103238099999
 20
213.1240420044
 30
0.0
  0
VERTEX
  5
1E5E0
  8
0
 10
218.29050481309989
 20
213.30798938870001
 30
0.0
  0
VERTEX
  5
1E5E1
  8
0
 10
218.24409142129991
 20
213.37542459369999
 30
0.0
  0
VERTEX
  5
1E5E2
  8
0
 10
218.13184469929999
 20
213.62068653110001
 30
0.0
  0
VERTEX
  5
1E5E3
  8
0
 10
218.09589192269991
 20
213.86458128690001
 30
0.0
  0
VERTEX
  5
1E5E4
  8
0
 10
218.12582090489991
 20
214.0807040036
 30
0.0
  0
VERTEX
  5
1E5E5
  8
0
 10
218.22243630880001
 20
214.26198408010001
 30
0.0
  0
VERTEX
  5
1E5E6
  8
0
 10
218.35586875669989
 20
214.3571875990001
 30
0.0
  0
VERTEX
  5
1E5E7
  8
0
 10
218.51879805319999
 20
214.38518688089999
 30
0.0
  0
VERTEX
  5
1E5E8
  8
0
 10
218.71388405559989
 20
214.3358156085001
 30
0.0
  0
VERTEX
  5
1E5E9
  8
0
 10
218.90401542180001
 20
214.20865654950001
 30
0.0
  0
VERTEX
  5
1E5EA
  8
0
 10
219.0769694745
 20
214.0155971051
 30
0.0
  0
VERTEX
  5
1E5EB
  8
0
 10
219.11947131150001
 20
213.95166367300001
 30
0.0
  0
SEQEND
  5
1E5EC
  8
0
  0
POLYLINE
  5
1DA01
  8
0
 66
     1
 10
0.0
 20
0.0
 30
0.0
 70
   128
  0
VERTEX
  5
1E5ED
  8
0
 10
221.52058482169991
 20
210.0667595864
 30
0.0
  0
VERTEX
  5
1E5EE
  8
0
 10
221.63680642840001
 20
209.82338264590001
 30
0.0
  0
VERTEX
  5
1E5EF
  8
0
 10
221.6929614542999
 20
209.5905035735
 30
0.0
  0
VERTEX
  5
1E5F0
  8
0
 10
221.68346568940001
 20
209.37801674010001
 30
0.0
  0
VERTEX
  5
1E5F1
  8
0
 10
221.6141566634
 20
209.2247918249
 30
0.0
  0
VERTEX
  5
1E5F2
  8
0
 10
221.48125320669999
 20
209.11549925809999
 30
0.0
  0
VERTEX
  5
1E5F3
  8
0
 10
221.3033445179
 20
209.08221006400001
 30
0.0
  0
VERTEX
  5
1E5F4
  8
0
 10
221.1095623672
 20
209.12376940249999
 30
0.0
  0
VERTEX
  5
1E5F5
  8
0
 10
220.9040939807
 20
209.24289673569999
 30
0.0
  0
VERTEX
  5
1E5F6
  8
0
 10
220.7312256097
 20
209.42475795749999
 30
0.0
  0
VERTEX
  5
1E5F7
  8
0
 10
220.6879936158
 20
209.48881432420009
 30
0.0
  0
VERTEX
  5
1E5F8
  8
0
 10
220.5764733254
 20
209.7345717252
 30
0.0
  0
VERTEX
  5
1E5F9
  8
0
 10
220.5399654805
 20
209.97743085030001
 30
0.0
  0
VERTEX
  5
1E5FA
  8
0
 10
220.5673016607
 20
210.19078195099999
 30
0.0
  0
VERTEX
  5
1E5FB
  8
0
 10
220.65834030499991
 20
210.37256494170001
 30
0.0
  0
VERTEX
  5
1E5FC
  8
0
 10
220.78939601769989
 20
210.47287583350001
 30
0.0
  0
VERTEX
  5
1E5FD
  8
0
 10
220.95049247139991
 20
210.50152704120001
 30
0.0
  0
VERTEX
  5
1E5FE
  8
0
 10
221.13716304299999
 20
210.44854596260001
 30
0.0
  0
VERTEX
  5
1E5FF
  8
0
 10
221.3129930197999
 20
210.32291054730001
 30
0.0
  0
VERTEX
  5
1E600
  8
0
 10
221.47780358790001
 20
210.13241410260011
 30
0.0
  0
VERTEX
  5
1E601
  8
0
 10
221.52058482169991
 20
210.0667595864
 30
0.0
  0
SEQEND
  5
1E602
  8
0
  0
POLYLINE
  5
1DA02
  8
0
 66
     1
 10
0.0
 20
0.0
 30
0.0
 70
   128
  0
VERTEX
  5
1E603
  8
0
 10
223.89493212100001
 20
206.16159737109999
 30
0.0
  0
VERTEX
  5
1E604
  8
0
 10
224.0115262567999
 20
205.9186376632
 30
0.0
  0
VERTEX
  5
1E605
  8
0
 10
224.07012134789991
 20
205.68691715599999
 30
0.0
  0
VERTEX
  5
1E606
  8
0
 10
224.0646861493
 20
205.47605454929999
 30
0.0
  0
VERTEX
  5
1E607
  8
0
 10
223.99915829299991
 20
205.32420054080001
 30
0.0
  0
VERTEX
  5
1E608
  8
0
 10
223.8703601062
 20
205.2183277905001
 30
0.0
  0
VERTEX
  5
1E609
  8
0
 10
223.6969143151999
 20
205.1889836789
 30
0.0
  0
VERTEX
  5
1E60A
  8
0
 10
223.5059857368
 20
205.2340745926
 30
0.0
  0
VERTEX
  5
1E60B
  8
0
 10
223.30411225549989
 20
205.3566403687
 30
0.0
  0
VERTEX
  5
1E60C
  8
0
 10
223.1373123823999
 20
205.5375106633
 30
0.0
  0
VERTEX
  5
1E60D
  8
0
 10
223.09608459469999
 20
205.5996373296
 30
0.0
  0
VERTEX
  5
1E60E
  8
0
 10
222.9850113391
 20
205.8454170823
 30
0.0
  0
VERTEX
  5
1E60F
  8
0
 10
222.94681593769999
 20
206.0880154372
 30
0.0
  0
VERTEX
  5
1E610
  8
0
 10
222.97153323879999
 20
206.30032345660001
 30
0.0
  0
VERTEX
  5
1E611
  8
0
 10
223.0585187673
 20
206.4797371626
 30
0.0
  0
VERTEX
  5
1E612
  8
0
 10
223.18650111549999
 20
206.57866597180001
 30
0.0
  0
VERTEX
  5
1E613
  8
0
 10
223.34506809710001
 20
206.6033646465001
 30
0.0
  0
VERTEX
  5
1E614
  8
0
 10
223.5254652797999
 20
206.5445497632
 30
0.0
  0
VERTEX
  5
1E615
  8
0
 10
223.69296550749991
 20
206.4172267914
 30
0.0
  0
VERTEX
  5
1E616
  8
0
 10
223.85278418659991
 20
206.22702464459999
 30
0.0
  0
VERTEX
  5
1E617
  8
0
 10
223.89493212100001
 20
206.16159737109999
 30
0.0
  0
SEQEND
  5
1E618
  8
0
  0
CIRCLE
  5
1DA03
  8
0
 10
217.26743118179991
 20
204.48635189219999
 30
0.0
 40
0.7541802022763419
  0
POLYLINE
  5
1DA04
  8
0
 66
     1
 10
0.0
 20
0.0
 30
0.0
 70
   128
  0
VERTEX
  5
1E619
  8
0
 10
223.8116942346
 20
203.32992225890001
 30
0.0
  0
VERTEX
  5
1E61A
  8
0
 10
223.91874790189991
 20
203.08195948599999
 30
0.0
  0
VERTEX
  5
1E61B
  8
0
 10
223.9497758448
 20
202.83879861240001
 30
0.0
  0
VERTEX
  5
1E61C
  8
0
 10
223.90356734389999
 20
202.60481685400001
 30
0.0
  0
VERTEX
  5
1E61D
  8
0
 10
223.7918458879
 20
202.42534354329999
 30
0.0
  0
VERTEX
  5
1E61E
  8
0
 10
223.61171320080001
 20
202.29336768389999
 30
0.0
  0
VERTEX
  5
1E61F
  8
0
 10
223.39600399130001
 20
202.2444657982
 30
0.0
  0
VERTEX
  5
1E620
  8
0
 10
223.17375317209991
 20
202.2746890784
 30
0.0
  0
VERTEX
  5
1E621
  8
0
 10
222.95022085299999
 20
202.3867830634
 30
0.0
  0
VERTEX
  5
1E622
  8
0
 10
222.77733013029999
 20
202.5612048805001
 30
0.0
  0
VERTEX
  5
1E623
  8
0
 10
222.73834124199999
 20
202.6190437377
 30
0.0
  0
VERTEX
  5
1E624
  8
0
 10
222.63330668209991
 20
202.8677031398
 30
0.0
  0
VERTEX
  5
1E625
  8
0
 10
222.61296287170001
 20
203.1219355762
 30
0.0
  0
VERTEX
  5
1E626
  8
0
 10
222.6669944821999
 20
203.35210636260001
 30
0.0
  0
VERTEX
  5
1E627
  8
0
 10
222.7958373724999
 20
203.55156585579999
 30
0.0
  0
VERTEX
  5
1E628
  8
0
 10
222.9686126112
 20
203.67149785160001
 30
0.0
  0
VERTEX
  5
1E629
  8
0
 10
223.1754593551
 20
203.7189915777
 30
0.0
  0
VERTEX
  5
1E62A
  8
0
 10
223.4011411665999
 20
203.680818528
 30
0.0
  0
VERTEX
  5
1E62B
  8
0
 10
223.59837666149991
 20
203.5685122013
 30
0.0
  0
VERTEX
  5
1E62C
  8
0
 10
223.7735509872
 20
203.38694527749999
 30
0.0
  0
VERTEX
  5
1E62D
  8
0
 10
223.8116942346
 20
203.32992225890001
 30
0.0
  0
SEQEND
  5
1E62E
  8
0
  0
POLYLINE
  5
1DA05
  8
0
 66
     1
 10
0.0
 20
0.0
 30
0.0
 70
   128
  0
VERTEX
  5
1E62F
  8
0
 10
223.3536250889
 20
200.3041185439001
 30
0.0
  0
VERTEX
  5
1E630
  8
0
 10
223.454234004
 20
200.05296319729999
 30
0.0
  0
VERTEX
  5
1E631
  8
0
 10
223.4695374964999
 20
199.806162715
 30
0.0
  0
VERTEX
  5
1E632
  8
0
 10
223.40123429889991
 20
199.5611503721
 30
0.0
  0
VERTEX
  5
1E633
  8
0
 10
223.2637189328
 20
199.36752468349999
 30
0.0
  0
VERTEX
  5
1E634
  8
0
 10
223.05643260469989
 20
199.22338016329999
 30
0.0
  0
VERTEX
  5
1E635
  8
0
 10
222.8181034326
 20
199.16521720590001
 30
0.0
  0
VERTEX
  5
1E636
  8
0
 10
222.57804945109999
 20
199.18923601509999
 30
0.0
  0
VERTEX
  5
1E637
  8
0
 10
222.34419807789999
 20
199.29792881020001
 30
0.0
  0
VERTEX
  5
1E638
  8
0
 10
222.17103168359989
 20
199.46929216390001
 30
0.0
  0
VERTEX
  5
1E639
  8
0
 10
222.13441953060001
 20
199.52388256789999
 30
0.0
  0
VERTEX
  5
1E63A
  8
0
 10
222.03387767070001
 20
199.77455362680001
 30
0.0
  0
VERTEX
  5
1E63B
  8
0
 10
222.02481031409991
 20
200.03253370530001
 30
0.0
  0
VERTEX
  5
1E63C
  8
0
 10
222.09467068309999
 20
200.2679198981001
 30
0.0
  0
VERTEX
  5
1E63D
  8
0
 10
222.2453102469
 20
200.47740414739999
 30
0.0
  0
VERTEX
  5
1E63E
  8
0
 10
222.44364470240001
 20
200.60993134980001
 30
0.0
  0
VERTEX
  5
1E63F
  8
0
 10
222.67752587789991
 20
200.66891759640001
 30
0.0
  0
VERTEX
  5
1E640
  8
0
 10
222.92551472779999
 20
200.63994601370001
 30
0.0
  0
VERTEX
  5
1E641
  8
0
 10
223.13656732439989
 20
200.53444206719999
 30
0.0
  0
VERTEX
  5
1E642
  8
0
 10
223.3183950184999
 20
200.35638809209999
 30
0.0
  0
VERTEX
  5
1E643
  8
0
 10
223.3536250889
 20
200.3041185439001
 30
0.0
  0
SEQEND
  5
1E644
  8
0
  0
POLYLINE
  5
1DA06
  8
0
 66
     1
 10
0.0
 20
0.0
 30
0.0
 70
   128
  0
VERTEX
  5
1E645
  8
0
 10
226.19262039660001
 20
199.43675547839999
 30
0.0
  0
VERTEX
  5
1E646
  8
0
 10
226.29824355240001
 20
199.1883214563
 30
0.0
  0
VERTEX
  5
1E647
  8
0
 10
226.32807195180001
 20
198.94828237600001
 30
0.0
  0
VERTEX
  5
1E648
  8
0
 10
226.28206461659991
 20
198.71506430209999
 30
0.0
  0
VERTEX
  5
1E649
  8
0
 10
226.16948634379989
 20
198.53509180250001
 30
0.0
  0
VERTEX
  5
1E64A
  8
0
 10
225.98866447799989
 20
198.4049189836
 30
0.0
  0
VERTEX
  5
1E64B
  8
0
 10
225.77300369729991
 20
198.35847020150001
 30
0.0
  0
VERTEX
  5
1E64C
  8
0
 10
225.54979920379989
 20
198.39128628380001
 30
0.0
  0
VERTEX
  5
1E64D
  8
0
 10
225.3273956477
 20
198.50633628669999
 30
0.0
  0
VERTEX
  5
1E64E
  8
0
 10
225.1581594347
 20
198.68102446200001
 30
0.0
  0
VERTEX
  5
1E64F
  8
0
 10
225.12114495029991
 20
198.73687028890001
 30
0.0
  0
VERTEX
  5
1E650
  8
0
 10
225.01762285820001
 20
198.986133188
 30
0.0
  0
VERTEX
  5
1E651
  8
0
 10
224.99916031949999
 20
199.2382273078
 30
0.0
  0
VERTEX
  5
1E652
  8
0
 10
225.0533893704
 20
199.46399107580001
 30
0.0
  0
VERTEX
  5
1E653
  8
0
 10
225.18165484069999
 20
199.6629402042
 30
0.0
  0
VERTEX
  5
1E654
  8
0
 10
225.3570377826
 20
199.78501796730001
 30
0.0
  0
VERTEX
  5
1E655
  8
0
 10
225.56597813959999
 20
199.83116686349999
 30
0.0
  0
VERTEX
  5
1E656
  8
0
 10
225.78953653569999
 20
199.7893802822
 30
0.0
  0
VERTEX
  5
1E657
  8
0
 10
225.9828269480999
 20
199.67546090490001
 30
0.0
  0
VERTEX
  5
1E658
  8
0
 10
226.15544944999991
 20
199.4931191206
 30
0.0
  0
VERTEX
  5
1E659
  8
0
 10
226.19262039660001
 20
199.43675547839999
 30
0.0
  0
SEQEND
  5
1E65A
  8
0
  0
POLYLINE
  5
1DA07
  8
0
 66
     1
 10
0.0
 20
0.0
 30
0.0
 70
   128
  0
VERTEX
  5
1E65B
  8
0
 10
212.95547559849999
 20
212.52271682029999
 30
0.0
  0
VERTEX
  5
1E65C
  8
0
 10
213.0639858543
 20
212.2748658061
 30
0.0
  0
VERTEX
  5
1E65D
  8
0
 10
213.0836069582999
 20
212.0256960392
 30
0.0
  0
VERTEX
  5
1E65E
  8
0
 10
213.0174048243999
 20
211.768706888
 30
0.0
  0
VERTEX
  5
1E65F
  8
0
 10
212.8745213151
 20
211.5542717278
 30
0.0
  0
VERTEX
  5
1E660
  8
0
 10
212.65939138829989
 20
211.3921023906
 30
0.0
  0
VERTEX
  5
1E661
  8
0
 10
212.41325587029999
 20
211.31890043620001
 30
0.0
  0
VERTEX
  5
1E662
  8
0
 10
212.1624283491999
 20
211.3306462765
 30
0.0
  0
VERTEX
  5
1E663
  8
0
 10
211.92547753449989
 20
211.43078953029999
 30
0.0
  0
VERTEX
  5
1E664
  8
0
 10
211.75920106469991
 20
211.5873858333
 30
0.0
  0
VERTEX
  5
1E665
  8
0
 10
211.72673143439999
 20
211.6324879229
 30
0.0
  0
VERTEX
  5
1E666
  8
0
 10
211.617520824
 20
211.8792288006
 30
0.0
  0
VERTEX
  5
1E667
  8
0
 10
211.60042546679989
 20
212.14027106770001
 30
0.0
  0
VERTEX
  5
1E668
  8
0
 10
211.6662979125999
 20
212.38403171300001
 30
0.0
  0
VERTEX
  5
1E669
  8
0
 10
211.8165221065
 20
212.608204782
 30
0.0
  0
VERTEX
  5
1E66A
  8
0
 10
212.0291896164
 20
212.76724487550001
 30
0.0
  0
VERTEX
  5
1E66B
  8
0
 10
212.28636503219991
 20
212.84608691930001
 30
0.0
  0
VERTEX
  5
1E66C
  8
0
 10
212.53495924169999
 20
212.82550469040001
 30
0.0
  0
VERTEX
  5
1E66D
  8
0
 10
212.73815706369999
 20
212.73349374540001
 30
0.0
  0
VERTEX
  5
1E66E
  8
0
 10
212.92333379379991
 20
212.56650015720001
 30
0.0
  0
VERTEX
  5
1E66F
  8
0
 10
212.95547559849999
 20
212.52271682029999
 30
0.0
  0
SEQEND
  5
1E670
  8
0
  0
POLYLINE
  5
1DA08
  8
0
 66
     1
 10
0.0
 20
0.0
 30
0.0
 70
   128
  0
VERTEX
  5
1E671
  8
0
 10
216.0298682749
 20
211.88950315119999
 30
0.0
  0
VERTEX
  5
1E672
  8
0
 10
216.1379501223
 20
211.64183467629999
 30
0.0
  0
VERTEX
  5
1E673
  8
0
 10
216.16096496579999
 20
211.3844357431
 30
0.0
  0
VERTEX
  5
1E674
  8
0
 10
216.0963274538
 20
211.1321255565
 30
0.0
  0
VERTEX
  5
1E675
  8
0
 10
215.9601271151999
 20
210.93014776710001
 30
0.0
  0
VERTEX
  5
1E676
  8
0
 10
215.75278118249989
 20
210.7783049345
 30
0.0
  0
VERTEX
  5
1E677
  8
0
 10
215.5171304941
 20
210.71506440639999
 30
0.0
  0
VERTEX
  5
1E678
  8
0
 10
215.27998968950001
 20
210.7325732708
 30
0.0
  0
VERTEX
  5
1E679
  8
0
 10
215.0435157119999
 20
210.83403155209999
 30
0.0
  0
VERTEX
  5
1E67A
  8
0
 10
214.86434414979999
 20
211.0011816025
 30
0.0
  0
VERTEX
  5
1E67B
  8
0
 10
214.8249827324999
 20
211.05649843820001
 30
0.0
  0
VERTEX
  5
1E67C
  8
0
 10
214.71732556820001
 20
211.3039806486
 30
0.0
  0
VERTEX
  5
1E67D
  8
0
 10
214.6992914377999
 20
211.5679509938
 30
0.0
  0
VERTEX
  5
1E67E
  8
0
 10
214.76454362269999
 20
211.81414425380001
 30
0.0
  0
VERTEX
  5
1E67F
  8
0
 10
214.91289958350001
 20
212.03121319420001
 30
0.0
  0
VERTEX
  5
1E680
  8
0
 10
215.11072739950001
 20
212.17114999890001
 30
0.0
  0
VERTEX
  5
1E681
  8
0
 10
215.3483152389
 20
212.23846226929999
 30
0.0
  0
VERTEX
  5
1E682
  8
0
 10
215.59623330829999
 20
212.2155144811
 30
0.0
  0
VERTEX
  5
1E683
  8
0
 10
215.80268144599989
 20
212.11836636070001
 30
0.0
  0
VERTEX
  5
1E684
  8
0
 10
215.98776131860001
 20
211.94794178010011
 30
0.0
  0
VERTEX
  5
1E685
  8
0
 10
216.0298682749
 20
211.88950315119999
 30
0.0
  0
SEQEND
  5
1E686
  8
0
  0
POLYLINE
  5
1DA09
  8
0
 66
     1
 10
0.0
 20
0.0
 30
0.0
 70
   128
  0
VERTEX
  5
1E687
  8
0
 10
216.48335903879999
 20
214.98902663589999
 30
0.0
  0
VERTEX
  5
1E688
  8
0
 10
216.59230142829989
 20
214.7422969342
 30
0.0
  0
VERTEX
  5
1E689
  8
0
 10
216.62380993359989
 20
214.4850768149
 30
0.0
  0
VERTEX
  5
1E68A
  8
0
 10
216.57070964569991
 20
214.2433650792
 30
0.0
  0
VERTEX
  5
1E68B
  8
0
 10
216.45014062519999
 20
214.05673921109999
 30
0.0
  0
VERTEX
  5
1E68C
  8
0
 10
216.25924184909991
 20
213.91833350069999
 30
0.0
  0
VERTEX
  5
1E68D
  8
0
 10
216.0374976693999
 20
213.8661421836
 30
0.0
  0
VERTEX
  5
1E68E
  8
0
 10
215.81077650180001
 20
213.89208137989999
 30
0.0
  0
VERTEX
  5
1E68F
  8
0
 10
215.57949185370001
 20
214.0006326139
 30
0.0
  0
VERTEX
  5
1E690
  8
0
 10
215.39782062169999
 20
214.1763024032
 30
0.0
  0
VERTEX
  5
1E691
  8
0
 10
215.35369828339989
 20
214.2402395606
 30
0.0
  0
VERTEX
  5
1E692
  8
0
 10
215.24760946629999
 20
214.48829919100001
 30
0.0
  0
VERTEX
  5
1E693
  8
0
 10
215.2265056967
 20
214.75024670369999
 30
0.0
  0
VERTEX
  5
1E694
  8
0
 10
215.28462395069991
 20
214.99183177949999
 30
0.0
  0
VERTEX
  5
1E695
  8
0
 10
215.42202383279999
 20
215.1996843517
 30
0.0
  0
VERTEX
  5
1E696
  8
0
 10
215.60249552129989
 20
215.32467901710001
 30
0.0
  0
VERTEX
  5
1E697
  8
0
 10
215.8201456068999
 20
215.37798047070001
 30
0.0
  0
VERTEX
  5
1E698
  8
0
 10
216.05293527239999
 20
215.3443075717
 30
0.0
  0
VERTEX
  5
1E699
  8
0
 10
216.25306904309991
 20
215.23740291600001
 30
0.0
  0
VERTEX
  5
1E69A
  8
0
 10
216.43489673729991
 20
215.058786422
 30
0.0
  0
VERTEX
  5
1E69B
  8
0
 10
216.48335903879999
 20
214.98902663589999
 30
0.0
  0
SEQEND
  5
1E69C
  8
0
  0
POLYLINE
  5
1DA0A
  8
0
 66
     1
 10
0.0
 20
0.0
 30
0.0
 70
   128
  0
VERTEX
  5
1E69D
  8
0
 10
210.28222963210001
 20
216.2066228688
 30
0.0
  0
VERTEX
  5
1E69E
  8
0
 10
210.41140593579991
 20
215.97014516600009
 30
0.0
  0
VERTEX
  5
1E69F
  8
0
 10
210.44829376039999
 20
215.73740765459999
 30
0.0
  0
VERTEX
  5
1E6A0
  8
0
 10
210.4032792150999
 20
215.4837489128
 30
0.0
  0
VERTEX
  5
1E6A1
  8
0
 10
210.28185896569991
 20
215.2686730028
 30
0.0
  0
VERTEX
  5
1E6A2
  8
0
 10
210.08586399250001
 20
215.08976966149999
 30
0.0
  0
VERTEX
  5
1E6A3
  8
0
 10
209.83077287669991
 20
214.98026847840001
 30
0.0
  0
VERTEX
  5
1E6A4
  8
0
 10
209.55707393579999
 20
214.96231630450001
 30
0.0
  0
VERTEX
  5
1E6A5
  8
0
 10
209.29968245319989
 20
215.0417022407
 30
0.0
  0
VERTEX
  5
1E6A6
  8
0
 10
209.115319699
 20
215.18433615570001
 30
0.0
  0
VERTEX
  5
1E6A7
  8
0
 10
209.07970964899991
 20
215.22488594059999
 30
0.0
  0
VERTEX
  5
1E6A8
  8
0
 10
208.94807837900001
 20
215.45973941689999
 30
0.0
  0
VERTEX
  5
1E6A9
  8
0
 10
208.91166180370001
 20
215.70708006620001
 30
0.0
  0
VERTEX
  5
1E6AA
  8
0
 10
208.95490497349999
 20
215.93854725360001
 30
0.0
  0
VERTEX
  5
1E6AB
  8
0
 10
209.08223912119999
 20
216.1691576243
 30
0.0
  0
VERTEX
  5
1E6AC
  8
0
 10
209.2809461057
 20
216.34585186839999
 30
0.0
  0
VERTEX
  5
1E6AD
  8
0
 10
209.53037291759989
 20
216.4497576654
 30
0.0
  0
VERTEX
  5
1E6AE
  8
0
 10
209.7996015100999
 20
216.4626657963
 30
0.0
  0
VERTEX
  5
1E6AF
  8
0
 10
210.04151813679991
 20
216.39080122120001
 30
0.0
  0
VERTEX
  5
1E6B0
  8
0
 10
210.25483384719999
 20
216.23732298620001
 30
0.0
  0
VERTEX
  5
1E6B1
  8
0
 10
210.28222963210001
 20
216.2066228688
 30
0.0
  0
SEQEND
  5
1E6B2
  8
0
  0
LINE
  5
1DA0B
  8
0
 10
213.79319280379991
 20
195.41648365559999
 30
0.0
 11
214.8698166012
 21
194.04015839100001
 31
0.0
  0
LINE
  5
1DA0D
  8
0
 10
207.93920643620001
 20
200.9083978832
 30
0.0
 11
209.89896059029999
 21
199.43609610199999
 31
0.0
  0
ARC
  5
1DA11
  8
0
 10
210.40281448249999
 20
212.03214568510001
 30
0.0
 40
9.8057529461323814
 50
120.8388179687017
 51
183.4339164925006
  0
LINE
  5
1DA13
  8
0
 10
234.26190093159991
 20
189.66201469309999
 30
0.0
 11
233.5343144833999
 21
190.9344770015
 31
0.0
  0
ARC
  5
1DA15
  8
0
 10
231.6363032136
 20
181.28405276629999
 30
0.0
 40
7.7698998890595536
 50
78.886611292399081
 51
168.71573899580039
  0
LINE
  5
1DA16
  8
0
 10
218.2350240646999
 20
189.1827616841
 30
0.0
 11
222.88430929179989
 21
182.04844612630001
 31
0.0
  0
POLYLINE
  5
1DA22
  8
0
 66
     1
 10
0.0
 20
0.0
 30
0.0
 70
   128
  0
VERTEX
  5
1E6B3
  8
0
 10
224.01660382739999
 20
182.80444163830001
 30
0.0
  0
VERTEX
  5
1E6B4
  8
0
 10
224.0179784595999
 20
182.73285645999999
 30
0.0
  0
VERTEX
  5
1E6B5
  8
0
 10
224.0290127694
 20
182.70955290649999
 30
0.0
  0
VERTEX
  5
1E6B6
  8
0
 10
224.04927462329999
 20
182.69264195119999
 30
0.0
  0
VERTEX
  5
1E6B7
  8
0
 10
224.07026290889999
 20
182.68739953639999
 30
0.0
  0
VERTEX
  5
1E6B8
  8
0
 10
224.0943729876999
 20
182.68937487159999
 30
0.0
  0
VERTEX
  5
1E6B9
  8
0
 10
224.12792667740001
 20
182.7014094219
 30
0.0
  0
VERTEX
  5
1E6BA
  8
0
 10
224.1558663546999
 20
182.71766100080001
 30
0.0
  0
SEQEND
  5
1E6BB
  8
0
  0
POLYLINE
  5
1DA23
  8
0
 66
     1
 10
0.0
 20
0.0
 30
0.0
 70
   128
  0
VERTEX
  5
1E6BC
  8
0
 10
233.1339612603
 20
188.90824876729999
 30
0.0
  0
VERTEX
  5
1E6BD
  8
0
 10
233.187571913
 20
188.88460434979999
 30
0.0
  0
VERTEX
  5
1E6BE
  8
0
 10
233.20698812599991
 20
188.8652104885
 30
0.0
  0
VERTEX
  5
1E6BF
  8
0
 10
233.2163870334
 20
188.83898258209999
 30
0.0
  0
VERTEX
  5
1E6C0
  8
0
 10
233.21377933019991
 20
188.81762363019999
 30
0.0
  0
VERTEX
  5
1E6C1
  8
0
 10
233.20319205519991
 20
188.79595547919999
 30
0.0
  0
VERTEX
  5
1E6C2
  8
0
 10
233.18015113469991
 20
188.7697592378
 30
0.0
  0
VERTEX
  5
1E6C3
  8
0
 10
233.15283358089991
 20
188.74858655040001
 30
0.0
  0
SEQEND
  5
1E6C4
  8
0
  0
POLYLINE
  5
1DA25
  8
0
 66
     1
 10
0.0
 20
0.0
 30
0.0
 70
   128
  0
VERTEX
  5
1E6C5
  8
0
 10
215.03011584273949
 20
193.99074055252939
 30
0.0
  0
VERTEX
  5
1E6C6
  8
0
 10
215.25286957619991
 20
194.07656751580001
 30
0.0
  0
VERTEX
  5
1E6C7
  8
0
 10
215.7251283526
 20
194.30498555310001
 30
0.0
  0
VERTEX
  5
1E6C8
  8
0
 10
216.46006852379989
 20
194.6582417935
 30
0.0
  0
VERTEX
  5
1E6C9
  8
0
 10
217.40119606249991
 20
195.08623108270001
 30
0.0
  0
VERTEX
  5
1E6CA
  8
0
 10
218.5004658997
 20
195.52945122130001
 30
0.0
  0
VERTEX
  5
1E6CB
  8
0
 10
219.71842721099989
 20
195.90730182830001
 30
0.0
  0
VERTEX
  5
1E6CC
  8
0
 10
220.3593298792
 20
196.03391885760001
 30
0.0
  0
VERTEX
  5
1E6CD
  8
0
 10
221.00880071520001
 20
196.07771337040001
 30
0.0
  0
VERTEX
  5
1E6CE
  8
0
 10
221.62792906160001
 20
195.9694806487
 30
0.0
  0
VERTEX
  5
1E6CF
  8
0
 10
221.89105004069989
 20
195.8296164871
 30
0.0
  0
VERTEX
  5
1E6D0
  8
0
 10
222.09228649729991
 20
195.6193927676
 30
0.0
  0
VERTEX
  5
1E6D1
  8
0
 10
222.21091091630001
 20
195.35538516939999
 30
0.0
  0
VERTEX
  5
1E6D2
  8
0
 10
222.24891260259989
 20
195.05531862379999
 30
0.0
  0
VERTEX
  5
1E6D3
  8
0
 10
222.1528522669999
 20
194.4304645062
 30
0.0
  0
VERTEX
  5
1E6D4
  8
0
 10
221.61766588680001
 20
193.2505384088
 30
0.0
  0
VERTEX
  5
1E6D5
  8
0
 10
220.90336382379999
 20
192.196797207
 30
0.0
  0
VERTEX
  5
1E6D6
  8
0
 10
220.1503112911999
 20
191.27433896069999
 30
0.0
  0
VERTEX
  5
1E6D7
  8
0
 10
219.43725347509999
 20
190.5000299216
 30
0.0
  0
VERTEX
  5
1E6D8
  8
0
 10
218.8362188637
 20
189.89998064939999
 30
0.0
  0
VERTEX
  5
1E6D9
  8
0
 10
218.4275358914999
 20
189.51579518619999
 30
0.0
  0
VERTEX
  5
1E6DA
  8
0
 10
218.2788111269
 20
189.39313627780001
 30
0.0
  0
SEQEND
  5
1E6DB
  8
0
  0
ARC
  5
1DA26
  8
0
 10
218.3624544755001
 20
189.26610266360001
 30
0.0
 40
0.1520828395919488
 50
123.36265377989891
 51
213.1861122707997
  0
POLYLINE
  5
1DA2A
  8
0
 66
     1
 10
0.0
 20
0.0
 30
0.0
 70
   128
  0
VERTEX
  5
1E6DC
  8
0
 10
210.05387221766671
 20
199.41202802669571
 30
0.0
  0
VERTEX
  5
1E6DD
  8
0
 10
210.2450437842999
 20
199.48931187389999
 30
0.0
  0
VERTEX
  5
1E6DE
  8
0
 10
210.58941148219989
 20
199.63789507749999
 30
0.0
  0
VERTEX
  5
1E6DF
  8
0
 10
211.12926006309999
 20
199.872558564
 30
0.0
  0
VERTEX
  5
1E6E0
  8
0
 10
211.8353236465999
 20
200.1624792815
 30
0.0
  0
VERTEX
  5
1E6E1
  8
0
 10
212.67174445090001
 20
200.45689269900001
 30
0.0
  0
VERTEX
  5
1E6E2
  8
0
 10
213.60889524219999
 20
200.70420727140001
 30
0.0
  0
VERTEX
  5
1E6E3
  8
0
 10
214.6220326422999
 20
200.8153773845001
 30
0.0
  0
VERTEX
  5
1E6E4
  8
0
 10
215.13351500030001
 20
200.7546365261
 30
0.0
  0
VERTEX
  5
1E6E5
  8
0
 10
215.37147909399999
 20
200.6713353098001
 30
0.0
  0
VERTEX
  5
1E6E6
  8
0
 10
215.5849605798
 20
200.54363235829999
 30
0.0
  0
VERTEX
  5
1E6E7
  8
0
 10
215.76016843309989
 20
200.3720119596
 30
0.0
  0
VERTEX
  5
1E6E8
  8
0
 10
215.8858820795999
 20
200.16486346729999
 30
0.0
  0
VERTEX
  5
1E6E9
  8
0
 10
215.9592814742999
 20
199.9294623733
 30
0.0
  0
VERTEX
  5
1E6EA
  8
0
 10
215.98494127389989
 20
199.6816448868
 30
0.0
  0
VERTEX
  5
1E6EB
  8
0
 10
215.92753082510001
 20
199.17917028069999
 30
0.0
  0
VERTEX
  5
1E6EC
  8
0
 10
215.78209921710001
 20
198.69258031250001
 30
0.0
  0
VERTEX
  5
1E6ED
  8
0
 10
215.3795890509999
 20
197.8110313416
 30
0.0
  0
VERTEX
  5
1E6EE
  8
0
 10
214.91642743339989
 20
197.05894924699999
 30
0.0
  0
VERTEX
  5
1E6EF
  8
0
 10
214.48395103210001
 20
196.44291475419999
 30
0.0
  0
VERTEX
  5
1E6F0
  8
0
 10
214.1298361122
 20
195.9883902222
 30
0.0
  0
VERTEX
  5
1E6F1
  8
0
 10
213.89971747989989
 20
195.71495018900001
 30
0.0
  0
VERTEX
  5
1E6F2
  8
0
 10
213.80453481356221
 20
195.6208468443522
 30
0.0
  0
SEQEND
  5
1E6F3
  8
0
  0
ARC
  5
1DA2B
  8
0
 10
209.99687063190001
 20
199.55302880299999
 30
0.0
 40
0.152086816319942
 50
230.06060475929939
 51
292.01172745003652
  0
ARC
  5
1DA2C
  8
0
 10
213.9114036725
 20
195.51275224919999
 30
0.0
 40
0.1520045871406449
 50
134.6732991147386
 51
219.15642849520049
  0
POLYLINE
  5
1DA2D
  8
0
 66
     1
 10
0.0
 20
0.0
 30
0.0
 70
   128
  0
VERTEX
  5
1E6F4
  8
0
 10
200.79613551489999
 20
211.3047033549
 30
0.0
  0
VERTEX
  5
1E6F5
  8
0
 10
200.84542296820001
 20
211.3094083965
 30
0.0
  0
VERTEX
  5
1E6F6
  8
0
 10
201.06036104259999
 20
211.3323375583
 30
0.0
  0
VERTEX
  5
1E6F7
  8
0
 10
201.43367424600001
 20
211.36166676880001
 30
0.0
  0
VERTEX
  5
1E6F8
  8
0
 10
201.9676797091999
 20
211.3808594644
 30
0.0
  0
VERTEX
  5
1E6F9
  8
0
 10
202.64298543329991
 20
211.38481572270001
 30
0.0
  0
VERTEX
  5
1E6FA
  8
0
 10
203.42655368140001
 20
211.35140359409999
 30
0.0
  0
VERTEX
  5
1E6FB
  8
0
 10
203.8420315830999
 20
211.27560511230001
 30
0.0
  0
VERTEX
  5
1E6FC
  8
0
 10
204.2532943189
 20
211.1383840442
 30
0.0
  0
VERTEX
  5
1E6FD
  8
0
 10
204.4322572648
 20
211.02905794980001
 30
0.0
  0
VERTEX
  5
1E6FE
  8
0
 10
204.5815855264
 20
210.8829446137
 30
0.0
  0
VERTEX
  5
1E6FF
  8
0
 10
204.68522496519989
 20
210.709066689
 30
0.0
  0
VERTEX
  5
1E700
  8
0
 10
204.73370403050001
 20
210.5114139617001
 30
0.0
  0
VERTEX
  5
1E701
  8
0
 10
204.69564646480001
 20
210.0862316788
 30
0.0
  0
VERTEX
  5
1E702
  8
0
 10
204.5340657234
 20
209.6808642149
 30
0.0
  0
VERTEX
  5
1E703
  8
0
 10
204.04772721229989
 20
208.9641667903
 30
0.0
  0
VERTEX
  5
1E704
  8
0
 10
203.51110287009999
 20
208.35262686019999
 30
0.0
  0
VERTEX
  5
1E705
  8
0
 10
202.9923766851
 20
207.84660577779999
 30
0.0
  0
VERTEX
  5
1E706
  8
0
 10
202.54784524439989
 20
207.4379786849
 30
0.0
  0
VERTEX
  5
1E707
  8
0
 10
202.21386179320001
 20
207.14916437869999
 30
0.0
  0
VERTEX
  5
1E708
  8
0
 10
202.00866721569989
 20
206.98834732180001
 30
0.0
  0
VERTEX
  5
1E709
  8
0
 10
201.94214656939991
 20
206.93926662210001
 30
0.0
  0
SEQEND
  5
1E70A
  8
0
  0
ARC
  5
1DA2E
  8
0
 10
202.00798980575919
 20
206.80168589969989
 30
0.0
 40
0.152524709310993
 50
115.57479496715
 51
205.92872555549371
  0
ARC
  5
1DA2F
  8
0
 10
230.23238813013529
 20
196.40194561684331
 30
0.0
 40
0.1525067877468925
 50
299.94990082654641
 51
29.570167901271098
  0
ARC
  5
1DA30
  8
0
 10
203.1276339298644
 20
264.64148234263001
 30
0.0
 40
79.599429769921429
 50
288.117637689074
 51
292.28054862090642
  0
ARC
  5
1DA31
  8
0
 10
245.44955728971809
 20
170.7378924705877
 30
0.0
 40
29.68382298152855
 50
120.6689496208829
 51
136.50002530081511
  0
ARC
  5
1DA32
  8
0
 10
208.0256359028009
 20
201.03417932529851
 30
0.0
 40
0.1526139701117956
 50
146.1191110138858
 51
235.50548367263781
  0
POLYLINE
  5
1DA33
  8
0
 66
     1
 10
0.0
 20
0.0
 30
0.0
 70
   128
  0
VERTEX
  5
1E70B
  8
0
 10
203.91302176665039
 20
204.02467880839029
 30
0.0
  0
VERTEX
  5
1E70C
  8
0
 10
204.07822243859991
 20
204.0855638683
 30
0.0
  0
VERTEX
  5
1E70D
  8
0
 10
204.3769702315
 20
204.2026720941
 30
0.0
  0
VERTEX
  5
1E70E
  8
0
 10
204.8735011368999
 20
204.3910302222001
 30
0.0
  0
VERTEX
  5
1E70F
  8
0
 10
205.5269375442999
 20
204.63465675719999
 30
0.0
  0
VERTEX
  5
1E710
  8
0
 10
206.2950663268
 20
204.90563437349999
 30
0.0
  0
VERTEX
  5
1E711
  8
0
 10
207.16143101450001
 20
205.1399514079001
 30
0.0
  0
VERTEX
  5
1E712
  8
0
 10
208.0918446183
 20
205.30990287669999
 30
0.0
  0
VERTEX
  5
1E713
  8
0
 10
208.57348740099999
 20
205.32136559489999
 30
0.0
  0
VERTEX
  5
1E714
  8
0
 10
209.04849730430001
 20
205.2534461022
 30
0.0
  0
VERTEX
  5
1E715
  8
0
 10
209.25805233409989
 20
205.1720559597
 30
0.0
  0
VERTEX
  5
1E716
  8
0
 10
209.43876802919999
 20
205.04400655629999
 30
0.0
  0
VERTEX
  5
1E717
  8
0
 10
209.57677699620001
 20
204.87654358149999
 30
0.0
  0
VERTEX
  5
1E718
  8
0
 10
209.6607711165999
 20
204.679106921
 30
0.0
  0
VERTEX
  5
1E719
  8
0
 10
209.68703627580001
 20
204.24169078470001
 30
0.0
  0
VERTEX
  5
1E71A
  8
0
 10
209.58598777649991
 20
203.80514636640001
 30
0.0
  0
VERTEX
  5
1E71B
  8
0
 10
209.2416647821
 20
203.0167445541
 30
0.0
  0
VERTEX
  5
1E71C
  8
0
 10
208.84495303029991
 20
202.3451566697
 30
0.0
  0
VERTEX
  5
1E71D
  8
0
 10
208.65064561360001
 20
202.057620138
 30
0.0
  0
SEQEND
  5
1E71E
  8
0
  0
ARC
  5
1DA34
  8
0
 10
203.86035379249739
 20
204.16849509345599
 30
0.0
 40
0.153156910883869
 50
224.85351445508871
 51
290.11359144757648
  0
POLYLINE
  5
1DA37
  8
0
 66
     1
 10
0.0
 20
0.0
 30
0.0
 70
   128
  0
VERTEX
  5
1E71F
  8
0
 10
223.9176638424
 20
191.1708783359
 30
0.0
  0
VERTEX
  5
1E720
  8
0
 10
223.68752285830001
 20
190.91571830219999
 30
0.0
  0
VERTEX
  5
1E721
  8
0
 10
223.3231298625
 20
190.33595882360001
 30
0.0
  0
VERTEX
  5
1E722
  8
0
 10
223.11170846219991
 20
189.685619995
 30
0.0
  0
VERTEX
  5
1E723
  8
0
 10
223.12133088699991
 20
189.3965356052
 30
0.0
  0
VERTEX
  5
1E724
  8
0
 10
223.22559058659999
 20
189.11937214439999
 30
0.0
  0
VERTEX
  5
1E725
  8
0
 10
223.39758723969999
 20
188.9142055065
 30
0.0
  0
VERTEX
  5
1E726
  8
0
 10
223.71096611019999
 20
188.71417604390001
 30
0.0
  0
VERTEX
  5
1E727
  8
0
 10
224.36087280509989
 20
188.53957541290001
 30
0.0
  0
VERTEX
  5
1E728
  8
0
 10
225.12617781750001
 20
188.50615955890001
 30
0.0
  0
VERTEX
  5
1E729
  8
0
 10
225.91244503850001
 20
188.570733741
 30
0.0
  0
VERTEX
  5
1E72A
  8
0
 10
227.21687406300001
 20
188.81086781619999
 30
0.0
  0
VERTEX
  5
1E72B
  8
0
 10
227.88059040900001
 20
188.98858837789999
 30
0.0
  0
SEQEND
  5
1E72C
  8
0
  0
LINE
  5
1DA3A
  8
0
 10
208.1121698021
 20
201.4340661466
 30
0.0
 11
207.89893791069991
 21
201.1192567647
 31
0.0
  0
ARC
  5
1DA3B
  8
0
 10
206.2117724911356
 20
203.61945168307861
 30
0.0
 40
2.8961042596359721
 50
311.01001341931692
 51
327.36488104345858
  0
LINE
  5
1DA3C
  8
0
 10
215.43678547730241
 20
194.16552236694821
 30
0.0
 11
218.56592792228929
 21
189.64589164254551
 31
0.0
  0
LINE
  5
1DA41
  8
0
 10
232.97052511495249
 20
190.84871503444961
 30
0.0
 11
229.98284460522649
 21
196.07383819073229
 31
0.0
  0
ARC
  5
1DA4C
  8
0
 10
223.0106377180999
 20
182.1329724114
 30
0.0
 40
0.1520000000000211
 50
213.78611323389879
 51
303.8350813564997
  0
ARC
  5
1DA4D
  8
0
 10
234.12994762950001
 20
189.58656493929999
 30
0.0
 40
0.1520000000000166
 50
303.8350813564997
 51
29.760562602600992
  0
LINE
  5
1DA54
  8
0
 10
218.27885210509999
 20
189.3931623549
 30
0.0
 11
218.2788111269
 21
189.39313627780001
 31
0.0
  0
CIRCLE
  5
1DA57
  8
0
 10
254.99999976149999
 20
167.99999922520001
 30
0.0
 40
2.8499999999999819
  0
CIRCLE
  5
1DA58
  8
0
 10
215.0407502244
 20
168.001552038
 30
0.0
 40
2.849999999999953
  0
CIRCLE
  5
1DA59
  8
0
 10
242.5279909773999
 20
167.16393888779999
 30
0.0
 40
2.8499999999999819
  0
ARC
  5
1DA5A
  8
0
 10
254.99999976149999
 20
167.99999922520001
 30
0.0
 40
4.9999999999999947
 50
273.83508135650021
 51
93.835081356500268
  0
LINE
  5
1DA5B
  8
0
 10
240.35001993169999
 20
162.0067172684
 30
0.0
 11
242.6192730665
 21
162.15883623810001
 31
0.0
  0
LINE
  5
1DA5C
  8
0
 10
244.0529733896
 20
162.25494407119999
 30
0.0
 11
255.33442646260011
 21
163.01119569689999
 31
0.0
  0
ARC
  5
1DA5D
  8
0
 10
240.14936542570001
 20
164.99999922520001
 30
0.0
 40
3.0000000000000031
 50
245.406579724702
 51
273.83508135650021
  0
ARC
  5
1DA60
  8
0
 10
245.241091259
 20
175.3637659812
 30
0.0
 40
3.0000000000000409
 50
213.83508135649981
 51
273.83508135650021
  0
LINE
  5
1DA61
  8
0
 10
254.66557294130001
 20
172.98880275339999
 30
0.0
 11
245.44174671170001
 21
172.37048372629999
 31
0.0
  0
LINE
  5
1DA73
  8
0
 10
224.50442686669999
 20
182.95131213970001
 30
0.0
 11
231.5088732083463
 21
172.50204320193151
 31
0.0
  0
LINE
  5
1DA74
  8
0
 10
242.7491599826995
 20
173.69335330338799
 30
0.0
 11
232.81086683269999
 21
188.51935639979999
 31
0.0
  0
LINE
  5
1DA75
  8
0
 10
207.00074993070001
 20
170.06155205889999
 30
0.0
 11
210.4848314075999
 21
170.06155205889999
 31
0.0
  0
LINE
  5
1DA76
  8
0
 10
207.00074993070001
 20
165.93844639139999
 30
0.0
 11
207.00074993070001
 21
170.06155205889999
 31
0.0
  0
LINE
  5
1DA77
  8
0
 10
210.4862358421
 20
165.93844639139999
 30
0.0
 11
207.00074993070001
 21
165.93844639139999
 31
0.0
  0
LINE
  5
1DA79
  8
0
 10
155.50074987109991
 20
172.49999903150001
 30
0.0
 11
155.50074987109991
 21
163.49999941889999
 31
0.0
  0
LINE
  5
1DA7A
  8
0
 10
155.00075072049989
 20
171.99999941519999
 30
0.0
 11
155.00075072049989
 21
163.99999903520001
 31
0.0
  0
ARC
  5
1DA89
  8
0
 10
215.0407502244
 20
168.001552038
 30
0.0
 40
5.0000000000000311
 50
88.254577380900628
 51
268.25457738090063
  0
LINE
  5
1DA8B
  8
0
 10
215.19304513930001
 20
172.9992321693
 30
0.0
 11
243.18005229891551
 21
172.1463896944629
 31
0.0
  0
ARC
  5
1DA8C
  8
0
 10
243.0277589911
 20
167.1487095578
 30
0.0
 40
5.0000000000000311
 50
268.25457738090063
 51
88.254577380900628
  0
LINE
  5
1DA8D
  8
0
 10
242.87546500559989
 20
162.15102942659999
 30
0.0
 11
214.8884569243688
 21
163.0038719010999
 31
0.0
  0
ARC
  5
1DA93
  8
0
 10
200.7999997615
 20
154.1999992252
 30
0.0
 40
0.8000000000000113
 50
90.0
 51
180.0
  0
ARC
  5
1DA96
  8
0
 10
239.19999976150001
 20
154.1999992252
 30
0.0
 40
0.8000000000000397
 50
0.0
 51
90.0
  0
ARC
  5
1DA97
  8
0
 10
239.19999976150001
 20
150.7999992252
 30
0.0
 40
0.8000000000000397
 50
270.0
 51
0.0
  0
ARC
  5
1DA9A
  8
0
 10
200.7999997615
 20
150.7999992252
 30
0.0
 40
0.8000000000000113
 50
180.0
 51
270.0
  0
LINE
  5
1DA9C
  8
0
 10
239.19999958270009
 20
154.99999922520001
 30
0.0
 11
200.7999999402999
 21
154.99999922520001
 31
0.0
  0
LINE
  5
1DA9D
  8
0
 10
239.9999991059
 20
150.799998641
 30
0.0
 11
239.9999991059
 21
154.19999938460001
 31
0.0
  0
LINE
  5
1DA9E
  8
0
 10
200.0
 20
154.19999938460001
 30
0.0
 11
200.0
 21
150.799998641
 31
0.0
  0
LINE
  5
1DAA0
  8
0
 10
203.00000049169989
 20
160.20577037710001
 30
0.0
 11
202.99999976149991
 21
176.19999929643899
 31
0.0
  0
ARC
  5
1DAA3
  8
0
 10
181.84833311039989
 20
161.05726537979999
 30
0.0
 40
0.8528656699056867
 50
174.09052331840019
 51
266.7512110333991
  0
LINE
  5
1DAA4
  8
0
 10
203.00000049169989
 20
160.20577037710001
 30
0.0
 11
181.7999997757999
 21
160.20577037710001
 31
0.0
  0
LINE
  5
1DAA6
  8
0
 10
239.9999991059
 20
150.0
 30
0.0
 11
240.00007361169989
 21
150.0000279397
 31
0.0
  0
LINE
  5
1DAAA
  8
0
 10
200.0
 20
150.0
 30
0.0
 11
239.9999991059
 21
150.0
 31
0.0
  0
ARC
  5
1DAAB
  8
0
 10
203.7999997615
 20
162.7999992252
 30
0.0
 40
0.8000000000000113
 50
180.0
 51
270.0
  0
POLYLINE
  5
1DAAD
  8
0
 66
     1
 10
0.0
 20
0.0
 30
0.0
 70
   128
  0
VERTEX
  5
1E72D
  8
0
 10
240.00007361169989
 20
150.0000279397
 30
0.0
  0
VERTEX
  5
1E72E
  8
0
 10
240.54195061319999
 20
150.20803511150001
 30
0.0
  0
VERTEX
  5
1E72F
  8
0
 10
241.1583669483
 20
150.44465437529999
 30
0.0
  0
SEQEND
  5
1E730
  8
0
  0
LINE
  5
1DAB0
  8
0
 10
241.1583669483
 20
150.44465437529999
 30
0.0
 11
259.35836583370002
 21
157.43098091339999
 31
0.0
  0
ARC
  5
1DAB1
  8
0
 10
181.7999997615
 20
159.5062643217
 30
0.0
 40
0.8000000000000037
 50
180.0
 51
244.65382405810109
  0
LINE
  5
1DAB2
  8
0
 10
181.45753068449989
 20
158.78327433019999
 30
0.0
 11
200.0
 21
150.0
 31
0.0
  0
LINE
  5
1DAB3
  8
0
 10
180.99999976149999
 20
176.1999992252
 30
0.0
 11
180.9999997377999
 21
159.50626470149999
 31
0.0
  0
LINE
  5
1DAB5
  8
0
 10
259.0000003575999
 20
161.99999917299999
 30
0.0
 11
203.7999991326999
 21
161.99999917299999
 31
0.0
  0
ARC
  5
1DAB6
  8
0
 10
258.99999976150002
 20
158.36456088450001
 30
0.0
 40
1.000000000000002
 50
291.00000000000068
 51
0.0
  0
ARC
  5
1DAB7
  8
0
 10
258.99999976150002
 20
160.99999922520001
 30
0.0
 40
1.0
 50
0.0
 51
90.0
  0
LINE
  5
1DAB8
  8
0
 10
259.99999976149962
 20
158.36455988937149
 30
0.0
 11
260.0000023840999
 21
167.99999922520001
 31
0.0
  0
LINE
  5
1DAB9
  8
0
 10
249.9999970197
 20
162.65360275290001
 30
0.0
 11
249.9999970197
 21
161.99999917299999
 31
0.0
  0
ARC
  5
1DB0C
  8
0
 10
200.06549421186389
 20
164.97647988669189
 30
0.0
 40
134.20575271428879
 50
84.843328825422816
 51
85.637987051159755
  0
ARC
  5
1DB0E
  8
0
 10
140.75034139315269
 20
-618.91718558144851
 30
0.0
 40
920.33080218873783
 50
85.404525994028972
 51
85.522052289146444
  0
LINE
  5
1DB11
  8
0
 10
227.84408256409989
 20
297.405516269374
 30
0.0
 11
227.5704823433999
 21
297.42747313037398
 31
0.0
  0
LINE
  5
1DB18
  8
0
 10
227.11387723679991
 20
297.41930124037412
 30
0.0
 11
226.2944470896839
 21
297.40463576558579
 31
0.0
  0
LINE
  5
1DB19
  8
0
 10
227.5704823433999
 20
297.42747313037398
 30
0.0
 11
227.11387723679991
 21
297.41930124037412
 31
0.0
  0
ARC
  5
1DB1B
  8
0
 10
257.34999976149987
 20
296.49967859937402
 30
0.0
 40
0.5
 50
270.0
 51
0.0
  0
ARC
  5
1DB1C
  8
0
 10
252.64999976149991
 20
296.49967859937402
 30
0.0
 40
0.5
 50
180.0
 51
270.0
  0
ARC
  5
1DB1D
  8
0
 10
252.64999976149991
 20
287.19967859937401
 30
0.0
 40
0.5
 50
180.0
 51
270.0
  0
ARC
  5
1DB1E
  8
0
 10
257.34999976149987
 20
287.19967859937401
 30
0.0
 40
0.5
 50
270.0
 51
0.0
  0
ARC
  5
1DB1F
  8
0
 10
257.34999976149987
 20
296.79967859937398
 30
0.0
 40
0.5
 50
0.0
 51
90.0
  0
ARC
  5
1DB20
  8
0
 10
252.64999976149991
 20
296.79967859937398
 30
0.0
 40
0.5
 50
90.0
 51
180.0
  0
ARC
  5
1DB21
  8
0
 10
252.64999976149991
 20
287.49967859937402
 30
0.0
 40
0.5
 50
90.0
 51
180.0
  0
ARC
  5
1DB22
  8
0
 10
257.34999976149987
 20
287.49967859937402
 30
0.0
 40
0.5
 50
0.0
 51
90.0
  0
LINE
  5
1DB23
  8
0
 10
252.14999616139991
 20
296.79967882737412
 30
0.0
 11
252.14999616139991
 21
296.49967840567399
 31
0.0
  0
LINE
  5
1DB24
  8
0
 10
257.85000324239991
 20
296.49967840567399
 30
0.0
 11
257.85000324239991
 21
296.79967882737412
 31
0.0
  0
LINE
  5
1DB25
  8
0
 10
257.85000324239991
 20
287.19967837137398
 30
0.0
 11
257.85000324239991
 21
287.499678793074
 31
0.0
  0
LINE
  5
1DB26
  8
0
 10
252.14999616139991
 20
287.499678793074
 30
0.0
 11
252.14999616139991
 21
287.19967837137398
 31
0.0
  0
ARC
  5
1DB27
  8
0
 10
217.39075022439999
 20
298.49967859937402
 30
0.0
 40
0.5
 50
324.54919731890141
 51
0.0
  0
ARC
  5
1DB28
  8
0
 10
217.39075022439999
 20
298.79967859937398
 30
0.0
 40
0.5
 50
0.0
 51
90.0
  0
ARC
  5
1DB29
  8
0
 10
212.69075022439989
 20
298.79967859937398
 30
0.0
 40
0.5
 50
90.0
 51
180.0
  0
ARC
  5
1DB2A
  8
0
 10
212.69075022439989
 20
285.19967859937401
 30
0.0
 40
0.5
 50
180.0
 51
270.0
  0
ARC
  5
1DB2B
  8
0
 10
217.39075022439999
 20
285.19967859937401
 30
0.0
 40
0.5
 50
270.0
 51
0.0
  0
ARC
  5
1DB2C
  8
0
 10
217.39075022439999
 20
285.49967859937408
 30
0.0
 40
0.5
 50
0.0
 51
35.496937525801002
  0
LINE
  5
1DB2D
  8
0
 10
212.19074986870001
 20
298.79967868947398
 30
0.0
 11
212.19074986870001
 21
298.63591177456823
 31
0.0
  0
LINE
  5
1DB2E
  8
0
 10
217.8907513618
 20
298.49967873347401
 30
0.0
 11
217.8907513618
 21
298.79967868947398
 31
0.0
  0
LINE
  5
1DB2F
  8
0
 10
217.8907513618
 20
285.19967850917408
 30
0.0
 11
217.8907513618
 21
285.49967846527397
 31
0.0
  0
LINE
  5
1DB30
  8
0
 10
212.19074986870001
 20
285.36431817957401
 30
0.0
 11
212.19074986870001
 21
285.19967850917408
 31
0.0
  0
ARC
  5
1DB31
  8
0
 10
244.8779909774
 20
298.49967859937402
 30
0.0
 40
0.5
 50
270.0
 51
0.0
  0
ARC
  5
1DB32
  8
0
 10
240.17799097739999
 20
298.49967859937402
 30
0.0
 40
0.5
 50
180.0
 51
270.0
  0
ARC
  5
1DB33
  8
0
 10
244.8779909774
 20
298.79967859937398
 30
0.0
 40
0.5
 50
0.0
 51
90.0
  0
ARC
  5
1DB34
  8
0
 10
240.17799097739999
 20
298.79967859937398
 30
0.0
 40
0.5
 50
90.0
 51
180.0
  0
ARC
  5
1DB35
  8
0
 10
240.17799097739999
 20
285.19967859937401
 30
0.0
 40
0.5
 50
180.0
 51
270.0
  0
ARC
  5
1DB36
  8
0
 10
244.8779909774
 20
285.19967859937401
 30
0.0
 40
0.5
 50
270.0
 51
0.0
  0
ARC
  5
1DB37
  8
0
 10
240.17799097739999
 20
285.49967859937408
 30
0.0
 40
0.5
 50
90.0
 51
180.0
  0
ARC
  5
1DB38
  8
0
 10
244.8779909774
 20
285.49967859937408
 30
0.0
 40
0.5
 50
0.0
 51
90.0
  0
LINE
  5
1DB39
  8
0
 10
239.67799246309991
 20
298.79967868947398
 30
0.0
 11
239.67799246309991
 21
298.49967873347401
 31
0.0
  0
LINE
  5
1DB3A
  8
0
 10
245.37799209350001
 20
298.49967873347401
 30
0.0
 11
245.37799209350001
 21
298.79967868947398
 31
0.0
  0
LINE
  5
1DB3B
  8
0
 10
245.37799209350001
 20
285.19967850917408
 30
0.0
 11
245.37799209350001
 21
285.49967846527397
 31
0.0
  0
LINE
  5
1DB3C
  8
0
 10
239.67799246309991
 20
285.49967846527397
 30
0.0
 11
239.67799246309991
 21
285.19967850917408
 31
0.0
  0
LINE
  5
1DB3D
  8
0
 10
247.52799123520001
 20
293.499678612374
 30
0.0
 11
247.0279902218999
 21
293.9996786943741
 31
0.0
  0
LINE
  5
1DB3E
  8
0
 10
237.708889693
 20
293.68057766157398
 30
0.0
 11
237.5279895960999
 21
293.499678612374
 31
0.0
  0
LINE
  5
1DB3F
  8
0
 10
247.52799123520001
 20
290.499678586274
 30
0.0
 11
247.52799123520001
 21
293.499678612374
 31
0.0
  0
LINE
  5
1DB40
  8
0
 10
237.5279895960999
 20
293.499678612374
 30
0.0
 11
237.5279895960999
 21
290.499678586274
 31
0.0
  0
LINE
  5
1DB41
  8
0
 10
237.5279895960999
 20
290.499678586274
 30
0.0
 11
237.70624101160001
 21
290.32142810217402
 31
0.0
  0
LINE
  5
1DB42
  8
0
 10
247.0279902218999
 20
289.999678504374
 30
0.0
 11
247.52799123520001
 21
290.499678586274
 31
0.0
  0
LINE
  5
1DB43
  8
0
 10
260.0000023840999
 20
287.99967840937398
 30
0.0
 11
260.0000023840999
 21
295.99967878937412
 31
0.0
  0
LINE
  5
1DB44
  8
0
 10
155.50074987109991
 20
296.49967840567399
 30
0.0
 11
155.00075072049989
 21
295.99967878937412
 31
0.0
  0
LINE
  5
1DB45
  8
0
 10
155.00075072049989
 20
287.99967840937398
 30
0.0
 11
155.50074987109991
 21
287.499678793074
 31
0.0
  0
LINE
  5
1DB46
  8
0
 10
155.50074987109991
 20
287.499678793074
 30
0.0
 11
180.9999997377999
 21
287.499678793074
 31
0.0
  0
LINE
  5
1DB47
  8
0
 10
180.9999997377999
 20
296.49967840567399
 30
0.0
 11
155.50074987109991
 21
296.49967840567399
 31
0.0
  0
LINE
  5
1DB48
  8
0
 10
248.0277612805001
 20
295.99967878937412
 30
0.0
 11
248.0277612805001
 21
297.99967865147403
 31
0.0
  0
LINE
  5
1DB49
  8
0
 10
248.0277612805001
 20
285.99967854717403
 30
0.0
 11
248.0277612805001
 21
287.99967840937398
 31
0.0
  0
ARC
  5
1DB4B
  8
0
 10
202.19999976150001
 20
300.19967859937412
 30
0.0
 40
0.8000000000000113
 50
0.0
 51
90.0
  0
ARC
  5
1DB4C
  8
0
 10
202.19999976150001
 20
283.79967859937398
 30
0.0
 40
0.8000000000000113
 50
270.0
 51
0.0
  0
ARC
  5
1DB4D
  8
0
 10
181.7999997615
 20
300.19967859937412
 30
0.0
 40
0.8000000000000113
 50
90.0
 51
180.0
  0
ARC
  5
1DB4E
  8
0
 10
181.7999997615
 20
283.79967859937398
 30
0.0
 40
0.8000000000000113
 50
180.0
 51
270.0
  0
LINE
  5
1DB4F
  8
0
 10
181.7999997757999
 20
282.99967898677397
 30
0.0
 11
202.19999998799989
 21
282.99967898677397
 31
0.0
  0
LINE
  5
1DB50
  8
0
 10
202.19999998799989
 20
300.99967821197401
 30
0.0
 11
181.7999997757999
 21
300.99967821197401
 31
0.0
  0
POLYLINE
  5
1DB52
  8
0
 66
     1
 10
0.0
 20
0.0
 30
0.0
 70
   128
  0
VERTEX
  5
1E731
  8
0
 10
210.25130786
 20
298.688002402574
 30
0.0
  0
VERTEX
  5
1E732
  8
0
 10
210.38955710819991
 20
298.71856002757397
 30
0.0
  0
VERTEX
  5
1E733
  8
0
 10
210.42955555019989
 20
298.74720937267398
 30
0.0
  0
VERTEX
  5
1E734
  8
0
 10
210.39101183409991
 20
298.77072992427401
 30
0.0
  0
VERTEX
  5
1E735
  8
0
 10
210.27291081839999
 20
298.79349191367402
 30
0.0
  0
VERTEX
  5
1E736
  8
0
 10
210.07259637109999
 20
298.81334910797398
 30
0.0
  0
VERTEX
  5
1E737
  8
0
 10
209.8190363496
 20
298.82888962207397
 30
0.0
  0
VERTEX
  5
1E738
  8
0
 10
209.54424403600001
 20
298.83893905827409
 30
0.0
  0
VERTEX
  5
1E739
  8
0
 10
209.3032084404999
 20
298.84086596467398
 30
0.0
  0
VERTEX
  5
1E73A
  8
0
 10
209.0905278921
 20
298.83268522717401
 30
0.0
  0
VERTEX
  5
1E73B
  8
0
 10
209.05820354810001
 20
298.82987775527403
 30
0.0
  0
VERTEX
  5
1E73C
  8
0
 10
208.92419554289989
 20
298.80607687557398
 30
0.0
  0
VERTEX
  5
1E73D
  8
0
 10
208.8813975452999
 20
298.77580050997398
 30
0.0
  0
VERTEX
  5
1E73E
  8
0
 10
208.9219398795999
 20
298.73796227077412
 30
0.0
  0
VERTEX
  5
1E73F
  8
0
 10
209.03875939539989
 20
298.70359181117402
 30
0.0
  0
VERTEX
  5
1E740
  8
0
 10
209.22828167669991
 20
298.67330194147399
 30
0.0
  0
VERTEX
  5
1E741
  8
0
 10
209.4831287859999
 20
298.65322448937411
 30
0.0
  0
VERTEX
  5
1E742
  8
0
 10
209.7595602273
 20
298.64901956797399
 30
0.0
  0
VERTEX
  5
1E743
  8
0
 10
210.0231617689
 20
298.66106762247398
 30
0.0
  0
VERTEX
  5
1E744
  8
0
 10
210.2170165627999
 20
298.68269479527402
 30
0.0
  0
VERTEX
  5
1E745
  8
0
 10
210.25130786
 20
298.688002402574
 30
0.0
  0
SEQEND
  5
1E746
  8
0
  0
POLYLINE
  5
1DB53
  8
0
 66
     1
 10
0.0
 20
0.0
 30
0.0
 70
   128
  0
VERTEX
  5
1E747
  8
0
 10
216.4679959415999
 20
297.13490512847397
 30
0.0
  0
VERTEX
  5
1E748
  8
0
 10
216.58184081309989
 20
297.14437900737403
 30
0.0
  0
VERTEX
  5
1E749
  8
0
 10
216.61507412789999
 20
297.20076779527398
 30
0.0
  0
VERTEX
  5
1E74A
  8
0
 10
216.57037809490001
 20
297.28715075807401
 30
0.0
  0
VERTEX
  5
1E74B
  8
0
 10
216.4450667797999
 20
297.40042845407402
 30
0.0
  0
VERTEX
  5
1E74C
  8
0
 10
216.2664093077
 20
297.51164513327399
 30
0.0
  0
VERTEX
  5
1E74D
  8
0
 10
216.05129614469999
 20
297.615419148174
 30
0.0
  0
VERTEX
  5
1E74E
  8
0
 10
215.80544933669989
 20
297.70891089617402
 30
0.0
  0
VERTEX
  5
1E74F
  8
0
 10
215.5867263673999
 20
297.77271766837401
 30
0.0
  0
VERTEX
  5
1E750
  8
0
 10
215.3972618281
 20
297.81104438627398
 30
0.0
  0
VERTEX
  5
1E751
  8
0
 10
215.34822583190001
 20
297.81673569857412
 30
0.0
  0
VERTEX
  5
1E752
  8
0
 10
215.23992791769999
 20
297.81192402047401
 30
0.0
  0
VERTEX
  5
1E753
  8
0
 10
215.21322876209999
 20
297.774376819574
 30
0.0
  0
VERTEX
  5
1E754
  8
0
 10
215.27181267730001
 20
297.70210711907401
 30
0.0
  0
VERTEX
  5
1E755
  8
0
 10
215.39780199520001
 20
297.60855716347402
 30
0.0
  0
VERTEX
  5
1E756
  8
0
 10
215.5871920287
 20
297.49193741627403
 30
0.0
  0
VERTEX
  5
1E757
  8
0
 10
215.80318808550001
 20
297.37638217087402
 30
0.0
  0
VERTEX
  5
1E758
  8
0
 10
216.01223275059999
 20
297.27839073787402
 30
0.0
  0
VERTEX
  5
1E759
  8
0
 10
216.2329412996001
 20
297.19170369827401
 30
0.0
  0
VERTEX
  5
1E75A
  8
0
 10
216.42299816010001
 20
297.141053254474
 30
0.0
  0
VERTEX
  5
1E75B
  8
0
 10
216.4679959415999
 20
297.13490512847397
 30
0.0
  0
SEQEND
  5
1E75C
  8
0
  0
POLYLINE
  5
1DB54
  8
0
 66
     1
 10
0.0
 20
0.0
 30
0.0
 70
   128
  0
VERTEX
  5
1E75D
  8
0
 10
216.025327146
 20
297.95808578537412
 30
0.0
  0
VERTEX
  5
1E75E
  8
0
 10
216.13424345850001
 20
297.95919219657401
 30
0.0
  0
VERTEX
  5
1E75F
  8
0
 10
216.15644246339991
 20
297.98732931417402
 30
0.0
  0
SEQEND
  5
1E760
  8
0
  0
POLYLINE
  5
1DB55
  8
0
 66
     1
 10
0.0
 20
0.0
 30
0.0
 70
   128
  0
VERTEX
  5
1E761
  8
0
 10
216.15644246339991
 20
297.98732931417402
 30
0.0
  0
VERTEX
  5
1E762
  8
0
 10
216.0947628319
 20
298.03453339887398
 30
0.0
  0
VERTEX
  5
1E763
  8
0
 10
215.94851911059999
 20
298.09643934177399
 30
0.0
  0
VERTEX
  5
1E764
  8
0
 10
215.75213298199989
 20
298.15693153687408
 30
0.0
  0
VERTEX
  5
1E765
  8
0
 10
215.51888138050009
 20
298.214007640874
 30
0.0
  0
VERTEX
  5
1E766
  8
0
 10
215.2638182044
 20
298.2642501654741
 30
0.0
  0
VERTEX
  5
1E767
  8
0
 10
215.0488875806
 20
298.29824343947399
 30
0.0
  0
VERTEX
  5
1E768
  8
0
 10
214.8637406528
 20
298.32082940887398
 30
0.0
  0
VERTEX
  5
1E769
  8
0
 10
214.8235410451
 20
298.32442524537402
 30
0.0
  0
VERTEX
  5
1E76A
  8
0
 10
214.71649482839999
 20
298.32735146087401
 30
0.0
  0
VERTEX
  5
1E76B
  8
0
 10
214.6957971155
 20
298.31310595077412
 30
0.0
  0
VERTEX
  5
1E76C
  8
0
 10
214.76413384080001
 20
298.27979114527398
 30
0.0
  0
VERTEX
  5
1E76D
  8
0
 10
214.90384340279999
 20
298.23240452137401
 30
0.0
  0
VERTEX
  5
1E76E
  8
0
 10
215.11058211319991
 20
298.16983361417402
 30
0.0
  0
VERTEX
  5
1E76F
  8
0
 10
215.3448320924999
 20
298.10427455857399
 30
0.0
  0
VERTEX
  5
1E770
  8
0
 10
215.5736766755
 20
298.04509366557397
 30
0.0
  0
VERTEX
  5
1E771
  8
0
 10
215.80630242820001
 20
297.99225181967398
 30
0.0
  0
VERTEX
  5
1E772
  8
0
 10
215.98669588559989
 20
297.96212679397411
 30
0.0
  0
VERTEX
  5
1E773
  8
0
 10
216.025327146
 20
297.95808578537412
 30
0.0
  0
VERTEX
  5
1E774
  8
0
 10
216.025327146
 20
297.95808578537412
 30
0.0
  0
SEQEND
  5
1E775
  8
0
  0
POLYLINE
  5
1DB56
  8
0
 66
     1
 10
0.0
 20
0.0
 30
0.0
 70
   128
  0
VERTEX
  5
1E776
  8
0
 10
212.94616609810001
 20
298.54659923047399
 30
0.0
  0
VERTEX
  5
1E777
  8
0
 10
213.05843144650001
 20
298.539563088374
 30
0.0
  0
VERTEX
  5
1E778
  8
0
 10
213.0748525260999
 20
298.54318639887401
 30
0.0
  0
SEQEND
  5
1E779
  8
0
  0
ARC
  5
1DB57
  8
0
 10
211.7035129761999
 20
289.515139171474
 30
0.0
 40
9.1337775682773206
 50
81.327602237899214
 51
87.337309987698362
  0
ARC
  5
1DB58
  8
0
 10
223.7216238682781
 20
397.5885997779672
 30
0.0
 40
99.626444093035943
 50
263.31719686138268
 51
263.79082160359491
  0
POLYLINE
  5
1DB59
  8
0
 66
     1
 10
0.0
 20
0.0
 30
0.0
 70
   128
  0
VERTEX
  5
1E77A
  8
0
 10
210.47683320929991
 20
297.35850776237402
 30
0.0
  0
VERTEX
  5
1E77B
  8
0
 10
210.6268599629
 20
297.48783261207399
 30
0.0
  0
VERTEX
  5
1E77C
  8
0
 10
210.68121008569989
 20
297.62418429057402
 30
0.0
  0
VERTEX
  5
1E77D
  8
0
 10
210.65538451069989
 20
297.74779128537409
 30
0.0
  0
VERTEX
  5
1E77E
  8
0
 10
210.54662652309989
 20
297.873580834574
 30
0.0
  0
VERTEX
  5
1E77F
  8
0
 10
210.3608574717999
 20
297.97094409047401
 30
0.0
  0
VERTEX
  5
1E780
  8
0
 10
210.12832857660001
 20
298.02865535647408
 30
0.0
  0
VERTEX
  5
1E781
  8
0
 10
209.85629111519989
 20
298.044364905674
 30
0.0
  0
VERTEX
  5
1E782
  8
0
 10
209.5956586300999
 20
298.01278794807411
 30
0.0
  0
VERTEX
  5
1E783
  8
0
 10
209.36366058879989
 20
297.93507606417398
 30
0.0
  0
VERTEX
  5
1E784
  8
0
 10
209.31790471069999
 20
297.91025864587402
 30
0.0
  0
VERTEX
  5
1E785
  8
0
 10
209.1755595057999
 20
297.78297804917401
 30
0.0
  0
VERTEX
  5
1E786
  8
0
 10
209.12358611819991
 20
297.65250301607398
 30
0.0
  0
VERTEX
  5
1E787
  8
0
 10
209.15182195599991
 20
297.502643434974
 30
0.0
  0
VERTEX
  5
1E788
  8
0
 10
209.26432758569999
 20
297.37042543167411
 30
0.0
  0
VERTEX
  5
1E789
  8
0
 10
209.4552710651999
 20
297.26453032967402
 30
0.0
  0
VERTEX
  5
1E78A
  8
0
 10
209.69243235879989
 20
297.20853502557401
 30
0.0
  0
VERTEX
  5
1E78B
  8
0
 10
209.94069874280001
 20
297.20199667537401
 30
0.0
  0
VERTEX
  5
1E78C
  8
0
 10
210.20414941009989
 20
297.244256834174
 30
0.0
  0
VERTEX
  5
1E78D
  8
0
 10
210.42947359379991
 20
297.33141558867402
 30
0.0
  0
VERTEX
  5
1E78E
  8
0
 10
210.47683320929991
 20
297.35850776237402
 30
0.0
  0
SEQEND
  5
1E78F
  8
0
  0
POLYLINE
  5
1DB5A
  8
0
 66
     1
 10
0.0
 20
0.0
 30
0.0
 70
   128
  0
VERTEX
  5
1E790
  8
0
 10
216.67856797569991
 20
295.66102591967399
 30
0.0
  0
VERTEX
  5
1E791
  8
0
 10
216.80702343579989
 20
295.7044686252741
 30
0.0
  0
VERTEX
  5
1E792
  8
0
 10
216.85995236030001
 20
295.80956535107401
 30
0.0
  0
VERTEX
  5
1E793
  8
0
 10
216.84379950159999
 20
295.94522203007398
 30
0.0
  0
VERTEX
  5
1E794
  8
0
 10
216.75809919829999
 20
296.12243176127407
 30
0.0
  0
VERTEX
  5
1E795
  8
0
 10
216.61025732749999
 20
296.30572628857402
 30
0.0
  0
VERTEX
  5
1E796
  8
0
 10
216.4237096905
 20
296.47246469437408
 30
0.0
  0
VERTEX
  5
1E797
  8
0
 10
216.20017737149999
 20
296.62203416847399
 30
0.0
  0
VERTEX
  5
1E798
  8
0
 10
215.9830152987999
 20
296.72412202387397
 30
0.0
  0
VERTEX
  5
1E799
  8
0
 10
215.7898291944999
 20
296.77115008857402
 30
0.0
  0
VERTEX
  5
1E79A
  8
0
 10
215.74334129690001
 20
296.77234171577408
 30
0.0
  0
VERTEX
  5
1E79B
  8
0
 10
215.62400907269989
 20
296.73300777257401
 30
0.0
  0
VERTEX
  5
1E79C
  8
0
 10
215.57427644730001
 20
296.63858935857411
 30
0.0
  0
VERTEX
  5
1E79D
  8
0
 10
215.59792086479999
 20
296.49012722697398
 30
0.0
  0
VERTEX
  5
1E79E
  8
0
 10
215.68255200979999
 20
296.32827453937398
 30
0.0
  0
VERTEX
  5
1E79F
  8
0
 10
215.82438498729991
 20
296.14435835437399
 30
0.0
  0
VERTEX
  5
1E7A0
  8
0
 10
216.0175636409999
 20
295.95898045847412
 30
0.0
  0
VERTEX
  5
1E7A1
  8
0
 10
216.22264832249991
 20
295.81238842257397
 30
0.0
  0
VERTEX
  5
1E7A2
  8
0
 10
216.43946021790001
 20
295.7048409214741
 30
0.0
  0
VERTEX
  5
1E7A3
  8
0
 10
216.63301140070001
 20
295.6610044992741
 30
0.0
  0
VERTEX
  5
1E7A4
  8
0
 10
216.67856797569991
 20
295.66102591967399
 30
0.0
  0
SEQEND
  5
1E7A5
  8
0
  0
POLYLINE
  5
1DB5B
  8
0
 66
     1
 10
0.0
 20
0.0
 30
0.0
 70
   128
  0
VERTEX
  5
1E7A6
  8
0
 10
213.75576481219991
 20
296.95022898417398
 30
0.0
  0
VERTEX
  5
1E7A7
  8
0
 10
213.89949023720001
 20
297.03568015867398
 30
0.0
  0
VERTEX
  5
1E7A8
  8
0
 10
213.95835727449989
 20
297.15756048137399
 30
0.0
  0
VERTEX
  5
1E7A9
  8
0
 10
213.93203437319991
 20
297.29109258087402
 30
0.0
  0
VERTEX
  5
1E7AA
  8
0
 10
213.81970196959989
 20
297.43979732197403
 30
0.0
  0
VERTEX
  5
1E7AB
  8
0
 10
213.63959535949991
 20
297.57163953657403
 30
0.0
  0
VERTEX
  5
1E7AC
  8
0
 10
213.41436058279999
 20
297.67929623527402
 30
0.0
  0
VERTEX
  5
1E7AD
  8
0
 10
213.15084844820001
 20
297.75764886917398
 30
0.0
  0
VERTEX
  5
1E7AE
  8
0
 10
212.9071436822
 20
297.78839136167397
 30
0.0
  0
VERTEX
  5
1E7AF
  8
0
 10
212.68785260609991
 20
297.77292069667402
 30
0.0
  0
VERTEX
  5
1E7B0
  8
0
 10
212.63296976679999
 20
297.75856296227403
 30
0.0
  0
VERTEX
  5
1E7B1
  8
0
 10
212.49436661600001
 20
297.67882405467412
 30
0.0
  0
VERTEX
  5
1E7B2
  8
0
 10
212.4357324092999
 20
297.56403621907401
 30
0.0
  0
VERTEX
  5
1E7B3
  8
0
 10
212.4634057282999
 20
297.41654452557401
 30
0.0
  0
VERTEX
  5
1E7B4
  8
0
 10
212.56943680340001
 20
297.27052851267399
 30
0.0
  0
VERTEX
  5
1E7B5
  8
0
 10
212.75064423680001
 20
297.12500097857412
 30
0.0
  0
VERTEX
  5
1E7B6
  8
0
 10
212.9826925694
 20
297.00894514717407
 30
0.0
  0
VERTEX
  5
1E7B7
  8
0
 10
213.2250748573999
 20
296.93738558017412
 30
0.0
  0
VERTEX
  5
1E7B8
  8
0
 10
213.48164677619999
 20
296.90846847997398
 30
0.0
  0
VERTEX
  5
1E7B9
  8
0
 10
213.7007646262
 20
296.93337390827401
 30
0.0
  0
VERTEX
  5
1E7BA
  8
0
 10
213.75576481219991
 20
296.95022898417398
 30
0.0
  0
SEQEND
  5
1E7BB
  8
0
  0
POLYLINE
  5
1DB5C
  8
0
 66
     1
 10
0.0
 20
0.0
 30
0.0
 70
   128
  0
VERTEX
  5
1E7BC
  8
0
 10
213.4572051465
 20
298.19348036007398
 30
0.0
  0
VERTEX
  5
1E7BD
  8
0
 10
213.57178017489991
 20
298.19147941347399
 30
0.0
  0
VERTEX
  5
1E7BE
  8
0
 10
213.6066898703117
 20
298.21529659132938
 30
0.0
  0
SEQEND
  5
1E7BF
  8
0
  0
ARC
  5
1DB5D
  8
0
 10
212.03980857769989
 20
294.83005170777398
 30
0.0
 40
3.730281478223243
 50
65.162652527000247
 51
88.444107153501577
  0
POLYLINE
  5
1DB5E
  8
0
 66
     1
 10
0.0
 20
0.0
 30
0.0
 70
   128
  0
VERTEX
  5
1E7C0
  8
0
 10
212.14109361166641
 20
298.55895788099281
 30
0.0
  0
VERTEX
  5
1E7C1
  8
0
 10
212.10841536519999
 20
298.549389472874
 30
0.0
  0
VERTEX
  5
1E7C2
  8
0
 10
212.16381415719999
 20
298.520530580274
 30
0.0
  0
VERTEX
  5
1E7C3
  8
0
 10
212.2953467070999
 20
298.47514210887402
 30
0.0
  0
VERTEX
  5
1E7C4
  8
0
 10
212.49685883519999
 20
298.41248365737408
 30
0.0
  0
VERTEX
  5
1E7C5
  8
0
 10
212.7377547323
 20
298.34535765157398
 30
0.0
  0
VERTEX
  5
1E7C6
  8
0
 10
212.9781253635
 20
298.28519235057399
 30
0.0
  0
VERTEX
  5
1E7C7
  8
0
 10
213.22137191889999
 20
298.23096516237399
 30
0.0
  0
VERTEX
  5
1E7C8
  8
0
 10
213.4100168942999
 20
298.19882009797402
 30
0.0
  0
VERTEX
  5
1E7C9
  8
0
 10
213.4572051465
 20
298.19348036007398
 30
0.0
  0
SEQEND
  5
1E7CA
  8
0
  0
POLYLINE
  5
1DB5F
  8
0
 66
     1
 10
0.0
 20
0.0
 30
0.0
 70
   128
  0
VERTEX
  5
1E7CB
  8
0
 10
223.3641825615999
 20
297.32139362647411
 30
0.0
  0
VERTEX
  5
1E7CC
  8
0
 10
223.4667323528999
 20
297.32751707237412
 30
0.0
  0
VERTEX
  5
1E7CD
  8
0
 10
223.48101511589991
 20
297.36535112067401
 30
0.0
  0
VERTEX
  5
1E7CE
  8
0
 10
223.41641113159989
 20
297.42323235297403
 30
0.0
  0
VERTEX
  5
1E7CF
  8
0
 10
223.2699289917
 20
297.49830486877403
 30
0.0
  0
VERTEX
  5
1E7D0
  8
0
 10
223.0705998837
 20
297.57193569717413
 30
0.0
  0
VERTEX
  5
1E7D1
  8
0
 10
222.83577248450001
 20
297.639668459674
 30
0.0
  0
VERTEX
  5
1E7D2
  8
0
 10
222.5815959274
 20
297.697664710374
 30
0.0
  0
VERTEX
  5
1E7D3
  8
0
 10
222.36490696659999
 20
297.73651343457402
 30
0.0
  0
VERTEX
  5
1E7D4
  8
0
 10
222.18256145709989
 20
297.76067007957403
 30
0.0
  0
VERTEX
  5
1E7D5
  8
0
 10
222.14790135620001
 20
297.76376439877407
 30
0.0
  0
VERTEX
  5
1E7D6
  8
0
 10
222.0490656792999
 20
297.76387662317399
 30
0.0
  0
VERTEX
  5
1E7D7
  8
0
 10
222.0374651253
 20
297.744460875774
 30
0.0
  0
VERTEX
  5
1E7D8
  8
0
 10
222.11173623799991
 20
297.702763701474
 30
0.0
  0
VERTEX
  5
1E7D9
  8
0
 10
222.25321531290001
 20
297.64541239167397
 30
0.0
  0
VERTEX
  5
1E7DA
  8
0
 10
222.458653897
 20
297.57044837497409
 30
0.0
  0
VERTEX
  5
1E7DB
  8
0
 10
222.69548922769991
 20
297.49032948787402
 30
0.0
  0
VERTEX
  5
1E7DC
  8
0
 10
222.9282267390999
 20
297.41801694657403
 30
0.0
  0
VERTEX
  5
1E7DD
  8
0
 10
223.1573805212999
 20
297.35674337177397
 30
0.0
  0
VERTEX
  5
1E7DE
  8
0
 10
223.3292579649999
 20
297.324928926974
 30
0.0
  0
VERTEX
  5
1E7DF
  8
0
 10
223.3641825615999
 20
297.32139362647411
 30
0.0
  0
SEQEND
  5
1E7E0
  8
0
  0
POLYLINE
  5
1DB60
  8
0
 66
     1
 10
0.0
 20
0.0
 30
0.0
 70
   128
  0
VERTEX
  5
1E7E1
  8
0
 10
223.81843700999991
 20
296.32239975657399
 30
0.0
  0
VERTEX
  5
1E7E2
  8
0
 10
223.9268764853
 20
296.33628577617401
 30
0.0
  0
VERTEX
  5
1E7E3
  8
0
 10
223.95651489490001
 20
296.40244646617401
 30
0.0
  0
VERTEX
  5
1E7E4
  8
0
 10
223.9135548472
 20
296.50195316107403
 30
0.0
  0
VERTEX
  5
1E7E5
  8
0
 10
223.79393577569999
 20
296.63347919167398
 30
0.0
  0
VERTEX
  5
1E7E6
  8
0
 10
223.61971884959991
 20
296.76543269927402
 30
0.0
  0
VERTEX
  5
1E7E7
  8
0
 10
223.4074555336999
 20
296.88928509757397
 30
0.0
  0
VERTEX
  5
1E7E8
  8
0
 10
223.17056804890001
 20
296.99716345097403
 30
0.0
  0
VERTEX
  5
1E7E9
  8
0
 10
222.96378836029999
 20
297.06838774187401
 30
0.0
  0
VERTEX
  5
1E7EA
  8
0
 10
222.78523519629999
 20
297.10945208247398
 30
0.0
  0
VERTEX
  5
1E7EB
  8
0
 10
222.7454490959
 20
297.11424606547399
 30
0.0
  0
VERTEX
  5
1E7EC
  8
0
 10
222.64187857499991
 20
297.105164738974
 30
0.0
  0
VERTEX
  5
1E7ED
  8
0
 10
222.6192437112
 20
297.05832759537401
 30
0.0
  0
VERTEX
  5
1E7EE
  8
0
 10
222.67759665839989
 20
296.97229294727401
 30
0.0
  0
VERTEX
  5
1E7EF
  8
0
 10
222.79795706269991
 20
296.86456826207399
 30
0.0
  0
VERTEX
  5
1E7F0
  8
0
 10
222.97785878179991
 20
296.73115630327408
 30
0.0
  0
VERTEX
  5
1E7F1
  8
0
 10
223.18976446979991
 20
296.59443721797402
 30
0.0
  0
VERTEX
  5
1E7F2
  8
0
 10
223.40022474519989
 20
296.475962741974
 30
0.0
  0
VERTEX
  5
1E7F3
  8
0
 10
223.61279353489999
 20
296.37783906117397
 30
0.0
  0
VERTEX
  5
1E7F4
  8
0
 10
223.7815603613
 20
296.32763937737411
 30
0.0
  0
VERTEX
  5
1E7F5
  8
0
 10
223.81843700999991
 20
296.32239975657399
 30
0.0
  0
SEQEND
  5
1E7F6
  8
0
  0
POLYLINE
  5
1DB61
  8
0
 66
     1
 10
0.0
 20
0.0
 30
0.0
 70
   128
  0
VERTEX
  5
1E7F7
  8
0
 10
217.9065875709
 20
298.17434587207401
 30
0.0
  0
VERTEX
  5
1E7F8
  8
0
 10
218.0099569260999
 20
298.17022057877398
 30
0.0
  0
VERTEX
  5
1E7F9
  8
0
 10
218.02108064283991
 20
298.17817221084402
 30
0.0
  0
SEQEND
  5
1E7FA
  8
0
  0
ARC
  5
1DB62
  8
0
 10
217.04006754049999
 20
292.04160729967401
 30
0.0
 40
6.214484340310606
 50
80.917345642398871
 51
88.907565855301215
  0
ARC
  5
1DB63
  8
0
 10
241.79596908914539
 20
523.35488371478084
 30
0.0
 40
226.44420322112131
 50
263.75378060043568
 51
263.94414816676522
  0
POLYLINE
  5
1DB64
  8
0
 66
     1
 10
0.0
 20
0.0
 30
0.0
 70
   128
  0
VERTEX
  5
1E7FB
  8
0
 10
220.9571756421999
 20
297.52478935447402
 30
0.0
  0
VERTEX
  5
1E7FC
  8
0
 10
221.06184139839991
 20
297.52901802467397
 30
0.0
  0
VERTEX
  5
1E7FD
  8
0
 10
221.0778340697
 20
297.56420897947402
 30
0.0
  0
VERTEX
  5
1E7FE
  8
0
 10
221.0148468612999
 20
297.61913046867397
 30
0.0
  0
VERTEX
  5
1E7FF
  8
0
 10
220.8699479698999
 20
297.6911789799741
 30
0.0
  0
VERTEX
  5
1E800
  8
0
 10
220.67210525269991
 20
297.76235297947397
 30
0.0
  0
VERTEX
  5
1E801
  8
0
 10
220.43885737650001
 20
297.82816675187411
 30
0.0
  0
VERTEX
  5
1E802
  8
0
 10
220.1848521828
 20
297.88508220267403
 30
0.0
  0
VERTEX
  5
1E803
  8
0
 10
219.9673734605
 20
297.923462937274
 30
0.0
  0
VERTEX
  5
1E804
  8
0
 10
219.7832994163
 20
297.94757441307399
 30
0.0
  0
VERTEX
  5
1E805
  8
0
 10
219.74574103949999
 20
297.950918326774
 30
0.0
  0
VERTEX
  5
1E806
  8
0
 10
219.64481174939999
 20
297.95142729457399
 30
0.0
  0
VERTEX
  5
1E807
  8
0
 10
219.63107287880001
 20
297.932832508074
 30
0.0
  0
VERTEX
  5
1E808
  8
0
 10
219.70360800619989
 20
297.89285548657398
 30
0.0
  0
VERTEX
  5
1E809
  8
0
 10
219.84452083699989
 20
297.83760291217402
 30
0.0
  0
VERTEX
  5
1E80A
  8
0
 10
220.0499854981
 20
297.76552972077411
 30
0.0
  0
VERTEX
  5
1E80B
  8
0
 10
220.28471603989999
 20
297.68942157427398
 30
0.0
  0
VERTEX
  5
1E80C
  8
0
 10
220.51411941640001
 20
297.62098892287401
 30
0.0
  0
VERTEX
  5
1E80D
  8
0
 10
220.74379473920001
 20
297.56142199667403
 30
0.0
  0
VERTEX
  5
1E80E
  8
0
 10
220.920868963
 20
297.52868880207399
 30
0.0
  0
VERTEX
  5
1E80F
  8
0
 10
220.9571756421999
 20
297.52478935447402
 30
0.0
  0
SEQEND
  5
1E810
  8
0
  0
POLYLINE
  5
1DB65
  8
0
 66
     1
 10
0.0
 20
0.0
 30
0.0
 70
   128
  0
VERTEX
  5
1E811
  8
0
 10
218.96324381229999
 20
296.88265082117402
 30
0.0
  0
VERTEX
  5
1E812
  8
0
 10
219.0750695765
 20
296.89068440967412
 30
0.0
  0
VERTEX
  5
1E813
  8
0
 10
219.10516247149999
 20
296.94703082247401
 30
0.0
  0
VERTEX
  5
1E814
  8
0
 10
219.06075701109989
 20
297.03377048177401
 30
0.0
  0
VERTEX
  5
1E815
  8
0
 10
218.93809065219989
 20
297.14990128457401
 30
0.0
  0
VERTEX
  5
1E816
  8
0
 10
218.76193657510001
 20
297.26587096857401
 30
0.0
  0
VERTEX
  5
1E817
  8
0
 10
218.54968443509989
 20
297.37452790767401
 30
0.0
  0
VERTEX
  5
1E818
  8
0
 10
218.3084905147
 20
297.47200105967403
 30
0.0
  0
VERTEX
  5
1E819
  8
0
 10
218.09424534440001
 20
297.538454184974
 30
0.0
  0
VERTEX
  5
1E81A
  8
0
 10
217.9086402058
 20
297.57835670067402
 30
0.0
  0
VERTEX
  5
1E81B
  8
0
 10
217.86160469049989
 20
297.58418817697401
 30
0.0
  0
VERTEX
  5
1E81C
  8
0
 10
217.7547298371
 20
297.57925309867397
 30
0.0
  0
VERTEX
  5
1E81D
  8
0
 10
217.7300497889
 20
297.54025024057398
 30
0.0
  0
VERTEX
  5
1E81E
  8
0
 10
217.78962835659991
 20
297.46622173737398
 30
0.0
  0
VERTEX
  5
1E81F
  8
0
 10
217.91327446689999
 20
297.371927654974
 30
0.0
  0
VERTEX
  5
1E820
  8
0
 10
218.09881255030001
 20
297.25374561427401
 30
0.0
  0
VERTEX
  5
1E821
  8
0
 10
218.312100321
 20
297.13476496437403
 30
0.0
  0
VERTEX
  5
1E822
  8
0
 10
218.5200162230999
 20
297.032352543174
 30
0.0
  0
VERTEX
  5
1E823
  8
0
 10
218.73728260390001
 20
296.94202356667398
 30
0.0
  0
VERTEX
  5
1E824
  8
0
 10
218.92191171639999
 20
296.88908439757398
 30
0.0
  0
VERTEX
  5
1E825
  8
0
 10
218.96324381229999
 20
296.88265082117402
 30
0.0
  0
SEQEND
  5
1E826
  8
0
  0
POLYLINE
  5
1DB66
  8
0
 66
     1
 10
0.0
 20
0.0
 30
0.0
 70
   128
  0
VERTEX
  5
1E827
  8
0
 10
218.51283758869999
 20
297.7408939103741
 30
0.0
  0
VERTEX
  5
1E828
  8
0
 10
218.61916482439989
 20
297.74362175417411
 30
0.0
  0
VERTEX
  5
1E829
  8
0
 10
218.63720640540001
 20
297.77538497627398
 30
0.0
  0
VERTEX
  5
1E82A
  8
0
 10
218.57452839609991
 20
297.82643402617401
 30
0.0
  0
VERTEX
  5
1E82B
  8
0
 10
218.42906698580001
 20
297.89353302367402
 30
0.0
  0
VERTEX
  5
1E82C
  8
0
 10
218.23194324970001
 20
297.959561931574
 30
0.0
  0
VERTEX
  5
1E82D
  8
0
 10
217.9991014300999
 20
298.02101618297411
 30
0.0
  0
VERTEX
  5
1E82E
  8
0
 10
217.7448019384999
 20
298.07448574037397
 30
0.0
  0
VERTEX
  5
1E82F
  8
0
 10
217.52741262309999
 20
298.11055819197401
 30
0.0
  0
VERTEX
  5
1E830
  8
0
 10
217.34261587259991
 20
298.133381648674
 30
0.0
  0
VERTEX
  5
1E831
  8
0
 10
217.30479300019991
 20
298.136584932674
 30
0.0
  0
VERTEX
  5
1E832
  8
0
 10
217.20147207369999
 20
298.13747900227401
 30
0.0
  0
VERTEX
  5
1E833
  8
0
 10
217.1853378415
 20
298.12044138707398
 30
0.0
  0
VERTEX
  5
1E834
  8
0
 10
217.25610718129991
 20
298.083475797174
 30
0.0
  0
VERTEX
  5
1E835
  8
0
 10
217.39689335220001
 20
298.03207889827411
 30
0.0
  0
VERTEX
  5
1E836
  8
0
 10
217.60334521530001
 20
297.96506791067401
 30
0.0
  0
VERTEX
  5
1E837
  8
0
 10
217.8378894924999
 20
297.89485643307398
 30
0.0
  0
VERTEX
  5
1E838
  8
0
 10
218.0668458342
 20
297.83168342587402
 30
0.0
  0
VERTEX
  5
1E839
  8
0
 10
218.29752326010001
 20
297.77600942807402
 30
0.0
  0
VERTEX
  5
1E83A
  8
0
 10
218.47587153309999
 20
297.74480313687411
 30
0.0
  0
VERTEX
  5
1E83B
  8
0
 10
218.51283758869999
 20
297.7408939103741
 30
0.0
  0
SEQEND
  5
1E83C
  8
0
  0
POLYLINE
  5
1DB67
  8
0
 66
     1
 10
0.0
 20
0.0
 30
0.0
 70
   128
  0
VERTEX
  5
1E83D
  8
0
 10
215.45431464910001
 20
298.35068574797401
 30
0.0
  0
VERTEX
  5
1E83E
  8
0
 10
215.5603550374
 20
298.34642029057397
 30
0.0
  0
VERTEX
  5
1E83F
  8
0
 10
215.5749432742048
 20
298.35419031484332
 30
0.0
  0
SEQEND
  5
1E840
  8
0
  0
ARC
  5
1DB68
  8
0
 10
214.2016738563
 20
289.451200582274
 30
0.0
 40
9.0082792514657157
 50
81.231340708800701
 51
88.182278834400279
  0
ARC
  5
1DB69
  8
0
 10
217.4196792472917
 20
321.11268857159808
 30
0.0
 40
22.846694083549991
 50
262.62602135481148
 51
265.06508708021721
  0
POLYLINE
  5
1DB6A
  8
0
 66
     1
 10
0.0
 20
0.0
 30
0.0
 70
   128
  0
VERTEX
  5
1E841
  8
0
 10
221.40924707049999
 20
296.59074498967402
 30
0.0
  0
VERTEX
  5
1E842
  8
0
 10
221.51895686979989
 20
296.60066636907402
 30
0.0
  0
VERTEX
  5
1E843
  8
0
 10
221.54862135639999
 20
296.66139512017412
 30
0.0
  0
VERTEX
  5
1E844
  8
0
 10
221.5051807463
 20
296.754560905174
 30
0.0
  0
VERTEX
  5
1E845
  8
0
 10
221.38451114290001
 20
296.87904241187408
 30
0.0
  0
VERTEX
  5
1E846
  8
0
 10
221.21028676619991
 20
297.00369528187412
 30
0.0
  0
VERTEX
  5
1E847
  8
0
 10
220.99950984119999
 20
297.12071316937403
 30
0.0
  0
VERTEX
  5
1E848
  8
0
 10
220.7604207098
 20
297.22523689897412
 30
0.0
  0
VERTEX
  5
1E849
  8
0
 10
220.54804190989989
 20
297.29619250327403
 30
0.0
  0
VERTEX
  5
1E84A
  8
0
 10
220.36526054139989
 20
297.33788269267399
 30
0.0
  0
VERTEX
  5
1E84B
  8
0
 10
220.32358944410001
 20
297.34320147587403
 30
0.0
  0
VERTEX
  5
1E84C
  8
0
 10
220.21820843219999
 20
297.336853115574
 30
0.0
  0
VERTEX
  5
1E84D
  8
0
 10
220.19451558589989
 20
297.29436385137399
 30
0.0
  0
VERTEX
  5
1E84E
  8
0
 10
220.25331184259991
 20
297.21456347657403
 30
0.0
  0
VERTEX
  5
1E84F
  8
0
 10
220.37428319450001
 20
297.11423582087411
 30
0.0
  0
VERTEX
  5
1E850
  8
0
 10
220.55543661109991
 20
296.98882392297401
 30
0.0
  0
VERTEX
  5
1E851
  8
0
 10
220.76841145750001
 20
296.85943993427401
 30
0.0
  0
VERTEX
  5
1E852
  8
0
 10
220.98037302489999
 20
296.74591404077398
 30
0.0
  0
VERTEX
  5
1E853
  8
0
 10
221.19578048579999
 20
296.64953984947402
 30
0.0
  0
VERTEX
  5
1E854
  8
0
 10
221.3704891502
 20
296.59689497827412
 30
0.0
  0
VERTEX
  5
1E855
  8
0
 10
221.40924707049999
 20
296.59074498967402
 30
0.0
  0
SEQEND
  5
1E856
  8
0
  0
POLYLINE
  5
1DB6B
  8
0
 66
     1
 10
0.0
 20
0.0
 30
0.0
 70
   128
  0
VERTEX
  5
1E857
  8
0
 10
209.36154089859991
 20
295.75765994997403
 30
0.0
  0
VERTEX
  5
1E858
  8
0
 10
209.2004202306
 20
295.56943337127399
 30
0.0
  0
VERTEX
  5
1E859
  8
0
 10
209.12427343419989
 20
295.34962145307401
 30
0.0
  0
VERTEX
  5
1E85A
  8
0
 10
209.1357696801
 20
295.13370409297403
 30
0.0
  0
VERTEX
  5
1E85B
  8
0
 10
209.23598371439991
 20
294.92333671697401
 30
0.0
  0
VERTEX
  5
1E85C
  8
0
 10
209.4056539236999
 20
294.769116217874
 30
0.0
  0
VERTEX
  5
1E85D
  8
0
 10
209.6239577977999
 20
294.67235319937407
 30
0.0
  0
VERTEX
  5
1E85E
  8
0
 10
209.88610461350009
 20
294.64424984217402
 30
0.0
  0
VERTEX
  5
1E85F
  8
0
 10
210.1264808327
 20
294.6915749988741
 30
0.0
  0
VERTEX
  5
1E860
  8
0
 10
210.3532280771999
 20
294.80662942557399
 30
0.0
  0
VERTEX
  5
1E861
  8
0
 10
210.4140508918999
 20
294.85416366407401
 30
0.0
  0
VERTEX
  5
1E862
  8
0
 10
210.57449169450001
 20
295.04619073747398
 30
0.0
  0
VERTEX
  5
1E863
  8
0
 10
210.65491698679989
 20
295.26739102477399
 30
0.0
  0
VERTEX
  5
1E864
  8
0
 10
210.6409937142999
 20
295.49314850637398
 30
0.0
  0
VERTEX
  5
1E865
  8
0
 10
210.54734364149999
 20
295.67774362557401
 30
0.0
  0
VERTEX
  5
1E866
  8
0
 10
210.37600636479999
 20
295.83554529277399
 30
0.0
  0
VERTEX
  5
1E867
  8
0
 10
210.1483110337999
 20
295.93155068037402
 30
0.0
  0
VERTEX
  5
1E868
  8
0
 10
209.90631990130001
 20
295.9570400478741
 30
0.0
  0
VERTEX
  5
1E869
  8
0
 10
209.64438915249991
 20
295.91322690867401
 30
0.0
  0
VERTEX
  5
1E86A
  8
0
 10
209.41674225029999
 20
295.80012127447412
 30
0.0
  0
VERTEX
  5
1E86B
  8
0
 10
209.36154089859991
 20
295.75765994997403
 30
0.0
  0
SEQEND
  5
1E86C
  8
0
  0
POLYLINE
  5
1DB6C
  8
0
 66
     1
 10
0.0
 20
0.0
 30
0.0
 70
   128
  0
VERTEX
  5
1E86D
  8
0
 10
226.25836431979991
 20
294.526264543374
 30
0.0
  0
VERTEX
  5
1E86E
  8
0
 10
226.37593820689989
 20
294.55096577917408
 30
0.0
  0
VERTEX
  5
1E86F
  8
0
 10
226.4352411031
 20
294.64955186167413
 30
0.0
  0
VERTEX
  5
1E870
  8
0
 10
226.4341607689
 20
294.7961865055741
 30
0.0
  0
VERTEX
  5
1E871
  8
0
 10
226.3672210275999
 20
294.990626635674
 30
0.0
  0
VERTEX
  5
1E872
  8
0
 10
226.24400332569999
 20
295.1860728270741
 30
0.0
  0
VERTEX
  5
1E873
  8
0
 10
226.07867866749999
 20
295.37027236697401
 30
0.0
  0
VERTEX
  5
1E874
  8
0
 10
225.8799903094
 20
295.53300794837401
 30
0.0
  0
VERTEX
  5
1E875
  8
0
 10
225.694437325
 20
295.64160877527411
 30
0.0
  0
VERTEX
  5
1E876
  8
0
 10
225.52601322529989
 20
295.70190399577399
 30
0.0
  0
VERTEX
  5
1E877
  8
0
 10
225.4872851072999
 20
295.70790217877402
 30
0.0
  0
VERTEX
  5
1E878
  8
0
 10
225.37819370619991
 20
295.687162789274
 30
0.0
  0
VERTEX
  5
1E879
  8
0
 10
225.33746510739999
 20
295.60985044267397
 30
0.0
  0
VERTEX
  5
1E87A
  8
0
 10
225.36206319919989
 20
295.47333019477401
 30
0.0
  0
VERTEX
  5
1E87B
  8
0
 10
225.4418961703
 20
295.305324491774
 30
0.0
  0
VERTEX
  5
1E87C
  8
0
 10
225.57112276549989
 20
295.10440328777401
 30
0.0
  0
VERTEX
  5
1E87D
  8
0
 10
225.7296413183
 20
294.90572703697399
 30
0.0
  0
VERTEX
  5
1E87E
  8
0
 10
225.8932635187999
 20
294.73799025327412
 30
0.0
  0
VERTEX
  5
1E87F
  8
0
 10
226.06860920779991
 20
294.6009917712741
 30
0.0
  0
VERTEX
  5
1E880
  8
0
 10
226.22094750399989
 20
294.53287646797401
 30
0.0
  0
VERTEX
  5
1E881
  8
0
 10
226.25836431979991
 20
294.526264543374
 30
0.0
  0
SEQEND
  5
1E882
  8
0
  0
POLYLINE
  5
1DB6D
  8
0
 66
     1
 10
0.0
 20
0.0
 30
0.0
 70
   128
  0
VERTEX
  5
1E883
  8
0
 10
226.20444446799999
 20
296.09670583777398
 30
0.0
  0
VERTEX
  5
1E884
  8
0
 10
226.312507689
 20
296.11339513837402
 30
0.0
  0
VERTEX
  5
1E885
  8
0
 10
226.3419412076
 20
296.18314374857403
 30
0.0
  0
VERTEX
  5
1E886
  8
0
 10
226.29968523970001
 20
296.286027884774
 30
0.0
  0
VERTEX
  5
1E887
  8
0
 10
226.181217283
 20
296.42172670617401
 30
0.0
  0
VERTEX
  5
1E888
  8
0
 10
226.00692957640001
 20
296.558175707874
 30
0.0
  0
VERTEX
  5
1E889
  8
0
 10
225.7947184144999
 20
296.68532126277398
 30
0.0
  0
VERTEX
  5
1E88A
  8
0
 10
225.55852383369989
 20
296.79516051587399
 30
0.0
  0
VERTEX
  5
1E88B
  8
0
 10
225.35128220909999
 20
296.86757876227409
 30
0.0
  0
VERTEX
  5
1E88C
  8
0
 10
225.17289295789999
 20
296.908312483374
 30
0.0
  0
VERTEX
  5
1E88D
  8
0
 10
225.1360386609999
 20
296.91242194427412
 30
0.0
  0
VERTEX
  5
1E88E
  8
0
 10
225.03444254390001
 20
296.90068821117399
 30
0.0
  0
VERTEX
  5
1E88F
  8
0
 10
225.0137932598
 20
296.85148783647412
 30
0.0
  0
VERTEX
  5
1E890
  8
0
 10
225.07140114899991
 20
296.76169669877407
 30
0.0
  0
VERTEX
  5
1E891
  8
0
 10
225.1929052173999
 20
296.64767673857398
 30
0.0
  0
VERTEX
  5
1E892
  8
0
 10
225.37314221259999
 20
296.50863726317402
 30
0.0
  0
VERTEX
  5
1E893
  8
0
 10
225.58298781510001
 20
296.36883270617398
 30
0.0
  0
VERTEX
  5
1E894
  8
0
 10
225.7907509803
 20
296.24893656627398
 30
0.0
  0
VERTEX
  5
1E895
  8
0
 10
226.00139006969991
 20
296.15035234647399
 30
0.0
  0
VERTEX
  5
1E896
  8
0
 10
226.16852521889999
 20
296.101361053674
 30
0.0
  0
VERTEX
  5
1E897
  8
0
 10
226.20444446799999
 20
296.09670583777398
 30
0.0
  0
SEQEND
  5
1E898
  8
0
  0
POLYLINE
  5
1DB6E
  8
0
 66
     1
 10
0.0
 20
0.0
 30
0.0
 70
   128
  0
VERTEX
  5
1E899
  8
0
 10
219.1142596304
 20
295.49434991247398
 30
0.0
  0
VERTEX
  5
1E89A
  8
0
 10
219.23283562060001
 20
295.51392840847399
 30
0.0
  0
VERTEX
  5
1E89B
  8
0
 10
219.28490027780001
 20
295.60307856337403
 30
0.0
  0
VERTEX
  5
1E89C
  8
0
 10
219.2736387251999
 20
295.73398037507411
 30
0.0
  0
VERTEX
  5
1E89D
  8
0
 10
219.1944092512
 20
295.90957752117401
 30
0.0
  0
VERTEX
  5
1E89E
  8
0
 10
219.0602913498
 20
296.08457536127412
 30
0.0
  0
VERTEX
  5
1E89F
  8
0
 10
218.8889242708
 20
296.24706367657399
 30
0.0
  0
VERTEX
  5
1E8A0
  8
0
 10
218.6765529214999
 20
296.39957799267398
 30
0.0
  0
VERTEX
  5
1E8A1
  8
0
 10
218.46979558460001
 20
296.50811665387403
 30
0.0
  0
VERTEX
  5
1E8A2
  8
0
 10
218.2874538003999
 20
296.56876996787412
 30
0.0
  0
VERTEX
  5
1E8A3
  8
0
 10
218.23944598429989
 20
296.57635326187409
 30
0.0
  0
VERTEX
  5
1E8A4
  8
0
 10
218.12777668230001
 20
296.56125372897401
 30
0.0
  0
VERTEX
  5
1E8A5
  8
0
 10
218.0876478552
 20
296.49135983237397
 30
0.0
  0
VERTEX
  5
1E8A6
  8
0
 10
218.12313124529999
 20
296.36958521487401
 30
0.0
  0
VERTEX
  5
1E8A7
  8
0
 10
218.21089908479999
 20
296.22801533587398
 30
0.0
  0
VERTEX
  5
1E8A8
  8
0
 10
218.34980770940001
 20
296.05299840377398
 30
0.0
  0
VERTEX
  5
1E8A9
  8
0
 10
218.52709799999991
 20
295.86695647487397
 30
0.0
  0
VERTEX
  5
1E8AA
  8
0
 10
218.7088996171
 20
295.707558055074
 30
0.0
  0
VERTEX
  5
1E8AB
  8
0
 10
218.90008524059999
 20
295.57543877207411
 30
0.0
  0
VERTEX
  5
1E8AC
  8
0
 10
219.07115802160001
 20
295.50253810057399
 30
0.0
  0
VERTEX
  5
1E8AD
  8
0
 10
219.1142596304
 20
295.49434991247398
 30
0.0
  0
SEQEND
  5
1E8AE
  8
0
  0
POLYLINE
  5
1DB6F
  8
0
 66
     1
 10
0.0
 20
0.0
 30
0.0
 70
   128
  0
VERTEX
  5
1E8AF
  8
0
 10
221.52086421839999
 20
295.15752057237398
 30
0.0
  0
VERTEX
  5
1E8B0
  8
0
 10
221.63837850089999
 20
295.175290439874
 30
0.0
  0
VERTEX
  5
1E8B1
  8
0
 10
221.6929353773001
 20
295.26507040177398
 30
0.0
  0
VERTEX
  5
1E8B2
  8
0
 10
221.68571576469989
 20
295.39930029467399
 30
0.0
  0
VERTEX
  5
1E8B3
  8
0
 10
221.61203324789989
 20
295.58064602937401
 30
0.0
  0
VERTEX
  5
1E8B4
  8
0
 10
221.4824900031
 20
295.7644236801741
 30
0.0
  0
VERTEX
  5
1E8B5
  8
0
 10
221.3125720619999
 20
295.93801452467397
 30
0.0
  0
VERTEX
  5
1E8B6
  8
0
 10
221.10544219609989
 20
296.09698244067403
 30
0.0
  0
VERTEX
  5
1E8B7
  8
0
 10
220.9102593362
 20
296.20649759347401
 30
0.0
  0
VERTEX
  5
1E8B8
  8
0
 10
220.73525637380001
 20
296.26974510647409
 30
0.0
  0
VERTEX
  5
1E8B9
  8
0
 10
220.68949490779991
 20
296.27805203827398
 30
0.0
  0
VERTEX
  5
1E8BA
  8
0
 10
220.5790512262999
 20
296.26466101657411
 30
0.0
  0
VERTEX
  5
1E8BB
  8
0
 10
220.53862810129999
 20
296.19482160237402
 30
0.0
  0
VERTEX
  5
1E8BC
  8
0
 10
220.5706134438
 20
296.07008305067399
 30
0.0
  0
VERTEX
  5
1E8BD
  8
0
 10
220.6549949944
 20
295.92168704297399
 30
0.0
  0
VERTEX
  5
1E8BE
  8
0
 10
220.78988775609989
 20
295.73750892347408
 30
0.0
  0
VERTEX
  5
1E8BF
  8
0
 10
220.95968276260001
 20
295.54453353087399
 30
0.0
  0
VERTEX
  5
1E8C0
  8
0
 10
221.1346782743
 20
295.37810176307403
 30
0.0
  0
VERTEX
  5
1E8C1
  8
0
 10
221.3185995817
 20
295.240569633174
 30
0.0
  0
VERTEX
  5
1E8C2
  8
0
 10
221.48056775329999
 20
295.16609595777402
 30
0.0
  0
VERTEX
  5
1E8C3
  8
0
 10
221.52086421839999
 20
295.15752057237398
 30
0.0
  0
SEQEND
  5
1E8C4
  8
0
  0
POLYLINE
  5
1DB70
  8
0
 66
     1
 10
0.0
 20
0.0
 30
0.0
 70
   128
  0
VERTEX
  5
1E8C5
  8
0
 10
223.89870584010001
 20
294.81303319957402
 30
0.0
  0
VERTEX
  5
1E8C6
  8
0
 10
224.016238749
 20
294.83371112187399
 30
0.0
  0
VERTEX
  5
1E8C7
  8
0
 10
224.07340332859991
 20
294.92763477067399
 30
0.0
  0
VERTEX
  5
1E8C8
  8
0
 10
224.06969666480001
 20
295.06793968067399
 30
0.0
  0
VERTEX
  5
1E8C9
  8
0
 10
224.00008216500001
 20
295.256207004874
 30
0.0
  0
VERTEX
  5
1E8CA
  8
0
 10
223.8744318485
 20
295.44652929217398
 30
0.0
  0
VERTEX
  5
1E8CB
  8
0
 10
223.707550019
 20
295.62640633127398
 30
0.0
  0
VERTEX
  5
1E8CC
  8
0
 10
223.50450679659991
 20
295.78924319397407
 30
0.0
  0
VERTEX
  5
1E8CD
  8
0
 10
223.31329137079999
 20
295.90028501737407
 30
0.0
  0
VERTEX
  5
1E8CE
  8
0
 10
223.14119413489991
 20
295.96315231797399
 30
0.0
  0
VERTEX
  5
1E8CF
  8
0
 10
223.10018241399999
 20
295.9702084834741
 30
0.0
  0
VERTEX
  5
1E8D0
  8
0
 10
222.9908823966999
 20
295.95318530377409
 30
0.0
  0
VERTEX
  5
1E8D1
  8
0
 10
222.9508951306
 20
295.88006274467398
 30
0.0
  0
VERTEX
  5
1E8D2
  8
0
 10
222.9784399271
 20
295.74927432157398
 30
0.0
  0
VERTEX
  5
1E8D3
  8
0
 10
223.0605229734999
 20
295.589311287474
 30
0.0
  0
VERTEX
  5
1E8D4
  8
0
 10
223.19265902039999
 20
295.39487534827413
 30
0.0
  0
VERTEX
  5
1E8D5
  8
0
 10
223.3554951845999
 20
295.19875185257399
 30
0.0
  0
VERTEX
  5
1E8D6
  8
0
 10
223.5237069428
 20
295.03119760817401
 30
0.0
  0
VERTEX
  5
1E8D7
  8
0
 10
223.70254695409989
 20
294.89316372827398
 30
0.0
  0
VERTEX
  5
1E8D8
  8
0
 10
223.859731853
 20
294.82083768277403
 30
0.0
  0
VERTEX
  5
1E8D9
  8
0
 10
223.89870584010001
 20
294.81303319957402
 30
0.0
  0
SEQEND
  5
1E8DA
  8
0
  0
POLYLINE
  5
1DB71
  8
0
 66
     1
 10
0.0
 20
0.0
 30
0.0
 70
   128
  0
VERTEX
  5
1E8DB
  8
0
 10
213.61292228100001
 20
294.44848234457402
 30
0.0
  0
VERTEX
  5
1E8DC
  8
0
 10
213.77789303660001
 20
294.60944096247403
 30
0.0
  0
VERTEX
  5
1E8DD
  8
0
 10
213.8632431625999
 20
294.81916479457402
 30
0.0
  0
VERTEX
  5
1E8DE
  8
0
 10
213.86331021779989
 20
295.04148546297398
 30
0.0
  0
VERTEX
  5
1E8DF
  8
0
 10
213.77725973720001
 20
295.27547397347411
 30
0.0
  0
VERTEX
  5
1E8E0
  8
0
 10
213.6167779564
 20
295.47322891347397
 30
0.0
  0
VERTEX
  5
1E8E1
  8
0
 10
213.39855790129991
 20
295.62325357147398
 30
0.0
  0
VERTEX
  5
1E8E2
  8
0
 10
213.14571499819999
 20
295.704043942174
 30
0.0
  0
VERTEX
  5
1E8E3
  8
0
 10
212.9166692494999
 20
295.70673476597398
 30
0.0
  0
VERTEX
  5
1E8E4
  8
0
 10
212.69676908849999
 20
295.641439740274
 30
0.0
  0
VERTEX
  5
1E8E5
  8
0
 10
212.6425661145999
 20
295.61073124097408
 30
0.0
  0
VERTEX
  5
1E8E6
  8
0
 10
212.48186081639989
 20
295.45405693977398
 30
0.0
  0
VERTEX
  5
1E8E7
  8
0
 10
212.39852979769989
 20
295.25576113417412
 30
0.0
  0
VERTEX
  5
1E8E8
  8
0
 10
212.398423627
 20
295.01999100357398
 30
0.0
  0
VERTEX
  5
1E8E9
  8
0
 10
212.48048618429991
 20
294.79852086557412
 30
0.0
  0
VERTEX
  5
1E8EA
  8
0
 10
212.639645487
 20
294.59156189737399
 30
0.0
  0
VERTEX
  5
1E8EB
  8
0
 10
212.8550976514
 20
294.43914257617399
 30
0.0
  0
VERTEX
  5
1E8EC
  8
0
 10
213.090994209
 20
294.35743648247399
 30
0.0
  0
VERTEX
  5
1E8ED
  8
0
 10
213.34703341119999
 20
294.34840777577398
 30
0.0
  0
VERTEX
  5
1E8EE
  8
0
 10
213.56250792739999
 20
294.41848630707409
 30
0.0
  0
VERTEX
  5
1E8EF
  8
0
 10
213.61292228100001
 20
294.44848234457402
 30
0.0
  0
SEQEND
  5
1E8F0
  8
0
  0
ARC
  5
1DB74
  8
0
 10
226.74281202404799
 20
287.37900901268131
 30
0.0
 40
10.086805469071709
 50
50.682677631163571
 51
83.731990988959154
  0
ARC
  5
1DB75
  8
0
 10
229.17630654789991
 20
291.98885313777402
 30
0.0
 40
5.0856055675235803
 50
0.1201604521000888
 51
38.903282660901063
  0
ARC
  5
1DB76
  8
0
 10
224.64934520940639
 20
291.9306666377899
 30
0.0
 40
5.7158287420596343
 50
0.6901760583667828
 51
85.462670347691983
  0
ARC
  5
1DBA4
  8
0
 10
227.6196780457
 20
291.49506728737413
 30
0.0
 40
5.4009622690394918
 50
5.359252815300164
 51
91.443920964626386
  0
LINE
  5
1DBA8
  8
0
 10
252.64999976149991
 20
286.69967859937412
 30
0.0
 11
257.34999976149987
 21
286.69967859937412
 31
0.0
  0
LINE
  5
1DBA9
  8
0
 10
257.34999974486942
 20
297.29967859937409
 30
0.0
 11
252.64999976149991
 21
297.29967859937409
 31
0.0
  0
LINE
  5
1DBAA
  8
0
 10
217.3907525451298
 20
299.29967859936858
 30
0.0
 11
212.69075022440049
 21
299.29967859937398
 31
0.0
  0
LINE
  5
1DBAB
  8
0
 10
212.6907456637214
 20
284.69967859939482
 30
0.0
 11
217.39075022439999
 21
284.69967859937401
 31
0.0
  0
LINE
  5
1DBAC
  8
0
 10
244.87799329789539
 20
299.29967859936858
 30
0.0
 11
240.17799097739999
 21
299.29967859937398
 31
0.0
  0
LINE
  5
1DBAD
  8
0
 10
240.17799097739999
 20
284.69967859937401
 30
0.0
 11
244.8779909774
 21
284.69967859937401
 31
0.0
  0
LINE
  5
1DBAF
  8
0
 10
247.52799123520001
 20
293.499678612374
 30
0.0
 11
237.5279895960999
 21
293.499678612374
 31
0.0
  0
LINE
  5
1DBB0
  8
0
 10
237.5279895960999
 20
290.499678586274
 30
0.0
 11
247.52799123520001
 21
290.499678586274
 31
0.0
  0
LINE
  5
1DBB1
  8
0
 10
238.5776907204999
 20
289.999678504374
 30
0.0
 11
238.63681107749991
 21
289.999678504374
 31
0.0
  0
LINE
  5
1DBB4
  8
0
 10
233.8270985132867
 20
289.95295258333852
 30
0.0
 11
234.02922302479999
 21
289.91056583517411
 31
0.0
  0
LINE
  5
1DBB5
  8
0
 10
234.26257520909999
 20
291.85115722687408
 30
0.0
 11
238.22994232169989
 21
290.08879140647412
 31
0.0
  0
LINE
  5
1DBB7
  8
0
 10
237.99659013739989
 20
288.14819991277409
 30
0.0
 11
234.02922302479999
 21
289.91056583517411
 31
0.0
  0
LINE
  5
1DBB8
  8
0
 10
238.16498070950001
 20
288.08146529527397
 30
0.0
 11
237.99659013739989
 21
288.14819991277409
 31
0.0
  0
ARC
  5
1DBB9
  8
0
 10
238.62654226759989
 20
289.29417320867401
 30
0.0
 40
1.2975744892864991
 50
249.1629719483993
 51
255.6741914749999
  0
LINE
  5
1DBBA
  8
0
 10
238.30547630779989
 20
288.03694761047399
 30
0.0
 11
238.63681107749991
 21
287.99967840937398
 31
0.0
  0
LINE
  5
1DBBB
  8
0
 10
231.9799579234967
 20
287.99967840937398
 30
0.0
 11
260.0000023840999
 21
287.99967840937398
 31
0.0
  0
LINE
  5
1DBBC
  8
0
 10
238.33873197429989
 20
290.04875047287402
 30
0.0
 11
238.22994232169989
 21
290.08879140647412
 31
0.0
  0
ARC
  5
1DBBE
  8
0
 10
238.6155691422
 20
290.77606079347407
 30
0.0
 40
0.7782153429402894
 50
249.1616022732984
 51
255.67546683160069
  0
LINE
  5
1DBC0
  8
0
 10
238.63681107749991
 20
289.999678504374
 30
0.0
 11
238.4230278432
 21
290.0220402578741
 31
0.0
  0
LINE
  5
1DBC1
  8
0
 10
238.63681107749991
 20
287.99967840937398
 30
0.0
 11
238.63681107749991
 21
289.999678504374
 31
0.0
  0
LINE
  5
1DBCA
  8
0
 10
155.00075072049989
 20
295.99967878937412
 30
0.0
 11
155.00075072049989
 21
287.99967840937398
 31
0.0
  0
LINE
  5
1DBCB
  8
0
 10
155.50074987109991
 20
296.49967840567399
 30
0.0
 11
155.50074987109991
 21
287.499678793074
 31
0.0
  0
ARC
  5
1DBCC
  8
0
 10
234.3744769443999
 20
298.00131124437411
 30
0.0
 40
2.9983669790826131
 50
29.981989789699849
 51
89.994973755900503
  0
LINE
  5
1DBCD
  8
0
 10
237.54869103429999
 20
298.49967873347401
 30
0.0
 11
236.97161003939991
 21
299.499678431674
 31
0.0
  0
ARC
  5
1DBCE
  8
0
 10
238.41440451029999
 20
298.999138384074
 30
0.0
 40
0.9994597365816771
 50
209.98211448660129
 51
269.99483365149928
  0
LINE
  5
1DBCF
  8
0
 10
248.0277612805001
 20
297.99967865147403
 30
0.0
 11
238.41431438919989
 21
297.99967865147403
 31
0.0
  0
ARC
  5
1DBD0
  8
0
 10
238.41457816970001
 20
298.99804705577412
 30
0.0
 40
2.9983682780326002
 50
209.9820041241997
 51
269.99495942139839
  0
LINE
  5
1DBD1
  8
0
 10
235.2403633296
 20
298.49967873347401
 30
0.0
 11
235.81744432439999
 21
297.49967856957397
 31
0.0
  0
ARC
  5
1DBD2
  8
0
 10
234.3746488028001
 20
298.00021726367402
 30
0.0
 40
0.9994615559586083
 50
29.98217471899936
 51
89.994773419101065
  0
LINE
  5
1DBD3
  8
0
 10
223.99835735549991
 20
298.99967881547411
 30
0.0
 11
234.37473997469999
 21
298.99967881547411
 31
0.0
  0
ARC
  5
1DBD4
  8
0
 10
223.9984485274999
 20
298.00021726367402
 30
0.0
 40
0.9994615559586083
 50
90.00522658089892
 51
150.0178252810006
  0
LINE
  5
1DBD5
  8
0
 10
222.73853727683689
 20
297.81659081804628
 30
0.0
 11
223.13273400060001
 21
298.49967873347401
 31
0.0
  0
ARC
  5
1DBD6
  8
0
 10
219.95869580780001
 20
298.99912676207401
 30
0.0
 40
0.9994481140180248
 50
281.94268374918789
 51
330.0182702963013
  0
LINE
  5
1DBD7
  8
0
 10
221.40148729079999
 20
299.499678431674
 30
0.0
 11
220.8244025706999
 21
298.49967873347401
 31
0.0
  0
ARC
  5
1DBD8
  8
0
 10
223.9986203858
 20
298.00131124437411
 30
0.0
 40
2.9983669790826131
 50
90.005026244099483
 51
150.0180102103001
  0
LINE
  5
1DBD9
  8
0
 10
234.37473997469999
 20
300.99967821197401
 30
0.0
 11
223.69377017013059
 21
300.99967821191962
 31
0.0
  0
ARC
  5
1DBDA
  8
0
 10
219.65410402579991
 20
298.99914116927403
 30
0.0
 40
0.999462521980485
 50
286.2728224086888
 51
330.01779329999943
  0
LINE
  5
1DBDB
  8
0
 10
220.5198191106
 20
298.49967873347401
 30
0.0
 11
221.09690010540001
 21
299.499678431674
 31
0.0
  0
ARC
  5
1DBDC
  8
0
 10
223.69403320040001
 20
298.00131124437411
 30
0.0
 40
2.9983669790826131
 50
90.005026244099483
 51
150.0180102103001
  0
ARC
  5
1DBDE
  8
0
 10
234.07006161739989
 20
298.00021726367402
 30
0.0
 40
0.9994615559586083
 50
29.98217471899936
 51
89.994773419101065
  0
LINE
  5
1DBDF
  8
0
 10
234.93577614419999
 20
298.49967873347401
 30
0.0
 11
235.51285713909991
 21
297.49967856957397
 31
0.0
  0
ARC
  5
1DBE0
  8
0
 10
238.10999098429991
 20
298.99804705577412
 30
0.0
 40
2.9983682780326002
 50
209.9820041241997
 51
269.99495942139839
  0
ARC
  5
1DBE2
  8
0
 10
223.9986203858
 20
285.99804595437411
 30
0.0
 40
2.9983669790826371
 50
209.9819897896999
 51
269.99497375590062
  0
LINE
  5
1DBE3
  8
0
 10
220.8244025706999
 20
285.49967846527397
 30
0.0
 11
221.40148729079999
 21
284.49967876697411
 31
0.0
  0
ARC
  5
1DBE4
  8
0
 10
219.95869580780001
 20
285.00023043667397
 30
0.0
 40
0.9994481140180143
 50
29.981729703698729
 51
78.057316252719545
  0
LINE
  5
1DBE5
  8
0
 10
222.73853632509821
 20
286.18276630497729
 30
0.0
 11
223.13273400060001
 21
285.49967846527397
 31
0.0
  0
ARC
  5
1DBE6
  8
0
 10
223.9984485274999
 20
285.99913993507403
 30
0.0
 40
0.9994615559586083
 50
209.98217471899989
 51
269.99477341910108
  0
LINE
  5
1DBE7
  8
0
 10
234.37473997469999
 20
284.99967838327399
 30
0.0
 11
223.99835735549991
 21
284.99967838327399
 31
0.0
  0
ARC
  5
1DBE8
  8
0
 10
234.3746488028001
 20
285.99913993507403
 30
0.0
 40
0.9994615559586083
 50
270.00522658089892
 51
330.01782528100011
  0
LINE
  5
1DBE9
  8
0
 10
235.2403633296
 20
285.49967846527397
 30
0.0
 11
235.81744432439999
 21
286.49967862917413
 31
0.0
  0
ARC
  5
1DBEA
  8
0
 10
238.41457816970001
 20
285.00131014297398
 30
0.0
 40
2.99836827803257
 50
90.005040578598326
 51
150.01799587580021
  0
LINE
  5
1DBEB
  8
0
 10
238.41431438919989
 20
285.99967854717403
 30
0.0
 11
248.0277612804999
 21
285.99967854717403
 31
0.0
  0
ARC
  5
1DBEC
  8
0
 10
238.41440451029999
 20
285.00021881467399
 30
0.0
 40
0.9994597365817016
 50
90.005166348500651
 51
150.0178855133986
  0
LINE
  5
1DBED
  8
0
 10
236.97161003939991
 20
284.49967876697411
 30
0.0
 11
237.54869103429999
 21
285.49967846527397
 31
0.0
  0
ARC
  5
1DBEE
  8
0
 10
234.3744769443999
 20
285.99804595437411
 30
0.0
 40
2.9983669790826371
 50
270.00502624409938
 51
330.01801021030008
  0
LINE
  5
1DBEF
  8
0
 10
223.99835735549991
 20
282.99967898677397
 30
0.0
 11
234.37473997469999
 21
282.99967898677397
 31
0.0
  0
ARC
  5
1DBF0
  8
0
 10
219.65410402579991
 20
285.00021602947402
 30
0.0
 40
0.9994625219804612
 50
29.982206700000091
 51
73.727177592023821
  0
LINE
  5
1DBF1
  8
0
 10
221.09690010540001
 20
284.49967876697411
 30
0.0
 11
220.5198191106
 21
285.49967846527397
 31
0.0
  0
LINE
  5
1DBF2
  8
0
 10
223.6937701702
 20
282.99967898677397
 30
0.0
 11
223.99835735549991
 21
282.99967898677397
 31
0.0
  0
ARC
  5
1DBF3
  8
0
 10
223.69403320040001
 20
285.99804595437411
 30
0.0
 40
2.9983669790826371
 50
209.9819897896999
 51
269.99497375590062
  0
ARC
  5
1DBF4
  8
0
 10
234.07006161739989
 20
285.99913993507403
 30
0.0
 40
0.9994615559586083
 50
270.00522658089892
 51
330.01782528100011
  0
LINE
  5
1DBF5
  8
0
 10
234.93577614419999
 20
285.49967846527397
 30
0.0
 11
235.51285713909991
 21
286.49967862917413
 31
0.0
  0
ARC
  5
1DBF6
  8
0
 10
238.10999098429991
 20
285.00131014297398
 30
0.0
 40
2.99836827803257
 50
90.005040578598326
 51
150.01799587580021
  0
LINE
  5
1DBF8
  8
0
 10
234.02590751639991
 20
294.08879136357399
 30
0.0
 11
233.8268171820435
 21
294.04704040577099
 31
0.0
  0
LINE
  5
1DBFB
  8
0
 10
237.99327835439999
 20
295.85115728587402
 30
0.0
 11
234.02590751639991
 21
294.08879136357399
 31
0.0
  0
LINE
  5
1DBFD
  8
0
 10
238.22663053869999
 20
293.91056579227399
 30
0.0
 11
234.2592597007
 21
292.14819997187402
 31
0.0
  0
LINE
  5
1DBFE
  8
0
 10
238.30216079949989
 20
295.96240958817401
 30
0.0
 11
238.63349556919999
 21
295.99967878937412
 31
0.0
  0
ARC
  5
1DBFF
  8
0
 10
238.62338136609989
 20
294.70469605847398
 30
0.0
 40
1.2980855038490129
 50
104.327091534301
 51
110.8357450422987
  0
LINE
  5
1DC00
  8
0
 10
237.99327835439999
 20
295.85115728587402
 30
0.0
 11
238.16166520109999
 21
295.91789190347413
 31
0.0
  0
LINE
  5
1DC01
  8
0
 10
260.0000023840999
 20
295.99967878937412
 30
0.0
 11
231.97995792349661
 21
295.99967878937412
 31
0.0
  0
LINE
  5
1DC03
  8
0
 10
238.335416466
 20
293.95060672577398
 30
0.0
 11
238.22663053869999
 21
293.91056579227399
 31
0.0
  0
ARC
  5
1DC05
  8
0
 10
238.6125107824999
 20
293.22248485897398
 30
0.0
 40
0.7790652817630371
 50
104.32809021780049
 51
110.8348406772984
  0
LINE
  5
1DC06
  8
0
 10
238.63349556919999
 20
293.9996786943741
 30
0.0
 11
238.41971233480001
 21
293.977316940874
 31
0.0
  0
LINE
  5
1DC07
  8
0
 10
238.63349556919999
 20
293.9996786943741
 30
0.0
 11
238.63349556919999
 21
295.99967878937412
 31
0.0
  0
LINE
  5
1DC08
  8
0
 10
260.0000023840999
 20
293.9996786943741
 30
0.0
 11
238.63349556919999
 21
293.9996786943741
 31
0.0
  0
LINE
  5
1DC10
  8
0
 10
203.00000049169989
 20
283.79967855917408
 30
0.0
 11
203.00000049169989
 21
286.96176782877399
 31
0.0
  0
LINE
  5
1DC11
  8
0
 10
203.00000049169989
 20
297.05899002236578
 30
0.0
 11
203.00000049169989
 21
300.19967863957402
 31
0.0
  0
LINE
  5
1DC12
  8
0
 10
180.9999997377999
 20
300.19967863957402
 30
0.0
 11
180.9999997377999
 21
283.79967855917408
 31
0.0
  0
ARC
  5
1DC14
  8
0
 10
259.49999976150002
 20
293.49967859937402
 30
0.0
 40
0.5
 50
0.0
 51
90.0
  0
ARC
  5
1DC15
  8
0
 10
250.49999976149999
 20
293.49967859937402
 30
0.0
 40
0.5
 50
90.0
 51
180.0
  0
ARC
  5
1DC16
  8
0
 10
259.49999976150002
 20
290.49967859937402
 30
0.0
 40
0.5
 50
270.0
 51
0.0
  0
LINE
  5
1DC17
  8
0
 10
238.63681107749991
 20
289.999678504374
 30
0.0
 11
259.50000137090001
 21
289.999678504374
 31
0.0
  0
ARC
  5
1DC18
  8
0
 10
250.49999976149999
 20
290.49967859937402
 30
0.0
 40
0.5
 50
180.0
 51
270.0
  0
LINE
  5
1DC19
  8
0
 10
249.9999970197
 20
293.499678612374
 30
0.0
 11
249.9999970197
 21
290.499678586274
 31
0.0
  0
LINE
  5
1DC1C
  8
0
 10
259.0000003575999
 20
296.49967840567399
 30
0.0
 11
257.85000324239991
 21
296.49967840567399
 31
0.0
  0
LINE
  5
1DC1D
  8
0
 10
252.14999616139991
 20
296.49967840567399
 30
0.0
 11
248.0277612805001
 21
296.49967840567399
 31
0.0
  0
LINE
  5
1DC1E
  8
0
 10
236.4521853624999
 20
296.49967840567399
 30
0.0
 11
231.050599669072
 21
296.49967840567399
 31
0.0
  0
LINE
  5
1DC21
  8
0
 10
259.0000003575999
 20
287.499678793074
 30
0.0
 11
257.85000324239991
 21
287.499678793074
 31
0.0
  0
LINE
  5
1DC22
  8
0
 10
252.14999616139991
 20
287.499678793074
 30
0.0
 11
248.0277612805001
 21
287.499678793074
 31
0.0
  0
LINE
  5
1DC23
  8
0
 10
236.4521853624999
 20
287.499678793074
 30
0.0
 11
231.0505996690718
 21
287.499678793074
 31
0.0
  0
ARC
  5
1DC24
  8
0
 10
258.99999976150002
 20
295.49967859937402
 30
0.0
 40
1.0
 50
30.000000000000899
 51
90.0
  0
ARC
  5
1DC25
  8
0
 10
258.99999976150002
 20
288.49967859937402
 30
0.0
 40
1.0
 50
270.0
 51
329.99999999999909
  0
CIRCLE
  5
1DC26
  8
0
 10
233.99999976149999
 20
277.99967859937408
 30
0.0
 40
2.75
  0
CIRCLE
  5
1DC27
  8
0
 10
205.99999976149999
 20
277.99967859937408
 30
0.0
 40
2.75
  0
LINE
  5
1DC28
  8
0
 10
200.0
 20
282.99967898677397
 30
0.0
 11
200.0
 21
273.99967937417398
 31
0.0
  0
LINE
  5
1DC29
  8
0
 10
237.99999877810001
 20
271.99967904637401
 30
0.0
 11
202.0000003278
 21
271.99967904637401
 31
0.0
  0
LINE
  5
1DC2A
  8
0
 10
239.9999991059
 20
273.99967937417398
 30
0.0
 11
239.9999991059
 21
284.73243211087402
 31
0.0
  0
LINE
  5
1DC2B
  8
0
 10
239.9999991059
 20
285.96692486357398
 30
0.0
 11
239.9999991059
 21
285.99967854717403
 31
0.0
  0
LINE
  5
1DC2C
  8
0
 10
237.99999877810001
 20
311.99967815237397
 30
0.0
 11
202.0000003278
 21
311.99967815237397
 31
0.0
  0
CIRCLE
  5
1DC2D
  8
0
 10
233.99999976149999
 20
305.99967859937402
 30
0.0
 40
2.75
  0
CIRCLE
  5
1DC2E
  8
0
 10
205.99999976149999
 20
305.99967859937402
 30
0.0
 40
2.75
  0
LINE
  5
1DC2F
  8
0
 10
239.9999991059
 20
297.99967865147403
 30
0.0
 11
239.9999991059
 21
298.03243233517412
 31
0.0
  0
LINE
  5
1DC30
  8
0
 10
239.9999991059
 20
299.26692508787397
 30
0.0
 11
239.9999991059
 21
309.99967782447402
 31
0.0
  0
LINE
  5
1DC31
  8
0
 10
200.0
 20
309.99967782447402
 30
0.0
 11
200.0
 21
300.99967821197401
 31
0.0
  0
ARC
  5
1DC32
  8
0
 10
201.99999976149999
 20
273.99967859937408
 30
0.0
 40
2.0000000000000271
 50
180.0
 51
270.0
  0
ARC
  5
1DC33
  8
0
 10
237.99999976149999
 20
309.99967859937402
 30
0.0
 40
2.0
 50
0.0
 51
90.0
  0
ARC
  5
1DC34
  8
0
 10
237.99999976149999
 20
273.99967859937408
 30
0.0
 40
2.0
 50
270.0
 51
0.0
  0
ARC
  5
1DC35
  8
0
 10
201.99999976149999
 20
309.99967859937402
 30
0.0
 40
2.0000000000000271
 50
90.0
 51
180.0
  0
LINE
  5
1DC81
  8
0
 10
56.244233250000548
 20
188.25696930289999
 30
0.0
 11
56.293239909547253
 21
187.56344690922779
 31
0.0
  0
ARC
  5
1DC84
  8
0
 10
61.802489955863336
 20
214.89673685501671
 30
0.0
 40
6.9298393967985943
 50
152.1841694859873
 51
166.96485848280651
  0
ARC
  5
1DC87
  8
0
 10
61.608271398445602
 20
216.126080963758
 30
0.0
 40
5.874326076872384
 50
89.097957361309838
 51
116.2638025436315
  0
POLYLINE
  5
1DC93
  8
0
 66
     1
 10
0.0
 20
0.0
 30
0.0
 70
   128
  0
VERTEX
  5
1E8F1
  8
0
 10
54.86251143680056
 20
214.95861336589999
 30
0.0
  0
VERTEX
  5
1E8F2
  8
0
 10
54.859563335200562
 20
215.02473726869999
 30
0.0
  0
VERTEX
  5
1E8F3
  8
0
 10
54.867744072700589
 20
215.17273932699999
 30
0.0
  0
VERTEX
  5
1E8F4
  8
0
 10
54.870551544600573
 20
215.20769372589999
 30
0.0
  0
VERTEX
  5
1E8F5
  8
0
 10
54.894352424300557
 20
215.44217094780001
 30
0.0
  0
VERTEX
  5
1E8F6
  8
0
 10
54.924628789900567
 20
215.67691266540001
 30
0.0
  0
VERTEX
  5
1E8F7
  8
0
 10
54.962467029100601
 20
215.9308880568
 30
0.0
  0
VERTEX
  5
1E8F8
  8
0
 10
54.996837488700578
 20
216.1426447332
 30
0.0
  0
VERTEX
  5
1E8F9
  8
0
 10
55.027127358500593
 20
216.3200430572
 30
0.0
  0
VERTEX
  5
1E8FA
  8
0
 10
55.047204810500602
 20
216.43573567269999
 30
0.0
  0
VERTEX
  5
1E8FB
  8
0
 10
55.051219276500547
 20
216.45975261929999
 30
0.0
  0
SEQEND
  5
1E8FC
  8
0
  0
ARC
  5
1DC94
  8
0
 10
64.839883262200601
 20
213.06904770349999
 30
0.0
 40
10.471018918480979
 50
144.24958047729879
 51
151.09432307559871
  0
POLYLINE
  5
1DC95
  8
0
 66
     1
 10
0.0
 20
0.0
 30
0.0
 70
   128
  0
VERTEX
  5
1E8FD
  8
0
 10
55.673379077953882
 20
218.13041493295239
 30
0.0
  0
VERTEX
  5
1E8FE
  8
0
 10
55.656064394300593
 20
218.09203326709999
 30
0.0
  0
VERTEX
  5
1E8FF
  8
0
 10
55.6876413518006
 20
218.1347586215
 30
0.0
  0
VERTEX
  5
1E900
  8
0
 10
55.765353235800603
 20
218.25092434890001
 30
0.0
  0
VERTEX
  5
1E901
  8
0
 10
55.790170654100557
 20
218.2884864509
 30
0.0
  0
VERTEX
  5
1E902
  8
0
 10
55.917451250700587
 20
218.48097220069999
 30
0.0
  0
VERTEX
  5
1E903
  8
0
 10
56.047926283800571
 20
218.6758533121
 30
0.0
  0
VERTEX
  5
1E904
  8
0
 10
56.197785864900602
 20
218.89764219529999
 30
0.0
  0
VERTEX
  5
1E905
  8
0
 10
56.330003868200613
 20
219.09412145620001
 30
0.0
  0
VERTEX
  5
1E906
  8
0
 10
56.435898970200583
 20
219.25587728619999
 30
0.0
  0
VERTEX
  5
1E907
  8
0
 10
56.491894274400579
 20
219.35078278190011
 30
0.0
  0
VERTEX
  5
1E908
  8
0
 10
56.498432624500587
 20
219.3773329258
 30
0.0
  0
VERTEX
  5
1E909
  8
0
 10
56.45617246570054
 20
219.33506205680001
 30
0.0
  0
VERTEX
  5
1E90A
  8
0
 10
56.36901371120058
 20
219.22357529409999
 30
0.0
  0
VERTEX
  5
1E90B
  8
0
 10
56.341921537500582
 20
219.18679922819999
 30
0.0
  0
SEQEND
  5
1E90C
  8
0
  0
POLYLINE
  5
1DC96
  8
0
 66
     1
 10
0.0
 20
0.0
 30
0.0
 70
   128
  0
VERTEX
  5
1E90D
  8
0
 10
57.942769349900573
 20
220.68024575710001
 30
0.0
  0
VERTEX
  5
1E90E
  8
0
 10
58.130995928600548
 20
220.78713178640001
 30
0.0
  0
VERTEX
  5
1E90F
  8
0
 10
58.35080784690058
 20
220.91761752970001
 30
0.0
  0
VERTEX
  5
1E910
  8
0
 10
58.566725206900571
 20
221.04981318119999
 30
0.0
  0
VERTEX
  5
1E911
  8
0
 10
58.777092582900593
 20
221.18342444300001
 30
0.0
  0
VERTEX
  5
1E912
  8
0
 10
58.931313082000599
 20
221.28826156260001
 30
0.0
  0
VERTEX
  5
1E913
  8
0
 10
59.028076100500577
 20
221.36267423629999
 30
0.0
  0
VERTEX
  5
1E914
  8
0
 10
59.05617945770058
 20
221.4008621872
 30
0.0
  0
VERTEX
  5
1E915
  8
0
 10
59.008854301100598
 20
221.3939778507
 30
0.0
  0
VERTEX
  5
1E916
  8
0
 10
58.893799874300612
 20
221.34599983699999
 30
0.0
  0
VERTEX
  5
1E917
  8
0
 10
58.846265635800592
 20
221.32311910390001
 30
0.0
  0
VERTEX
  5
1E918
  8
0
 10
58.654238562400558
 20
221.22182846070001
 30
0.0
  0
VERTEX
  5
1E919
  8
0
 10
58.43303827510055
 20
221.09284400940001
 30
0.0
  0
VERTEX
  5
1E91A
  8
0
 10
58.207280793600603
 20
220.94993069770001
 30
0.0
  0
VERTEX
  5
1E91B
  8
0
 10
58.022685674400577
 20
220.82409411670011
 30
0.0
  0
VERTEX
  5
1E91C
  8
0
 10
57.864884007100549
 20
220.70749625569999
 30
0.0
  0
VERTEX
  5
1E91D
  8
0
 10
57.768878619500583
 20
220.62669098379999
 30
0.0
  0
VERTEX
  5
1E91E
  8
0
 10
57.743389252000611
 20
220.5916434527
 30
0.0
  0
VERTEX
  5
1E91F
  8
0
 10
57.787202391200587
 20
220.60071080930001
 30
0.0
  0
VERTEX
  5
1E920
  8
0
 10
57.900308025400591
 20
220.65711915500009
 30
0.0
  0
VERTEX
  5
1E921
  8
0
 10
57.942769349900573
 20
220.68024575710001
 30
0.0
  0
SEQEND
  5
1E922
  8
0
  0
ARC
  5
1DC97
  8
0
 10
65.084947134850495
 20
188.85778757136549
 30
0.0
 40
8.8864747614063582
 50
188.37508797482451
 51
223.7054985569809
  0
POLYLINE
  5
1DC98
  8
0
 66
     1
 10
0.0
 20
0.0
 30
0.0
 70
   128
  0
VERTEX
  5
1E923
  8
0
 10
56.244233250000548
 20
188.25696930289999
 30
0.0
  0
VERTEX
  5
1E924
  8
0
 10
56.259675509600591
 20
188.15709799530001
 30
0.0
  0
VERTEX
  5
1E925
  8
0
 10
56.343762296600573
 20
188.02173398439999
 30
0.0
  0
VERTEX
  5
1E926
  8
0
 10
56.489040236300582
 20
187.98709064729999
 30
0.0
  0
VERTEX
  5
1E927
  8
0
 10
56.659838277300587
 20
188.14238868659999
 30
0.0
  0
VERTEX
  5
1E928
  8
0
 10
56.719011719700568
 20
188.35508413619999
 30
0.0
  0
VERTEX
  5
1E929
  8
0
 10
56.72782203120061
 20
188.51004317409999
 30
0.0
  0
VERTEX
  5
1E92A
  8
0
 10
56.717686447700601
 20
188.6942736805
 30
0.0
  0
VERTEX
  5
1E92B
  8
0
 10
56.687934416700557
 20
188.8984438032
 30
0.0
  0
VERTEX
  5
1E92C
  8
0
 10
56.643731053300598
 20
189.10995461050001
 30
0.0
  0
VERTEX
  5
1E92D
  8
0
 10
56.532264779700597
 20
189.526835084
 30
0.0
  0
VERTEX
  5
1E92E
  8
0
 10
56.310047953700568
 20
190.29209166769999
 30
0.0
  0
VERTEX
  5
1E92F
  8
0
 10
56.148596666200604
 20
190.98577983679999
 30
0.0
  0
VERTEX
  5
1E930
  8
0
 10
56.072727869600563
 20
191.5934920311
 30
0.0
  0
SEQEND
  5
1E931
  8
0
  0
ARC
  5
1DC99
  8
0
 10
61.757351363900568
 20
215.1268523718
 30
0.0
 40
11.066283833922389
 50
242.38384227684759
 51
269.70694830173869
  0
POLYLINE
  5
1DC9A
  8
0
 66
     1
 10
0.0
 20
0.0
 30
0.0
 70
   128
  0
VERTEX
  5
1E932
  8
0
 10
61.700914231500583
 20
199.43642020230001
 30
0.0
  0
VERTEX
  5
1E933
  8
0
 10
60.556761081700579
 20
199.49646443130001
 30
0.0
  0
VERTEX
  5
1E934
  8
0
 10
59.465103409600601
 20
199.68068376190001
 30
0.0
  0
VERTEX
  5
1E935
  8
0
 10
58.485789549900574
 20
199.9639995396
 30
0.0
  0
VERTEX
  5
1E936
  8
0
 10
57.654142938000568
 20
200.30015856029999
 30
0.0
  0
VERTEX
  5
1E937
  8
0
 10
56.973424367000582
 20
200.64201727509999
 30
0.0
  0
VERTEX
  5
1E938
  8
0
 10
56.46426088399329
 20
200.92601206543861
 30
0.0
  0
SEQEND
  5
1E939
  8
0
  0
POLYLINE
  5
1DC9B
  8
0
 66
     1
 10
0.0
 20
0.0
 30
0.0
 70
   128
  0
VERTEX
  5
1E93A
  8
0
 10
61.700750700484662
 20
194.04026526487311
 30
0.0
  0
VERTEX
  5
1E93B
  8
0
 10
60.290112252700567
 20
194.15522143250001
 30
0.0
  0
VERTEX
  5
1E93C
  8
0
 10
58.988831098500548
 20
194.4448310882
 30
0.0
  0
VERTEX
  5
1E93D
  8
0
 10
57.87295601270057
 20
194.8694583029
 30
0.0
  0
VERTEX
  5
1E93E
  8
0
 10
56.984876375100612
 20
195.37642374640001
 30
0.0
  0
VERTEX
  5
1E93F
  8
0
 10
56.347203999200588
 20
195.89837230750001
 30
0.0
  0
VERTEX
  5
1E940
  8
0
 10
55.960866249500548
 20
196.3525485248
 30
0.0
  0
VERTEX
  5
1E941
  8
0
 10
55.85658093860058
 20
196.51511088020001
 30
0.0
  0
VERTEX
  5
1E942
  8
0
 10
55.809797811700662
 20
196.57400399449989
 30
0.0
  0
SEQEND
  5
1E943
  8
0
  0
ARC
  5
1DC9C
  8
0
 10
1454.1307801567909
 20
267.89665187581397
 30
0.0
 40
1400.138739470965
 50
182.91989355363589
 51
183.1239874980152
  0
POLYLINE
  5
1DCA7
  8
0
 66
     1
 10
0.0
 20
0.0
 30
0.0
 70
   128
  0
VERTEX
  5
1E944
  8
0
 10
56.961362914987212
 20
211.38352268531401
 30
0.0
  0
VERTEX
  5
1E945
  8
0
 10
58.060465240300573
 20
211.40765920280001
 30
0.0
  0
VERTEX
  5
1E946
  8
0
 10
58.888754900000549
 20
211.3817796111
 30
0.0
  0
VERTEX
  5
1E947
  8
0
 10
59.791803568900598
 20
211.34526804090001
 30
0.0
  0
VERTEX
  5
1E948
  8
0
 10
60.743430896500563
 20
211.31609529260001
 30
0.0
  0
VERTEX
  5
1E949
  8
0
 10
61.700750700484662
 20
211.30298445487711
 30
0.0
  0
SEQEND
  5
1E94A
  8
0
  0
POLYLINE
  5
1DCAC
  8
0
 66
     1
 10
0.0
 20
0.0
 30
0.0
 70
   128
  0
VERTEX
  5
1E94B
  8
0
 10
56.961362914987149
 20
211.38352268531401
 30
0.0
  0
VERTEX
  5
1E94C
  8
0
 10
56.701995059300543
 20
211.232149601
 30
0.0
  0
VERTEX
  5
1E94D
  8
0
 10
56.626726500100567
 20
211.09875440600001
 30
0.0
  0
VERTEX
  5
1E94E
  8
0
 10
56.593936029200563
 20
210.94194948680001
 30
0.0
  0
VERTEX
  5
1E94F
  8
0
 10
56.592939979700589
 20
210.7485324145
 30
0.0
  0
VERTEX
  5
1E950
  8
0
 10
56.622583977300557
 20
210.5155192316
 30
0.0
  0
VERTEX
  5
1E951
  8
0
 10
56.713396775900613
 20
210.17534062269999
 30
0.0
  0
VERTEX
  5
1E952
  8
0
 10
56.994443851900598
 20
209.54535678030001
 30
0.0
  0
VERTEX
  5
1E953
  8
0
 10
57.409476115700613
 20
208.93686041239999
 30
0.0
  0
VERTEX
  5
1E954
  8
0
 10
57.924723810900559
 20
208.39964374900001
 30
0.0
  0
VERTEX
  5
1E955
  8
0
 10
58.590422011300582
 20
207.90978297589999
 30
0.0
  0
VERTEX
  5
1E956
  8
0
 10
59.393745008300591
 20
207.51636996869999
 30
0.0
  0
VERTEX
  5
1E957
  8
0
 10
60.18254484460055
 20
207.27625638250001
 30
0.0
  0
VERTEX
  5
1E958
  8
0
 10
61.051287198800601
 20
207.1412183345
 30
0.0
  0
VERTEX
  5
1E959
  8
0
 10
61.700750700484662
 20
207.1017325318924
 30
0.0
  0
SEQEND
  5
1E95A
  8
0
  0
ARC
  5
1DCB3
  8
0
 10
61.305251506200591
 20
206.1719135246
 30
0.0
 40
4.7543394854862404
 50
190.3062326818343
 51
274.77177781373922
  0
ARC
  5
1DCB6
  8
0
 10
61.582978795500587
 20
200.9889443221
 30
0.0
 40
5.1191047583062801
 50
180.7043894788068
 51
271.32007378219919
  0
ARC
  5
1DCC3
  8
0
 10
61.732502007800569
 20
194.9325491914
 30
0.0
 40
5.331048586396693
 50
176.6418429779005
 51
269.66046802590103
  0
ARC
  5
1DCC5
  8
0
 10
61.633541695200563
 20
188.57363022640001
 30
0.0
 40
6.5672613247934368
 50
243.0865215295004
 51
270.5877990865007
  0
LINE
  5
1DCCA
  8
0
 10
61.849272073000577
 20
181.47601336240001
 30
0.0
 11
61.771925256924533
 21
182.0063700988787
 31
0.0
  0
LINE
  5
1DCCB
  8
0
 10
63.728990845522837
 20
182.3059928583767
 30
0.0
 11
63.78986346480059
 21
181.89986571669999
 31
0.0
  0
LINE
  5
1DCCD
  8
0
 10
65.552229387100553
 20
180.85651807490001
 30
0.0
 11
64.932702619139434
 21
182.92516465599871
 31
0.0
  0
LINE
  5
1DCCE
  8
0
 10
63.78986346480059
 20
181.89986571669999
 30
0.0
 11
65.510726160700585
 21
176.15377679470001
 31
0.0
  0
LINE
  5
1DCCF
  8
0
 10
63.228905409900563
 20
176.8693137914
 30
0.0
 11
61.849272073000577
 21
181.47601336240001
 31
0.0
  0
LINE
  5
1DCD0
  8
0
 10
65.618964004700615
 20
180.5965403095
 30
0.0
 11
65.552229387100553
 21
180.85651807490001
 31
0.0
  0
ARC
  5
1DCD1
  8
0
 10
61.823833882700569
 20
179.8030006823
 30
0.0
 40
3.877204893077836
 50
7.9813323562997853
 51
11.81006260880031
  0
LINE
  5
1DCD2
  8
0
 10
65.663481689400555
 20
180.34135233609999
 30
0.0
 11
65.700750890500558
 21
179.82817869639999
 31
0.0
  0
LINE
  5
1DCD3
  8
0
 10
65.700750890500558
 20
176.0622566566
 30
0.0
 11
65.700750890500558
 21
179.82817869639999
 31
0.0
  0
ARC
  5
1DCD7
  8
0
 10
53.942623002900582
 20
153.45159167290001
 30
0.0
 40
9.3666491446715483
 50
88.420832287400145
 51
97.618962756899577
  0
LINE
  5
1DCD8
  8
0
 10
54.342869761700562
 20
162.8171825782
 30
0.0
 11
54.200750868200601
 21
162.81468337410001
 31
0.0
  0
LINE
  5
1DCD9
  8
0
 10
54.200750868200601
 20
162.34021782880001
 30
0.0
 11
54.710375237600601
 21
162.33125617729999
 31
0.0
  0
ARC
  5
1DCDA
  8
0
 10
53.942624767000552
 20
171.70334296959999
 30
0.0
 40
9.3666825229520292
 50
262.38105366720202
 51
271.57915128850038
  0
LINE
  5
1DCDC
  8
0
 10
52.700751088000573
 20
172.7309097536
 30
0.0
 11
52.700751088000573
 21
162.4193518423325
 31
0.0
  0
ARC
  5
1DCDD
  8
0
 10
53.884799966700598
 20
163.96241262710001
 30
0.0
 40
8.8480796563316613
 50
88.653710572199628
 51
97.690384294299704
  0
ARC
  5
1DCDE
  8
0
 10
69.458876634100591
 20
171.70334296959999
 30
0.0
 40
9.3666825229520292
 50
268.42084871149962
 51
277.61894633279809
  0
LINE
  5
1DCDF
  8
0
 10
68.691126163500599
 20
162.33125617729999
 30
0.0
 11
69.200750532900599
 21
162.34021782880001
 31
0.0
  0
LINE
  5
1DCE0
  8
0
 10
69.200750532900599
 20
162.81468337410001
 30
0.0
 11
69.058631639300586
 21
162.8171825782
 31
0.0
  0
ARC
  5
1DCE1
  8
0
 10
69.458878398200554
 20
153.45159167290001
 30
0.0
 40
9.3666491446715483
 50
82.381037243100408
 51
91.579167712599883
  0
LINE
  5
1DCE3
  8
0
 10
70.700750313100571
 20
162.4193518423325
 30
0.0
 11
70.700750313100571
 21
172.7309097536
 31
0.0
  0
ARC
  5
1DCE4
  8
0
 10
69.516701434400602
 20
163.96241262710001
 30
0.0
 40
8.8480796563316613
 50
82.309615705700296
 51
91.346289427800386
  0
LINE
  5
1DCE5
  8
0
 10
59.671802693451809
 20
182.30621437956609
 30
0.0
 11
59.611637936300554
 21
181.904809177
 31
0.0
  0
LINE
  5
1DCE6
  8
0
 10
61.552229328100559
 20
181.48095682269999
 30
0.0
 11
61.628855314826353
 21
182.0063705737011
 31
0.0
  0
LINE
  5
1DCE8
  8
0
 10
59.611637936300554
 20
181.904809177
 30
0.0
 11
57.889053690600569
 21
176.152972132
 31
0.0
  0
LINE
  5
1DCE9
  8
0
 10
57.849272014000583
 20
180.86146153510001
 30
0.0
 11
58.467688918413671
 21
182.92640262498821
 31
0.0
  0
LINE
  5
1DCEA
  8
0
 10
61.552229328100559
 20
181.48095682269999
 30
0.0
 11
60.171034861700612
 21
176.86904463920001
 31
0.0
  0
LINE
  5
1DCEB
  8
0
 10
57.738019711700581
 20
180.3462957964
 30
0.0
 11
57.700750510500598
 21
179.83312215660001
 31
0.0
  0
ARC
  5
1DCEC
  8
0
 10
61.577667518400567
 20
179.80794414249999
 30
0.0
 40
3.8772048930777938
 50
168.18993739119969
 51
172.01866764370021
  0
LINE
  5
1DCED
  8
0
 10
57.849272014000583
 20
180.86146153510001
 30
0.0
 11
57.782537396400578
 21
180.6014837697
 31
0.0
  0
LINE
  5
1DCEE
  8
0
 10
57.700750510500598
 20
179.83312215660001
 30
0.0
 11
57.700750510500598
 21
176.0622566566
 31
0.0
  0
ARC
  5
1DCF2
  8
0
 10
61.700750700484662
 20
167.99999922520479
 30
0.0
 40
8.9999999999954898
 50
302.73922703479798
 51
237.26077296520191
  0
ARC
  5
1DCF3
  8
0
 10
56.400750700500559
 20
159.75682022679999
 30
0.0
 40
0.8000000000000092
 50
0.0
 51
57.260772965100841
  0
LINE
  5
1DCF6
  8
0
 10
57.200750700500571
 20
159.75682022679999
 30
0.0
 11
57.200750397219622
 21
149.9999997033969
 31
0.0
  0
ARC
  5
1DCFC
  8
0
 10
56.400750700500559
 20
155.7999992252
 30
0.0
 40
0.7999999999999972
 50
270.0
 51
0.0
  0
ARC
  5
1DCFD
  8
0
 10
67.000750700500589
 20
155.7999992252
 30
0.0
 40
0.7999999999999972
 50
180.0
 51
270.0
  0
ARC
  5
1DD01
  8
0
 10
80.900750700500566
 20
154.1999992252
 30
0.0
 40
0.8000000000000113
 50
0.0
 51
90.0
  0
ARC
  5
1DD02
  8
0
 10
42.500750700500582
 20
150.7999992252
 30
0.0
 40
0.7999999999999972
 50
180.0
 51
270.0
  0
LINE
  5
1DD03
  8
0
 10
42.500749788600622
 20
150.0
 30
0.0
 11
80.900750683838226
 21
149.99999922520001
 31
0.0
  0
ARC
  5
1DD04
  8
0
 10
42.500750700500582
 20
154.1999992252
 30
0.0
 40
0.7999999999999972
 50
90.0
 51
180.0
  0
ARC
  5
1DD06
  8
0
 10
80.900750700500566
 20
150.7999992252
 30
0.0
 40
0.7999999999999972
 50
270.0
 51
0.0
  0
LINE
  5
1DD08
  8
0
 10
41.700751147600549
 20
154.19999938460001
 30
0.0
 11
41.700751147600549
 21
150.799998641
 31
0.0
  0
LINE
  5
1DD0A
  8
0
 10
56.400750856300583
 20
154.999998957
 30
0.0
 11
42.500750879300483
 21
154.99999922520001
 31
0.0
  0
LINE
  5
1DD0C
  8
0
 10
80.900750521700672
 20
154.99999922520001
 30
0.0
 11
67.000750544800553
 21
154.999998957
 31
0.0
  0
LINE
  5
1DD0D
  8
0
 10
81.700750253500587
 20
154.19999938460001
 30
0.0
 11
81.700750253500587
 21
150.799998641
 31
0.0
  0
ARC
  5
1DD65
  8
0
 10
330.1135640847998
 20
216.17111069730001
 30
0.0
 40
5.8296751737108483
 50
55.881205190398539
 51
91.117778451899028
  0
ARC
  5
1DD66
  8
0
 10
330.3725302261999
 20
215.74179899009999
 30
0.0
 40
6.0569642312669449
 50
35.476109011100597
 51
60.191203423300387
  0
ARC
  5
1DD67
  8
0
 10
331.43311295769922
 20
215.469188610792
 30
0.0
 40
5.3091317921955108
 50
10.465241774931719
 51
30.051630371247711
  0
LINE
  5
1DD6A
  8
0
 10
335.40055164319978
 20
187.35514543950001
 30
0.0
 11
335.45701074589988
 21
188.26377354569999
 31
0.0
  0
POLYLINE
  5
1DD71
  8
0
 66
     1
 10
0.0
 20
0.0
 30
0.0
 70
   128
  0
VERTEX
  5
1E95B
  8
0
 10
335.04642537871541
 20
189.03034741027949
 30
0.0
  0
VERTEX
  5
1E95C
  8
0
 10
335.09442917249982
 20
189.2395444215
 30
0.0
  0
VERTEX
  5
1E95D
  8
0
 10
335.2551745175997
 20
189.80740532280001
 30
0.0
  0
VERTEX
  5
1E95E
  8
0
 10
335.41961302229981
 20
190.39029031999999
 30
0.0
  0
VERTEX
  5
1E95F
  8
0
 10
335.6354547561985
 20
191.67564451822679
 30
0.0
  0
SEQEND
  5
1E960
  8
0
  0
ARC
  5
1DD75
  8
0
 10
325.2000006257997
 20
170.34999922520001
 30
0.0
 40
0.5
 50
90.0
 51
180.0
  0
ARC
  5
1DD76
  8
0
 10
325.2000006257997
 20
165.64999922519999
 30
0.0
 40
0.5
 50
180.0
 51
270.0
  0
ARC
  5
1DD77
  8
0
 10
334.50000062579983
 20
165.64999922519999
 30
0.0
 40
0.5
 50
180.0
 51
270.0
  0
ARC
  5
1DD78
  8
0
 10
334.50000062579983
 20
170.34999922520001
 30
0.0
 40
0.5
 50
90.0
 51
180.0
  0
ARC
  5
1DD79
  8
0
 10
325.50000062579983
 20
170.34999922520001
 30
0.0
 40
0.5
 50
0.0
 51
90.0
  0
ARC
  5
1DD7A
  8
0
 10
325.50000062579983
 20
165.64999922519999
 30
0.0
 40
0.5
 50
270.0
 51
0.0
  0
ARC
  5
1DD7B
  8
0
 10
334.80000062579978
 20
165.64999922519999
 30
0.0
 40
0.5
 50
270.0
 51
0.0
  0
ARC
  5
1DD7C
  8
0
 10
334.80000062579978
 20
170.34999922520001
 30
0.0
 40
0.5
 50
0.0
 51
90.0
  0
LINE
  5
1DD7D
  8
0
 10
334.8000008537997
 20
170.84999927320001
 30
0.0
 11
334.5000004320998
 21
170.84999927320001
 31
0.0
  0
LINE
  5
1DD7E
  8
0
 10
334.5000004320998
 20
165.1499991771
 30
0.0
 11
334.8000008537997
 21
165.1499991771
 31
0.0
  0
LINE
  5
1DD7F
  8
0
 10
325.20000039779973
 20
165.1499991771
 30
0.0
 11
325.50000081949969
 21
165.1499991771
 31
0.0
  0
LINE
  5
1DD80
  8
0
 10
325.50000081949969
 20
170.84999927320001
 30
0.0
 11
325.20000039779973
 21
170.84999927320001
 31
0.0
  0
ARC
  5
1DD81
  8
0
 10
323.2000006257997
 20
169.51393888780001
 30
0.0
 40
0.5
 50
90.0
 51
180.0
  0
ARC
  5
1DD82
  8
0
 10
323.2000006257997
 20
164.81393888779999
 30
0.0
 40
0.5
 50
180.0
 51
270.0
  0
ARC
  5
1DD83
  8
0
 10
336.50000062579983
 20
164.81393888779999
 30
0.0
 40
0.5
 50
180.0
 51
270.0
  0
ARC
  5
1DD84
  8
0
 10
336.50000062579983
 20
169.51393888780001
 30
0.0
 40
0.5
 50
90.0
 51
180.0
  0
ARC
  5
1DD85
  8
0
 10
336.80000062579978
 20
164.81393888779999
 30
0.0
 40
0.5
 50
270.0
 51
0.0
  0
ARC
  5
1DD86
  8
0
 10
336.80000062579978
 20
169.51393888780001
 30
0.0
 40
0.5
 50
0.0
 51
90.0
  0
ARC
  5
1DD87
  8
0
 10
323.50000062579983
 20
169.51393888780001
 30
0.0
 40
0.5
 50
0.0
 51
90.0
  0
ARC
  5
1DD88
  8
0
 10
323.50000062579983
 20
164.81393888779999
 30
0.0
 40
0.5
 50
270.0
 51
0.0
  0
LINE
  5
1DD89
  8
0
 10
336.8000007158999
 20
170.01393889080001
 30
0.0
 11
336.50000075989982
 21
170.01393889080001
 31
0.0
  0
LINE
  5
1DD8A
  8
0
 10
336.50000075989982
 20
164.31393879469999
 30
0.0
 11
336.8000007158999
 21
164.31393879469999
 31
0.0
  0
LINE
  5
1DD8B
  8
0
 10
323.20000053559971
 20
164.31393879469999
 30
0.0
 11
323.50000049169972
 21
164.31393879469999
 31
0.0
  0
LINE
  5
1DD8C
  8
0
 10
323.50000049169972
 20
170.01393889080001
 30
0.0
 11
323.20000053559971
 21
170.01393889080001
 31
0.0
  0
LINE
  5
1DD8E
  8
0
 10
326.0000004357999
 20
161.99999917299999
 30
0.0
 11
328.0000005307997
 21
161.99999917299999
 31
0.0
  0
LINE
  5
1DD8F
  8
0
 10
334.00000081579969
 20
162.14870950209999
 30
0.0
 11
336.00000067789989
 21
162.14870950209999
 31
0.0
  0
LINE
  5
1DD90
  8
0
 10
336.00000067789989
 20
173.0015520938
 30
0.0
 11
334.00000081579969
 21
173.0015520938
 31
0.0
  0
LINE
  5
1DD91
  8
0
 10
324.00000057359978
 20
162.14870950209999
 30
0.0
 11
326.0000004357999
 21
162.14870950209999
 31
0.0
  0
LINE
  5
1DD92
  8
0
 10
326.0000004357999
 20
173.0015520938
 30
0.0
 11
324.00000057359978
 21
173.0015520938
 31
0.0
  0
LINE
  5
1DD94
  8
0
 10
332.00000072079979
 20
161.99999917299999
 30
0.0
 11
334.00000081579969
 21
161.99999917299999
 31
0.0
  0
ARC
  5
1DD95
  8
0
 10
331.50000062579983
 20
172.49999922520001
 30
0.0
 40
0.5
 50
0.0
 51
90.0
  0
ARC
  5
1DD96
  8
0
 10
328.50000062579983
 20
172.49999922520001
 30
0.0
 40
0.5
 50
90.0
 51
180.0
  0
LINE
  5
1DD97
  8
0
 10
331.5000006387998
 20
172.99999911340001
 30
0.0
 11
328.50000061269981
 21
172.99999911340001
 31
0.0
  0
POLYLINE
  5
1DD98
  8
0
 66
     1
 10
0.0
 20
0.0
 30
0.0
 70
   128
  0
VERTEX
  5
1E961
  8
0
 10
336.70391383759983
 20
216.1426447332
 30
0.0
  0
VERTEX
  5
1E962
  8
0
 10
336.71888205399978
 20
215.98209962249999
 30
0.0
  0
VERTEX
  5
1E963
  8
0
 10
336.74753139909978
 20
215.73827937249999
 30
0.0
  0
VERTEX
  5
1E964
  8
0
 10
336.77105195069981
 20
215.51727652549999
 30
0.0
  0
VERTEX
  5
1E965
  8
0
 10
336.79381394009982
 20
215.28738141060001
 30
0.0
  0
VERTEX
  5
1E966
  8
0
 10
336.8136711342998
 20
215.09332358840001
 30
0.0
  0
VERTEX
  5
1E967
  8
0
 10
336.82921164849972
 20
214.97678533199999
 30
0.0
  0
VERTEX
  5
1E968
  8
0
 10
336.83926108469967
 20
214.95655700570001
 30
0.0
  0
VERTEX
  5
1E969
  8
0
 10
336.84118799109979
 20
215.02473726869999
 30
0.0
  0
VERTEX
  5
1E96A
  8
0
 10
336.83300725359982
 20
215.17273932699999
 30
0.0
  0
VERTEX
  5
1E96B
  8
0
 10
336.83019978169978
 20
215.20769372589999
 30
0.0
  0
VERTEX
  5
1E96C
  8
0
 10
336.80639890199973
 20
215.44217094780001
 30
0.0
  0
VERTEX
  5
1E96D
  8
0
 10
336.77612253639973
 20
215.67691266540001
 30
0.0
  0
VERTEX
  5
1E96E
  8
0
 10
336.7382842971997
 20
215.9308880568
 30
0.0
  0
VERTEX
  5
1E96F
  8
0
 10
336.70391383759983
 20
216.1426447332
 30
0.0
  0
VERTEX
  5
1E970
  8
0
 10
336.67362396789969
 20
216.3200430572
 30
0.0
  0
VERTEX
  5
1E971
  8
0
 10
336.65392882369969
 20
216.43353402619999
 30
0.0
  0
SEQEND
  5
1E972
  8
0
  0
POLYLINE
  5
1DD9A
  8
0
 66
     1
 10
0.0
 20
0.0
 30
0.0
 70
   128
  0
VERTEX
  5
1E973
  8
0
 10
335.13522715489972
 20
214.99931961300001
 30
0.0
  0
VERTEX
  5
1E974
  8
0
 10
335.14470103379972
 20
214.75485116249999
 30
0.0
  0
VERTEX
  5
1E975
  8
0
 10
335.20108982169972
 20
214.49688225989999
 30
0.0
  0
VERTEX
  5
1E976
  8
0
 10
335.2874727844997
 20
214.26541507249999
 30
0.0
  0
VERTEX
  5
1E977
  8
0
 10
335.40075048049971
 20
214.05949965120001
 30
0.0
  0
VERTEX
  5
1E978
  8
0
 10
335.51196715969979
 20
213.93047049649999
 30
0.0
  0
VERTEX
  5
1E979
  8
0
 10
335.61574117459969
 20
213.87189030650001
 30
0.0
  0
VERTEX
  5
1E97A
  8
0
 10
335.70923292259982
 20
213.89313936240001
 30
0.0
  0
VERTEX
  5
1E97B
  8
0
 10
335.77303969479982
 20
213.99361789229999
 30
0.0
  0
VERTEX
  5
1E97C
  8
0
 10
335.81136641269973
 20
214.16595354680001
 30
0.0
  0
VERTEX
  5
1E97D
  8
0
 10
335.81705772499981
 20
214.23386558889999
 30
0.0
  0
VERTEX
  5
1E97E
  8
0
 10
335.81224604689982
 20
214.48132172230001
 30
0.0
  0
VERTEX
  5
1E97F
  8
0
 10
335.77469884599969
 20
214.73951041699999
 30
0.0
  0
VERTEX
  5
1E980
  8
0
 10
335.70242914549982
 20
214.9928599596
 30
0.0
  0
VERTEX
  5
1E981
  8
0
 10
335.60887918989971
 20
215.18882513049999
 30
0.0
  0
VERTEX
  5
1E982
  8
0
 10
335.49225944269972
 20
215.3301477433001
 30
0.0
  0
VERTEX
  5
1E983
  8
0
 10
335.37670419729977
 20
215.3807930649001
 30
0.0
  0
VERTEX
  5
1E984
  8
0
 10
335.27871276429983
 20
215.35216420890001
 30
0.0
  0
VERTEX
  5
1E985
  8
0
 10
335.19202572469982
 20
215.24492055179999
 30
0.0
  0
VERTEX
  5
1E986
  8
0
 10
335.14137528089992
 20
215.06258249289999
 30
0.0
  0
VERTEX
  5
1E987
  8
0
 10
335.13522715489972
 20
214.99931961300001
 30
0.0
  0
SEQEND
  5
1E988
  8
0
  0
POLYLINE
  5
1DD9B
  8
0
 66
     1
 10
0.0
 20
0.0
 30
0.0
 70
   128
  0
VERTEX
  5
1E989
  8
0
 10
335.95840781179982
 20
211.89379841089999
 30
0.0
  0
VERTEX
  5
1E98A
  8
0
 10
335.95951422299981
 20
211.64691597230001
 30
0.0
  0
VERTEX
  5
1E98B
  8
0
 10
335.98765134059983
 20
211.38235330590001
 30
0.0
  0
VERTEX
  5
1E98C
  8
0
 10
336.03485542529972
 20
211.1359886825
 30
0.0
  0
VERTEX
  5
1E98D
  8
0
 10
336.09676136819968
 20
210.91966107490001
 30
0.0
  0
VERTEX
  5
1E98E
  8
0
 10
336.15725356329972
 20
210.782968998
 30
0.0
  0
VERTEX
  5
1E98F
  8
0
 10
336.21432966729981
 20
210.71770563730001
 30
0.0
  0
VERTEX
  5
1E990
  8
0
 10
336.26457219189979
 20
210.73759868740001
 30
0.0
  0
VERTEX
  5
1E991
  8
0
 10
336.29856546589991
 20
210.8351714909
 30
0.0
  0
VERTEX
  5
1E992
  8
0
 10
336.32115143529973
 20
211.00395321849999
 30
0.0
  0
VERTEX
  5
1E993
  8
0
 10
336.32474727179971
 20
211.05966493490001
 30
0.0
  0
VERTEX
  5
1E994
  8
0
 10
336.32767348729971
 20
211.3077692688
 30
0.0
  0
VERTEX
  5
1E995
  8
0
 10
336.31342797719981
 20
211.56645715240001
 30
0.0
  0
VERTEX
  5
1E996
  8
0
 10
336.28011317169972
 20
211.82400882249999
 30
0.0
  0
VERTEX
  5
1E997
  8
0
 10
336.2327265477997
 20
212.02815100550001
 30
0.0
  0
VERTEX
  5
1E998
  8
0
 10
336.17015564059972
 20
212.17906624080001
 30
0.0
  0
VERTEX
  5
1E999
  8
0
 10
336.1045965849998
 20
212.2405782342
 30
0.0
  0
VERTEX
  5
1E99A
  8
0
 10
336.04541569199978
 20
212.2209534049
 30
0.0
  0
VERTEX
  5
1E99B
  8
0
 10
335.99257384609967
 20
212.118690461
 30
0.0
  0
VERTEX
  5
1E99C
  8
0
 10
335.96244882039969
 20
211.94847077130009
 30
0.0
  0
VERTEX
  5
1E99D
  8
0
 10
335.95840781179982
 20
211.89379841089999
 30
0.0
  0
SEQEND
  5
1E99E
  8
0
  0
POLYLINE
  5
1DD9C
  8
0
 66
     1
 10
0.0
 20
0.0
 30
0.0
 70
   128
  0
VERTEX
  5
1E99F
  8
0
 10
336.54692125689979
 20
212.5347048045
 30
0.0
  0
VERTEX
  5
1E9A0
  8
0
 10
336.53988511479969
 20
212.2893162072001
 30
0.0
  0
VERTEX
  5
1E9A1
  8
0
 10
336.54480901729971
 20
212.02556937940011
 30
0.0
  0
VERTEX
  5
1E9A2
  8
0
 10
336.55832716439983
 20
211.77817285059999
 30
0.0
  0
VERTEX
  5
1E9A3
  8
0
 10
336.57805769879968
 20
211.55378744010011
 30
0.0
  0
VERTEX
  5
1E9A4
  8
0
 10
336.59907858069982
 20
211.39828264720001
 30
0.0
  0
VERTEX
  5
1E9A5
  8
0
 10
336.61929852509979
 20
211.3200366497
 30
0.0
  0
VERTEX
  5
1E9A6
  8
0
 10
336.63755105059982
 20
211.33449077610001
 30
0.0
  0
VERTEX
  5
1E9A7
  8
0
 10
336.6518771200997
 20
211.4261068404
 30
0.0
  0
VERTEX
  5
1E9A8
  8
0
 10
336.6650241351997
 20
211.59116327769999
 30
0.0
  0
VERTEX
  5
1E9A9
  8
0
 10
336.66714103139981
 20
211.62792444230001
 30
0.0
  0
VERTEX
  5
1E9AA
  8
0
 10
336.67725705719982
 20
211.87526509169999
 30
0.0
  0
VERTEX
  5
1E9AB
  8
0
 10
336.6818726918998
 20
212.1197745204
 30
0.0
  0
VERTEX
  5
1E9AC
  8
0
 10
336.68006126949967
 20
212.38245591520001
 30
0.0
  0
VERTEX
  5
1E9AD
  8
0
 10
336.6694805136998
 20
212.60513514280001
 30
0.0
  0
VERTEX
  5
1E9AE
  8
0
 10
336.64914042869992
 20
212.76984140280001
 30
0.0
  0
VERTEX
  5
1E9AF
  8
0
 10
336.62285291769967
 20
212.84270435580009
 30
0.0
  0
VERTEX
  5
1E9B0
  8
0
 10
336.59469111999982
 20
212.83221766360001
 30
0.0
  0
VERTEX
  5
1E9B1
  8
0
 10
336.56726692979993
 20
212.73476034410001
 30
0.0
  0
VERTEX
  5
1E9B2
  8
0
 10
336.54968681929972
 20
212.57706508039999
 30
0.0
  0
VERTEX
  5
1E9B3
  8
0
 10
336.54692125689979
 20
212.5347048045
 30
0.0
  0
SEQEND
  5
1E9B4
  8
0
  0
ARC
  5
1DD9D
  8
0
 10
327.27279096325822
 20
213.31239468374511
 30
0.0
 40
9.9928088714438648
 50
28.810012281887289
 51
36.504953650754963
  0
POLYLINE
  5
1DD9F
  8
0
 66
     1
 10
0.0
 20
0.0
 30
0.0
 70
   128
  0
VERTEX
  5
1E9B5
  8
0
 10
333.6613479460998
 20
217.850522697
 30
0.0
  0
VERTEX
  5
1E9B6
  8
0
 10
333.7047906516998
 20
217.61695072059999
 30
0.0
  0
VERTEX
  5
1E9B7
  8
0
 10
333.80988737749982
 20
217.38881021740011
 30
0.0
  0
VERTEX
  5
1E9B8
  8
0
 10
333.94554405649978
 20
217.1998634935
 30
0.0
  0
VERTEX
  5
1E9B9
  8
0
 10
334.12275378769971
 20
217.02880933879999
 30
0.0
  0
VERTEX
  5
1E9BA
  8
0
 10
334.30604831499983
 20
216.9224634767001
 30
0.0
  0
VERTEX
  5
1E9BB
  8
0
 10
334.47278672079977
 20
216.88828766350011
 30
0.0
  0
VERTEX
  5
1E9BC
  8
0
 10
334.62235619489979
 20
216.9306777418
 30
0.0
  0
VERTEX
  5
1E9BD
  8
0
 10
334.72444405029978
 20
217.050497979
 30
0.0
  0
VERTEX
  5
1E9BE
  8
0
 10
334.77147211499982
 20
217.2380141914
 30
0.0
  0
VERTEX
  5
1E9BF
  8
0
 10
334.77266374219971
 20
217.3017874360001
 30
0.0
  0
VERTEX
  5
1E9C0
  8
0
 10
334.73332979899982
 20
217.5411894918
 30
0.0
  0
VERTEX
  5
1E9C1
  8
0
 10
334.6389113849998
 20
217.77532398700001
 30
0.0
  0
VERTEX
  5
1E9C2
  8
0
 10
334.49044925339979
 20
217.99388676890001
 30
0.0
  0
VERTEX
  5
1E9C3
  8
0
 10
334.32859656579978
 20
218.14457476140001
 30
0.0
  0
VERTEX
  5
1E9C4
  8
0
 10
334.14468038079991
 20
218.24628263720001
 30
0.0
  0
VERTEX
  5
1E9C5
  8
0
 10
333.95930248489981
 20
218.27536225320009
 30
0.0
  0
VERTEX
  5
1E9C6
  8
0
 10
333.81271044899972
 20
218.2255886495
 30
0.0
  0
VERTEX
  5
1E9C7
  8
0
 10
333.70516294789979
 20
218.09982284910001
 30
0.0
  0
VERTEX
  5
1E9C8
  8
0
 10
333.66132652569968
 20
217.9103657604
 30
0.0
  0
VERTEX
  5
1E9C9
  8
0
 10
333.6613479460998
 20
217.850522697
 30
0.0
  0
SEQEND
  5
1E9CA
  8
0
  0
POLYLINE
  5
1DDA0
  8
0
 66
     1
 10
0.0
 20
0.0
 30
0.0
 70
   128
  0
VERTEX
  5
1E9CB
  8
0
 10
334.95055101059972
 20
218.81419569260001
 30
0.0
  0
VERTEX
  5
1E9CC
  8
0
 10
335.03600218509968
 20
218.6025060714
 30
0.0
  0
VERTEX
  5
1E9CD
  8
0
 10
335.15788250779968
 20
218.3711133898
 30
0.0
  0
VERTEX
  5
1E9CE
  8
0
 10
335.29141460729983
 20
218.1590884924
 30
0.0
  0
VERTEX
  5
1E9CF
  8
0
 10
335.44011934839978
 20
217.960690707
 30
0.0
  0
VERTEX
  5
1E9D0
  8
0
 10
335.57196156299977
 20
217.82526522879999
 30
0.0
  0
VERTEX
  5
1E9D1
  8
0
 10
335.67961826169972
 20
217.75723770260001
 30
0.0
  0
VERTEX
  5
1E9D2
  8
0
 10
335.75797089559978
 20
217.76534393430001
 30
0.0
  0
VERTEX
  5
1E9D3
  8
0
 10
335.78871338809972
 20
217.8507201374
 30
0.0
  0
VERTEX
  5
1E9D4
  8
0
 10
335.77324272309971
 20
218.00494715569999
 30
0.0
  0
VERTEX
  5
1E9D5
  8
0
 10
335.75888498869972
 20
218.06188449269999
 30
0.0
  0
VERTEX
  5
1E9D6
  8
0
 10
335.67914608109982
 20
218.27970221640001
 30
0.0
  0
VERTEX
  5
1E9D7
  8
0
 10
335.56435824549982
 20
218.50703805690009
 30
0.0
  0
VERTEX
  5
1E9D8
  8
0
 10
335.41686655199959
 20
218.73608380560009
 30
0.0
  0
VERTEX
  5
1E9D9
  8
0
 10
335.2708505390998
 20
218.916335702
 30
0.0
  0
VERTEX
  5
1E9DA
  8
0
 10
335.1253230049997
 20
219.0532065928
 30
0.0
  0
VERTEX
  5
1E9DB
  8
0
 10
335.00926717359971
 20
219.1164806486
 30
0.0
  0
VERTEX
  5
1E9DC
  8
0
 10
334.93770760659982
 20
219.10499185329999
 30
0.0
  0
VERTEX
  5
1E9DD
  8
0
 10
334.90879050639978
 20
219.01971250779999
 30
0.0
  0
VERTEX
  5
1E9DE
  8
0
 10
334.93369593459983
 20
218.86905059220001
 30
0.0
  0
VERTEX
  5
1E9DF
  8
0
 10
334.95055101059972
 20
218.81419569260001
 30
0.0
  0
SEQEND
  5
1E9E0
  8
0
  0
POLYLINE
  5
1DDA1
  8
0
 66
     1
 10
0.0
 20
0.0
 30
0.0
 70
   128
  0
VERTEX
  5
1E9E1
  8
0
 10
336.19380238649978
 20
215.77213481070001
 30
0.0
  0
VERTEX
  5
1E9E2
  8
0
 10
336.19180143989979
 20
215.5380524695
 30
0.0
  0
VERTEX
  5
1E9E3
  8
0
 10
336.21561861779969
 20
215.27076661589999
 30
0.0
  0
VERTEX
  5
1E9E4
  8
0
 10
336.2584138213997
 20
215.01984596259999
 30
0.0
  0
VERTEX
  5
1E9E5
  8
0
 10
336.31674162289983
 20
214.79116156699999
 30
0.0
  0
VERTEX
  5
1E9E6
  8
0
 10
336.37684219699969
 20
214.63550031189999
 30
0.0
  0
VERTEX
  5
1E9E7
  8
0
 10
336.43401702109981
 20
214.5543895662
 30
0.0
  0
VERTEX
  5
1E9E8
  8
0
 10
336.48567375909983
 20
214.55986946819999
 30
0.0
  0
VERTEX
  5
1E9E9
  8
0
 10
336.52215319869981
 20
214.64806571610001
 30
0.0
  0
VERTEX
  5
1E9EA
  8
0
 10
336.54786794629968
 20
214.81021270159999
 30
0.0
  0
VERTEX
  5
1E9EB
  8
0
 10
336.55270989229979
 20
214.86923620109999
 30
0.0
  0
VERTEX
  5
1E9EC
  8
0
 10
336.55927990739968
 20
215.1046931744001
 30
0.0
  0
VERTEX
  5
1E9ED
  8
0
 10
336.5497114992998
 20
215.3602816165
 30
0.0
  0
VERTEX
  5
1E9EE
  8
0
 10
336.52085260669969
 20
215.62605500219999
 30
0.0
  0
VERTEX
  5
1E9EF
  8
0
 10
336.47546413529972
 20
215.84320962429999
 30
0.0
  0
VERTEX
  5
1E9F0
  8
0
 10
336.4128056837996
 20
216.01012125610001
 30
0.0
  0
VERTEX
  5
1E9F1
  8
0
 10
336.34567967799978
 20
216.0913102329001
 30
0.0
  0
VERTEX
  5
1E9F2
  8
0
 10
336.2855143769998
 20
216.08626991509999
 30
0.0
  0
VERTEX
  5
1E9F3
  8
0
 10
336.2312871887998
 20
215.99534302949999
 30
0.0
  0
VERTEX
  5
1E9F4
  8
0
 10
336.19914212439971
 20
215.83365425470001
 30
0.0
  0
VERTEX
  5
1E9F5
  8
0
 10
336.19380238649978
 20
215.77213481070001
 30
0.0
  0
SEQEND
  5
1E9F6
  8
0
  0
POLYLINE
  5
1DDA2
  8
0
 66
     1
 10
0.0
 20
0.0
 30
0.0
 70
   128
  0
VERTEX
  5
1E9F7
  8
0
 10
335.32171565289968
 20
200.29912665489999
 30
0.0
  0
VERTEX
  5
1E9F8
  8
0
 10
335.32783909879981
 20
200.04938691859999
 30
0.0
  0
VERTEX
  5
1E9F9
  8
0
 10
335.3656731470997
 20
199.79252442719999
 30
0.0
  0
VERTEX
  5
1E9FA
  8
0
 10
335.42355437939977
 20
199.56018179660001
 30
0.0
  0
VERTEX
  5
1E9FB
  8
0
 10
335.49862689519978
 20
199.3523068726
 30
0.0
  0
VERTEX
  5
1E9FC
  8
0
 10
335.57225772359971
 20
199.2192637176
 30
0.0
  0
VERTEX
  5
1E9FD
  8
0
 10
335.6399904860998
 20
199.15991425519999
 30
0.0
  0
VERTEX
  5
1E9FE
  8
0
 10
335.69798673679969
 20
199.18586090209999
 30
0.0
  0
VERTEX
  5
1E9FF
  8
0
 10
335.73683546099983
 20
199.2899268866
 30
0.0
  0
VERTEX
  5
1EA00
  8
0
 10
335.76099210599978
 20
199.4657196105
 30
0.0
  0
VERTEX
  5
1EA01
  8
0
 10
335.76408642519971
 20
199.51700940730001
 30
0.0
  0
VERTEX
  5
1EA02
  8
0
 10
335.76419864959968
 20
199.76887628439999
 30
0.0
  0
VERTEX
  5
1EA03
  8
0
 10
335.74478290219969
 20
200.0196292997
 30
0.0
  0
VERTEX
  5
1EA04
  8
0
 10
335.70308572789969
 20
200.2699129284
 30
0.0
  0
VERTEX
  5
1EA05
  8
0
 10
335.64573441809972
 20
200.46404898169999
 30
0.0
  0
VERTEX
  5
1EA06
  8
0
 10
335.57077040139973
 20
200.60610175139999
 30
0.0
  0
VERTEX
  5
1EA07
  8
0
 10
335.49065151429983
 20
200.66308006649999
 30
0.0
  0
VERTEX
  5
1EA08
  8
0
 10
335.41833897299978
 20
200.6367087365
 30
0.0
  0
VERTEX
  5
1EA09
  8
0
 10
335.35706539819978
 20
200.52578449250001
 30
0.0
  0
VERTEX
  5
1EA0A
  8
0
 10
335.3252509533998
 20
200.35166442400001
 30
0.0
  0
VERTEX
  5
1EA0B
  8
0
 10
335.32171565289968
 20
200.29912665489999
 30
0.0
  0
SEQEND
  5
1EA0C
  8
0
  0
POLYLINE
  5
1DDA3
  8
0
 66
     1
 10
0.0
 20
0.0
 30
0.0
 70
   128
  0
VERTEX
  5
1EA0D
  8
0
 10
334.32272178299979
 20
203.32576110959999
 30
0.0
  0
VERTEX
  5
1EA0E
  8
0
 10
334.3366078025997
 20
203.0788302422001
 30
0.0
  0
VERTEX
  5
1EA0F
  8
0
 10
334.40276849259982
 20
202.82947793610001
 30
0.0
  0
VERTEX
  5
1EA10
  8
0
 10
334.50227518749978
 20
202.6088736952
 30
0.0
  0
VERTEX
  5
1EA11
  8
0
 10
334.63380121809968
 20
202.4129495025
 30
0.0
  0
VERTEX
  5
1EA12
  8
0
 10
334.76575472569971
 20
202.29047313340001
 30
0.0
  0
VERTEX
  5
1EA13
  8
0
 10
334.88960712399978
 20
202.23995447159999
 30
0.0
  0
VERTEX
  5
1EA14
  8
0
 10
334.99748547739978
 20
202.2721260786
 30
0.0
  0
VERTEX
  5
1EA15
  8
0
 10
335.0687097682997
 20
202.37959697849999
 30
0.0
  0
VERTEX
  5
1EA16
  8
0
 10
335.10977410889973
 20
202.5558628142
 30
0.0
  0
VERTEX
  5
1EA17
  8
0
 10
335.11456809189991
 20
202.61443927889999
 30
0.0
  0
VERTEX
  5
1EA18
  8
0
 10
335.10548676539969
 20
202.86404117949999
 30
0.0
  0
VERTEX
  5
1EA19
  8
0
 10
335.05864962179982
 20
203.11482399709999
 30
0.0
  0
VERTEX
  5
1EA1A
  8
0
 10
334.97261497369982
 20
203.3570535481
 30
0.0
  0
VERTEX
  5
1EA1B
  8
0
 10
334.86489028849968
 20
203.53926867249999
 30
0.0
  0
VERTEX
  5
1EA1C
  8
0
 10
334.73147832969971
 20
203.66938188680001
 30
0.0
  0
VERTEX
  5
1EA1D
  8
0
 10
334.59475924439971
 20
203.7151321769
 30
0.0
  0
VERTEX
  5
1EA1E
  8
0
 10
334.47628476839992
 20
203.67911234499999
 30
0.0
  0
VERTEX
  5
1EA1F
  8
0
 10
334.37816108759978
 20
203.5611957312
 30
0.0
  0
VERTEX
  5
1EA20
  8
0
 10
334.32796140379969
 20
203.38149890310001
 30
0.0
  0
VERTEX
  5
1EA21
  8
0
 10
334.32272178299979
 20
203.32576110959999
 30
0.0
  0
SEQEND
  5
1EA22
  8
0
  0
POLYLINE
  5
1DDA4
  8
0
 66
     1
 10
0.0
 20
0.0
 30
0.0
 70
   128
  0
VERTEX
  5
1EA23
  8
0
 10
336.17466789849982
 20
204.89128828049999
 30
0.0
  0
VERTEX
  5
1EA24
  8
0
 10
336.17054260519973
 20
204.6418651939
 30
0.0
  0
VERTEX
  5
1EA25
  8
0
 10
336.17849423729979
 20
204.3813183904
 30
0.0
  0
VERTEX
  5
1EA26
  8
0
 10
336.19367013869982
 20
204.14237082010001
 30
0.0
  0
VERTEX
  5
1EA27
  8
0
 10
336.21317110199971
 20
203.92749607569999
 30
0.0
  0
VERTEX
  5
1EA28
  8
0
 10
336.23114376509977
 20
203.78611013299999
 30
0.0
  0
VERTEX
  5
1EA29
  8
0
 10
336.24630336829978
 20
203.71996760370001
 30
0.0
  0
VERTEX
  5
1EA2A
  8
0
 10
336.25907832009977
 20
203.74207720160001
 30
0.0
  0
VERTEX
  5
1EA2B
  8
0
 10
336.2695356755998
 20
203.8419038058
 30
0.0
  0
VERTEX
  5
1EA2C
  8
0
 10
336.2804307526996
 20
204.0140643716
 30
0.0
  0
VERTEX
  5
1EA2D
  8
0
 10
336.28293228519971
 20
204.06184867030001
 30
0.0
  0
VERTEX
  5
1EA2E
  8
0
 10
336.29384645439973
 20
204.31278795009999
 30
0.0
  0
VERTEX
  5
1EA2F
  8
0
 10
336.30083509899981
 20
204.56275120379999
 30
0.0
  0
VERTEX
  5
1EA30
  8
0
 10
336.30155035469983
 20
204.8173375428
 30
0.0
  0
VERTEX
  5
1EA31
  8
0
 10
336.29323783509972
 20
205.0207272172
 30
0.0
  0
VERTEX
  5
1EA32
  8
0
 10
336.27456295479988
 20
205.17113208769999
 30
0.0
  0
VERTEX
  5
1EA33
  8
0
 10
336.24870012689979
 20
205.23439124230001
 30
0.0
  0
VERTEX
  5
1EA34
  8
0
 10
336.22121074419982
 20
205.2144907415001
 30
0.0
  0
VERTEX
  5
1EA35
  8
0
 10
336.19439284499981
 20
205.10962754490001
 30
0.0
  0
VERTEX
  5
1EA36
  8
0
 10
336.17732216779967
 20
204.9406372011
 30
0.0
  0
VERTEX
  5
1EA37
  8
0
 10
336.17466789849982
 20
204.89128828049999
 30
0.0
  0
SEQEND
  5
1EA38
  8
0
  0
POLYLINE
  5
1DDA5
  8
0
 66
     1
 10
0.0
 20
0.0
 30
0.0
 70
   128
  0
VERTEX
  5
1EA39
  8
0
 10
335.52511138089972
 20
204.1669093073001
 30
0.0
  0
VERTEX
  5
1EA3A
  8
0
 10
335.52934005109978
 20
203.91801521190001
 30
0.0
  0
VERTEX
  5
1EA3B
  8
0
 10
335.56453100589988
 20
203.6608956755
 30
0.0
  0
VERTEX
  5
1EA3C
  8
0
 10
335.61945249509972
 20
203.42814326289999
 30
0.0
  0
VERTEX
  5
1EA3D
  8
0
 10
335.69150100639968
 20
203.21929603820001
 30
0.0
  0
VERTEX
  5
1EA3E
  8
0
 10
335.76267500589978
 20
203.08502167469999
 30
0.0
  0
VERTEX
  5
1EA3F
  8
0
 10
335.8284887782998
 20
203.0239082873
 30
0.0
  0
VERTEX
  5
1EA40
  8
0
 10
335.88540422909978
 20
203.04731056099999
 30
0.0
  0
VERTEX
  5
1EA41
  8
0
 10
335.92378496369969
 20
203.1491115690001
 30
0.0
  0
VERTEX
  5
1EA42
  8
0
 10
335.9478964394998
 20
203.32268774510001
 30
0.0
  0
VERTEX
  5
1EA43
  8
0
 10
335.95124035319981
 20
203.37711423639999
 30
0.0
  0
VERTEX
  5
1EA44
  8
0
 10
335.9517493209998
 20
203.62807586790009
 30
0.0
  0
VERTEX
  5
1EA45
  8
0
 10
335.93315453449981
 20
203.8802407682
 30
0.0
  0
VERTEX
  5
1EA46
  8
0
 10
335.89317751299973
 20
204.1311055422
 30
0.0
  0
VERTEX
  5
1EA47
  8
0
 10
335.83792493859983
 20
204.32747304439999
 30
0.0
  0
VERTEX
  5
1EA48
  8
0
 10
335.7658517471998
 20
204.4711388648
 30
0.0
  0
VERTEX
  5
1EA49
  8
0
 10
335.68974360069979
 20
204.52815815810001
 30
0.0
  0
VERTEX
  5
1EA4A
  8
0
 10
335.62131094929981
 20
204.5031912625
 30
0.0
  0
VERTEX
  5
1EA4B
  8
0
 10
335.56174402309972
 20
204.39507961280009
 30
0.0
  0
VERTEX
  5
1EA4C
  8
0
 10
335.52901082849968
 20
204.22032624490001
 30
0.0
  0
VERTEX
  5
1EA4D
  8
0
 10
335.52511138089972
 20
204.1669093073001
 30
0.0
  0
SEQEND
  5
1EA4E
  8
0
  0
POLYLINE
  5
1DDA6
  8
0
 66
     1
 10
0.0
 20
0.0
 30
0.0
 70
   128
  0
VERTEX
  5
1EA4F
  8
0
 10
334.88297284759977
 20
211.09187379479999
 30
0.0
  0
VERTEX
  5
1EA50
  8
0
 10
334.89100643609981
 20
210.8462281525
 30
0.0
  0
VERTEX
  5
1EA51
  8
0
 10
334.94735284889981
 20
210.5940520764
 30
0.0
  0
VERTEX
  5
1EA52
  8
0
 10
335.03409250819982
 20
210.37016958000001
 30
0.0
  0
VERTEX
  5
1EA53
  8
0
 10
335.15022331099971
 20
210.16875058420001
 30
0.0
  0
VERTEX
  5
1EA54
  8
0
 10
335.26619299489971
 20
210.0420460105
 30
0.0
  0
VERTEX
  5
1EA55
  8
0
 10
335.37484993409981
 20
209.985972941
 30
0.0
  0
VERTEX
  5
1EA56
  8
0
 10
335.47232308599968
 20
210.00965088609999
 30
0.0
  0
VERTEX
  5
1EA57
  8
0
 10
335.53877621139981
 20
210.11109426620001
 30
0.0
  0
VERTEX
  5
1EA58
  8
0
 10
335.57867872709971
 20
210.2832548321
 30
0.0
  0
VERTEX
  5
1EA59
  8
0
 10
335.58451020339982
 20
210.34936383370001
 30
0.0
  0
VERTEX
  5
1EA5A
  8
0
 10
335.57957512509978
 20
210.59752777220001
 30
0.0
  0
VERTEX
  5
1EA5B
  8
0
 10
335.54057226699979
 20
210.85319444539999
 30
0.0
  0
VERTEX
  5
1EA5C
  8
0
 10
335.46654376379979
 20
211.10020354389999
 30
0.0
  0
VERTEX
  5
1EA5D
  8
0
 10
335.37224968139981
 20
211.28830090170001
 30
0.0
  0
VERTEX
  5
1EA5E
  8
0
 10
335.25406764069982
 20
211.42447143800001
 30
0.0
  0
VERTEX
  5
1EA5F
  8
0
 10
335.13508699079978
 20
211.4731609822
 30
0.0
  0
VERTEX
  5
1EA60
  8
0
 10
335.03267456959981
 20
211.4428110421
 30
0.0
  0
VERTEX
  5
1EA61
  8
0
 10
334.94234559309967
 20
211.333462596
 30
0.0
  0
VERTEX
  5
1EA62
  8
0
 10
334.8894064239999
 20
211.15121394400001
 30
0.0
  0
VERTEX
  5
1EA63
  8
0
 10
334.88297284759977
 20
211.09187379479999
 30
0.0
  0
SEQEND
  5
1EA64
  8
0
  0
POLYLINE
  5
1DDA7
  8
0
 66
     1
 10
0.0
 20
0.0
 30
0.0
 70
   128
  0
VERTEX
  5
1EA65
  8
0
 10
335.74121593679979
 20
208.02816525110001
 30
0.0
  0
VERTEX
  5
1EA66
  8
0
 10
335.74394378059969
 20
207.78002366429999
 30
0.0
  0
VERTEX
  5
1EA67
  8
0
 10
335.77570700269968
 20
207.52035602929999
 30
0.0
  0
VERTEX
  5
1EA68
  8
0
 10
335.82675605259982
 20
207.28289484979999
 30
0.0
  0
VERTEX
  5
1EA69
  8
0
 10
335.89385505009977
 20
207.071492076
 30
0.0
  0
VERTEX
  5
1EA6A
  8
0
 10
335.95988395799981
 20
206.9364763797
 30
0.0
  0
VERTEX
  5
1EA6B
  8
0
 10
336.0213382093998
 20
206.8738281727
 30
0.0
  0
VERTEX
  5
1EA6C
  8
0
 10
336.07480776679972
 20
206.89546465879999
 30
0.0
  0
VERTEX
  5
1EA6D
  8
0
 10
336.11088021839993
 20
206.99549615390001
 30
0.0
  0
VERTEX
  5
1EA6E
  8
0
 10
336.1337036750997
 20
207.1671500802
 30
0.0
  0
VERTEX
  5
1EA6F
  8
0
 10
336.13690695909992
 20
207.22096562390001
 30
0.0
  0
VERTEX
  5
1EA70
  8
0
 10
336.13780102869993
 20
207.47089535000001
 30
0.0
  0
VERTEX
  5
1EA71
  8
0
 10
336.12076341349967
 20
207.72417038680001
 30
0.0
  0
VERTEX
  5
1EA72
  8
0
 10
336.08379782359981
 20
207.97727033499999
 30
0.0
  0
VERTEX
  5
1EA73
  8
0
 10
336.03240092459981
 20
208.17725881940009
 30
0.0
  0
VERTEX
  5
1EA74
  8
0
 10
335.9653899370997
 20
208.3240017295
 30
0.0
  0
VERTEX
  5
1EA75
  8
0
 10
335.89517845949968
 20
208.38268622760009
 30
0.0
  0
VERTEX
  5
1EA76
  8
0
 10
335.83200545229982
 20
208.35991352799999
 30
0.0
  0
VERTEX
  5
1EA77
  8
0
 10
335.77633145449983
 20
208.25437977909999
 30
0.0
  0
VERTEX
  5
1EA78
  8
0
 10
335.7451251632998
 20
208.0816604197
 30
0.0
  0
VERTEX
  5
1EA79
  8
0
 10
335.74121593679979
 20
208.02816525110001
 30
0.0
  0
SEQEND
  5
1EA7A
  8
0
  0
POLYLINE
  5
1DDA8
  8
0
 66
     1
 10
0.0
 20
0.0
 30
0.0
 70
   128
  0
VERTEX
  5
1EA7B
  8
0
 10
336.3510077743997
 20
208.7213784457
 30
0.0
  0
VERTEX
  5
1EA7C
  8
0
 10
336.34674231699978
 20
208.47312137489999
 30
0.0
  0
VERTEX
  5
1EA7D
  8
0
 10
336.35451234129971
 20
208.2114234567
 30
0.0
  0
VERTEX
  5
1EA7E
  8
0
 10
336.37005471799978
 20
207.969134301
 30
0.0
  0
VERTEX
  5
1EA7F
  8
0
 10
336.39083531869983
 20
207.7516965568
 30
0.0
  0
VERTEX
  5
1EA80
  8
0
 10
336.41108459969968
 20
207.6084367931
 30
0.0
  0
VERTEX
  5
1EA81
  8
0
 10
336.4294740295997
 20
207.54020810130001
 30
0.0
  0
VERTEX
  5
1EA82
  8
0
 10
336.4458699635997
 20
207.5602203608
 30
0.0
  0
VERTEX
  5
1EA83
  8
0
 10
336.45890056339982
 20
207.65783414250001
 30
0.0
  0
VERTEX
  5
1EA84
  8
0
 10
336.47102079529981
 20
207.8278005123
 30
0.0
  0
VERTEX
  5
1EA85
  8
0
 10
336.47342966119982
 20
207.8734390438
 30
0.0
  0
VERTEX
  5
1EA86
  8
0
 10
336.48293101409979
 20
208.12355875969999
 30
0.0
  0
VERTEX
  5
1EA87
  8
0
 10
336.48704373459969
 20
208.37213993079999
 30
0.0
  0
VERTEX
  5
1EA88
  8
0
 10
336.4841142593998
 20
208.62969532610001
 30
0.0
  0
VERTEX
  5
1EA89
  8
0
 10
336.47237633529971
 20
208.84035676720001
 30
0.0
  0
VERTEX
  5
1EA8A
  8
0
 10
336.45097547389969
 20
208.99455398320001
 30
0.0
  0
VERTEX
  5
1EA8B
  8
0
 10
336.42423021789978
 20
209.05761197210001
 30
0.0
  0
VERTEX
  5
1EA8C
  8
0
 10
336.39692756529968
 20
209.03908237819999
 30
0.0
  0
VERTEX
  5
1EA8D
  8
0
 10
336.37043981989979
 20
208.93642827869999
 30
0.0
  0
VERTEX
  5
1EA8E
  8
0
 10
336.35358381269981
 20
208.76916274429999
 30
0.0
  0
VERTEX
  5
1EA8F
  8
0
 10
336.3510077743997
 20
208.7213784457
 30
0.0
  0
SEQEND
  5
1EA90
  8
0
  0
POLYLINE
  5
1DDA9
  8
0
 66
     1
 10
0.0
 20
0.0
 30
0.0
 70
   128
  0
VERTEX
  5
1EA91
  8
0
 10
334.59106701609971
 20
207.20979347830001
 30
0.0
  0
VERTEX
  5
1EA92
  8
0
 10
334.60098839539978
 20
206.96323141459999
 30
0.0
  0
VERTEX
  5
1EA93
  8
0
 10
334.66171714659981
 20
206.7128397525
 30
0.0
  0
VERTEX
  5
1EA94
  8
0
 10
334.75488293159981
 20
206.4907975495
 30
0.0
  0
VERTEX
  5
1EA95
  8
0
 10
334.87936443829972
 20
206.29241466529999
 30
0.0
  0
VERTEX
  5
1EA96
  8
0
 10
335.00401730829981
 20
206.16859719160001
 30
0.0
  0
VERTEX
  5
1EA97
  8
0
 10
335.12103519579978
 20
206.1157725752
 30
0.0
  0
VERTEX
  5
1EA98
  8
0
 10
335.22555892539981
 20
206.14336580040001
 30
0.0
  0
VERTEX
  5
1EA99
  8
0
 10
335.29651452969989
 20
206.248318404
 30
0.0
  0
VERTEX
  5
1EA9A
  8
0
 10
335.33820471909979
 20
206.42340332270001
 30
0.0
  0
VERTEX
  5
1EA9B
  8
0
 10
335.34352350229989
 20
206.4833879471
 30
0.0
  0
VERTEX
  5
1EA9C
  8
0
 10
335.33717514199969
 20
206.73227831720001
 30
0.0
  0
VERTEX
  5
1EA9D
  8
0
 10
335.29468587779979
 20
206.98459967970001
 30
0.0
  0
VERTEX
  5
1EA9E
  8
0
 10
335.21488550299978
 20
207.2283342481
 30
0.0
  0
VERTEX
  5
1EA9F
  8
0
 10
335.11455784729981
 20
207.4115365744
 30
0.0
  0
VERTEX
  5
1EAA0
  8
0
 10
334.9891459493997
 20
207.54413828259999
 30
0.0
  0
VERTEX
  5
1EAA1
  8
0
 10
334.8597619606997
 20
207.5932040811
 30
0.0
  0
VERTEX
  5
1EAA2
  8
0
 10
334.74623606719979
 20
207.5609058142
 30
0.0
  0
VERTEX
  5
1EAA3
  8
0
 10
334.64986187589977
 20
207.44713172319999
 30
0.0
  0
VERTEX
  5
1EAA4
  8
0
 10
334.59721700469981
 20
207.26713687180001
 30
0.0
  0
VERTEX
  5
1EAA5
  8
0
 10
334.59106701609971
 20
207.20979347830001
 30
0.0
  0
SEQEND
  5
1EAA6
  8
0
  0
POLYLINE
  5
1DDAA
  8
0
 66
     1
 10
0.0
 20
0.0
 30
0.0
 70
   128
  0
VERTEX
  5
1EAA7
  8
0
 10
332.5265865697998
 20
202.24781110890001
 30
0.0
  0
VERTEX
  5
1EAA8
  8
0
 10
332.55128780559971
 20
202.0059280098001
 30
0.0
  0
VERTEX
  5
1EAA9
  8
0
 10
332.64987388809982
 20
201.7733283341
 30
0.0
  0
VERTEX
  5
1EAAA
  8
0
 10
332.79650853199979
 20
201.57569050789999
 30
0.0
  0
VERTEX
  5
1EAAB
  8
0
 10
332.9909486620997
 20
201.40870809559999
 30
0.0
  0
VERTEX
  5
1EAAC
  8
0
 10
333.18639485349968
 20
201.31465569139999
 30
0.0
  0
VERTEX
  5
1EAAD
  8
0
 10
333.37059439339993
 20
201.28912627700001
 30
0.0
  0
VERTEX
  5
1EAAE
  8
0
 10
333.53332997479981
 20
201.34063586600001
 30
0.0
  0
VERTEX
  5
1EAAF
  8
0
 10
333.6419308016998
 20
201.4606423676
 30
0.0
  0
VERTEX
  5
1EAB0
  8
0
 10
333.70222602219968
 20
201.64433270699999
 30
0.0
  0
VERTEX
  5
1EAB1
  8
0
 10
333.70822420519971
 20
201.70322209599999
 30
0.0
  0
VERTEX
  5
1EAB2
  8
0
 10
333.68748481569969
 20
201.94994807250001
 30
0.0
  0
VERTEX
  5
1EAB3
  8
0
 10
333.61017246909978
 20
202.18680202959999
 30
0.0
  0
VERTEX
  5
1EAB4
  8
0
 10
333.47365222119981
 20
202.4118803442
 30
0.0
  0
VERTEX
  5
1EAB5
  8
0
 10
333.30564651819969
 20
202.5746010244001
 30
0.0
  0
VERTEX
  5
1EAB6
  8
0
 10
333.1047253141997
 20
202.67741531140001
 30
0.0
  0
VERTEX
  5
1EAB7
  8
0
 10
332.90604906339979
 20
202.69407480960001
 30
0.0
  0
VERTEX
  5
1EAB8
  8
0
 10
332.73831227969981
 20
202.6337139309
 30
0.0
  0
VERTEX
  5
1EAB9
  8
0
 10
332.60131379769967
 20
202.49641835689999
 30
0.0
  0
VERTEX
  5
1EABA
  8
0
 10
332.53319849439981
 20
202.3070096970001
 30
0.0
  0
VERTEX
  5
1EABB
  8
0
 10
332.5265865697998
 20
202.24781110890001
 30
0.0
  0
SEQEND
  5
1EABC
  8
0
  0
POLYLINE
  5
1DDAB
  8
0
 66
     1
 10
0.0
 20
0.0
 30
0.0
 70
   128
  0
VERTEX
  5
1EABD
  8
0
 10
334.09702786419967
 20
199.4347140193
 30
0.0
  0
VERTEX
  5
1EABE
  8
0
 10
334.11371716479971
 20
199.18775707489999
 30
0.0
  0
VERTEX
  5
1EABF
  8
0
 10
334.18346577499977
 20
198.9405151457
 30
0.0
  0
VERTEX
  5
1EAC0
  8
0
 10
334.28634991119969
 20
198.72295446699999
 30
0.0
  0
VERTEX
  5
1EAC1
  8
0
 10
334.42204873259971
 20
198.52885194129999
 30
0.0
  0
VERTEX
  5
1EAC2
  8
0
 10
334.55849773429981
 20
198.4071448446
 30
0.0
  0
VERTEX
  5
1EAC3
  8
0
 10
334.68564328919979
 20
198.3582708985
 30
0.0
  0
VERTEX
  5
1EAC4
  8
0
 10
334.79548254229979
 20
198.39220084249999
 30
0.0
  0
VERTEX
  5
1EAC5
  8
0
 10
334.86790078869979
 20
198.5013127327
 30
0.0
  0
VERTEX
  5
1EAC6
  8
0
 10
334.90863450979992
 20
198.6797448248
 30
0.0
  0
VERTEX
  5
1EAC7
  8
0
 10
334.91274397069969
 20
198.73482324189999
 30
0.0
  0
VERTEX
  5
1EAC8
  8
0
 10
334.90101023759991
 20
198.98536764089999
 30
0.0
  0
VERTEX
  5
1EAC9
  8
0
 10
334.8518098628997
 20
199.23045821490001
 30
0.0
  0
VERTEX
  5
1EACA
  8
0
 10
334.76201872519971
 20
199.47241768239999
 30
0.0
  0
VERTEX
  5
1EACB
  8
0
 10
334.64799876499978
 20
199.6576651931
 30
0.0
  0
VERTEX
  5
1EACC
  8
0
 10
334.50895928959972
 20
199.78669062259999
 30
0.0
  0
VERTEX
  5
1EACD
  8
0
 10
334.36915473259978
 20
199.8290508986
 30
0.0
  0
VERTEX
  5
1EACE
  8
0
 10
334.24925859269979
 20
199.7903265059
 30
0.0
  0
VERTEX
  5
1EACF
  8
0
 10
334.15067437279981
 20
199.67010766269999
 30
0.0
  0
VERTEX
  5
1EAD0
  8
0
 10
334.10168308009969
 20
199.48946461080001
 30
0.0
  0
VERTEX
  5
1EAD1
  8
0
 10
334.09702786419967
 20
199.4347140193
 30
0.0
  0
SEQEND
  5
1EAD2
  8
0
  0
POLYLINE
  5
1DDAC
  8
0
 66
     1
 10
0.0
 20
0.0
 30
0.0
 70
   128
  0
VERTEX
  5
1EAD3
  8
0
 10
333.49467193889973
 20
213.95074725149999
 30
0.0
  0
VERTEX
  5
1EAD4
  8
0
 10
333.51425043489968
 20
213.70880827310009
 30
0.0
  0
VERTEX
  5
1EAD5
  8
0
 10
333.60340058979978
 20
213.47484514120001
 30
0.0
  0
VERTEX
  5
1EAD6
  8
0
 10
333.73430240149969
 20
213.2764995098
 30
0.0
  0
VERTEX
  5
1EAD7
  8
0
 10
333.90989954759971
 20
213.10295313600011
 30
0.0
  0
VERTEX
  5
1EAD8
  8
0
 10
334.0848973876997
 20
213.00242617730001
 30
0.0
  0
VERTEX
  5
1EAD9
  8
0
 10
334.24738570299968
 20
212.96828761699999
 30
0.0
  0
VERTEX
  5
1EADA
  8
0
 10
334.39990001909979
 20
213.00636008390001
 30
0.0
  0
VERTEX
  5
1EADB
  8
0
 10
334.50843868029972
 20
213.12104314570001
 30
0.0
  0
VERTEX
  5
1EADC
  8
0
 10
334.56909199429981
 20
213.30336257819999
 30
0.0
  0
VERTEX
  5
1EADD
  8
0
 10
334.57667528829978
 20
213.3726008237
 30
0.0
  0
VERTEX
  5
1EADE
  8
0
 10
334.56157575539982
 20
213.6181682349
 30
0.0
  0
VERTEX
  5
1EADF
  8
0
 10
334.49168185879972
 20
213.86756151920011
 30
0.0
  0
VERTEX
  5
1EAE0
  8
0
 10
334.36990724129981
 20
214.09221887589999
 30
0.0
  0
VERTEX
  5
1EAE1
  8
0
 10
334.22833736229973
 20
214.2466954887
 30
0.0
  0
VERTEX
  5
1EAE2
  8
0
 10
334.05332043019968
 20
214.354300499
 30
0.0
  0
VERTEX
  5
1EAE3
  8
0
 10
333.86727850129978
 20
214.3850117922
 30
0.0
  0
VERTEX
  5
1EAE4
  8
0
 10
333.7078800814997
 20
214.3354803324001
 30
0.0
  0
VERTEX
  5
1EAE5
  8
0
 10
333.57576079849969
 20
214.2078667879
 30
0.0
  0
VERTEX
  5
1EAE6
  8
0
 10
333.50286012699968
 20
214.0152506531
 30
0.0
  0
VERTEX
  5
1EAE7
  8
0
 10
333.49467193889973
 20
213.95074725149999
 30
0.0
  0
SEQEND
  5
1EAE8
  8
0
  0
POLYLINE
  5
1DDAD
  8
0
 66
     1
 10
0.0
 20
0.0
 30
0.0
 70
   128
  0
VERTEX
  5
1EAE9
  8
0
 10
333.15784259879979
 20
210.0643120706001
 30
0.0
  0
VERTEX
  5
1EAEA
  8
0
 10
333.17561246629981
 20
209.82173234230001
 30
0.0
  0
VERTEX
  5
1EAEB
  8
0
 10
333.26539242819968
 20
209.5871545375
 30
0.0
  0
VERTEX
  5
1EAEC
  8
0
 10
333.3996223210998
 20
209.38837677239999
 30
0.0
  0
VERTEX
  5
1EAED
  8
0
 10
333.58096805579981
 20
209.21519175180009
 30
0.0
  0
VERTEX
  5
1EAEE
  8
0
 10
333.7647457065998
 20
209.1138526798
 30
0.0
  0
VERTEX
  5
1EAEF
  8
0
 10
333.93833655109989
 20
209.080041945
 30
0.0
  0
VERTEX
  5
1EAF0
  8
0
 10
334.09730446699967
 20
209.1220892966
 30
0.0
  0
VERTEX
  5
1EAF1
  8
0
 10
334.20681961989982
 20
209.23721939329999
 30
0.0
  0
VERTEX
  5
1EAF2
  8
0
 10
334.27006713289978
 20
209.4183653593
 30
0.0
  0
VERTEX
  5
1EAF3
  8
0
 10
334.2783740646999
 20
209.4858303666
 30
0.0
  0
VERTEX
  5
1EAF4
  8
0
 10
334.2649830429998
 20
209.73212420940001
 30
0.0
  0
VERTEX
  5
1EAF5
  8
0
 10
334.19514362879983
 20
209.9794872105
 30
0.0
  0
VERTEX
  5
1EAF6
  8
0
 10
334.07040507709968
 20
210.20552292470001
 30
0.0
  0
VERTEX
  5
1EAF7
  8
0
 10
333.92200906939979
 20
210.36322936420001
 30
0.0
  0
VERTEX
  5
1EAF8
  8
0
 10
333.73783094989972
 20
210.47151610260011
 30
0.0
  0
VERTEX
  5
1EAF9
  8
0
 10
333.5448555572998
 20
210.4996792972
 30
0.0
  0
VERTEX
  5
1EAFA
  8
0
 10
333.37842378949972
 20
210.44752523310001
 30
0.0
  0
VERTEX
  5
1EAFB
  8
0
 10
333.24089165959981
 20
210.31708791860001
 30
0.0
  0
VERTEX
  5
1EAFC
  8
0
 10
333.16641798419982
 20
210.12639403349999
 30
0.0
  0
VERTEX
  5
1EAFD
  8
0
 10
333.15784259879979
 20
210.0643120706001
 30
0.0
  0
SEQEND
  5
1EAFE
  8
0
  0
POLYLINE
  5
1DDAE
  8
0
 66
     1
 10
0.0
 20
0.0
 30
0.0
 70
   128
  0
VERTEX
  5
1EAFF
  8
0
 10
332.81335522599983
 20
206.15916475660001
 30
0.0
  0
VERTEX
  5
1EB00
  8
0
 10
332.8340331482998
 20
205.91685697439999
 30
0.0
  0
VERTEX
  5
1EB01
  8
0
 10
332.9279567970998
 20
205.68323284389999
 30
0.0
  0
VERTEX
  5
1EB02
  8
0
 10
333.06826170709968
 20
205.48509210349999
 30
0.0
  0
VERTEX
  5
1EB03
  8
0
 10
333.25652903129981
 20
205.3148426116
 30
0.0
  0
VERTEX
  5
1EB04
  8
0
 10
333.44685131859978
 20
205.2170015872
 30
0.0
  0
VERTEX
  5
1EB05
  8
0
 10
333.62672835769968
 20
205.18706887959999
 30
0.0
  0
VERTEX
  5
1EB06
  8
0
 10
333.78956522039971
 20
205.23366481069999
 30
0.0
  0
VERTEX
  5
1EB07
  8
0
 10
333.90060704379971
 20
205.35170063379999
 30
0.0
  0
VERTEX
  5
1EB08
  8
0
 10
333.96347434439991
 20
205.53496256470001
 30
0.0
  0
VERTEX
  5
1EB09
  8
0
 10
333.97053050989967
 20
205.5965825916
 30
0.0
  0
VERTEX
  5
1EB0A
  8
0
 10
333.95350733019973
 20
205.84343522789999
 30
0.0
  0
VERTEX
  5
1EB0B
  8
0
 10
333.88038477109978
 20
206.08333274730001
 30
0.0
  0
VERTEX
  5
1EB0C
  8
0
 10
333.74959634799978
 20
206.3097260893
 30
0.0
  0
VERTEX
  5
1EB0D
  8
0
 10
333.58963331389981
 20
206.47226050500001
 30
0.0
  0
VERTEX
  5
1EB0E
  8
0
 10
333.39519737469982
 20
206.5787218511
 30
0.0
  0
VERTEX
  5
1EB0F
  8
0
 10
333.1990738789998
 20
206.60088360309999
 30
0.0
  0
VERTEX
  5
1EB10
  8
0
 10
333.03151963459982
 20
206.5445050598
 30
0.0
  0
VERTEX
  5
1EB11
  8
0
 10
332.89348575469978
 20
206.41068518169999
 30
0.0
  0
VERTEX
  5
1EB12
  8
0
 10
332.82115970919972
 20
206.2201030553
 30
0.0
  0
VERTEX
  5
1EB13
  8
0
 10
332.81335522599983
 20
206.15916475660001
 30
0.0
  0
SEQEND
  5
1EB14
  8
0
  0
POLYLINE
  5
1DDAF
  8
0
 66
     1
 10
0.0
 20
0.0
 30
0.0
 70
   128
  0
VERTEX
  5
1EB15
  8
0
 10
332.44880437099982
 20
220.94615325340001
 30
0.0
  0
VERTEX
  5
1EB16
  8
0
 10
332.60976298889977
 20
220.80583274369999
 30
0.0
  0
VERTEX
  5
1EB17
  8
0
 10
332.81948682099983
 20
220.6628598273
 30
0.0
  0
VERTEX
  5
1EB18
  8
0
 10
333.04180748939979
 20
220.5369524658
 30
0.0
  0
VERTEX
  5
1EB19
  8
0
 10
333.2757959998998
 20
220.42776048190001
 30
0.0
  0
VERTEX
  5
1EB1A
  8
0
 10
333.47355093989972
 20
220.36039233209999
 30
0.0
  0
VERTEX
  5
1EB1B
  8
0
 10
333.62357559789979
 20
220.33827155829999
 30
0.0
  0
VERTEX
  5
1EB1C
  8
0
 10
333.70436596859969
 20
220.3700967133
 30
0.0
  0
VERTEX
  5
1EB1D
  8
0
 10
333.70705679239973
 20
220.4440325499001
 30
0.0
  0
VERTEX
  5
1EB1E
  8
0
 10
333.6417617666998
 20
220.55789232260011
 30
0.0
  0
VERTEX
  5
1EB1F
  8
0
 10
333.61105326739971
 20
220.5951042474
 30
0.0
  0
VERTEX
  5
1EB20
  8
0
 10
333.45437896619978
 20
220.7456059754
 30
0.0
  0
VERTEX
  5
1EB21
  8
0
 10
333.2560831605997
 20
220.89331001049999
 30
0.0
  0
VERTEX
  5
1EB22
  8
0
 10
333.02031302999978
 20
221.03208079940001
 30
0.0
  0
VERTEX
  5
1EB23
  8
0
 10
332.79884289199981
 20
221.13115862020001
 30
0.0
  0
VERTEX
  5
1EB24
  8
0
 10
332.59188392379968
 20
221.19236886499999
 30
0.0
  0
VERTEX
  5
1EB25
  8
0
 10
332.43946460259991
 20
221.20252400640001
 30
0.0
  0
VERTEX
  5
1EB26
  8
0
 10
332.35775850889968
 20
221.16699963810001
 30
0.0
  0
VERTEX
  5
1EB27
  8
0
 10
332.34872980219978
 20
221.0864141584
 30
0.0
  0
VERTEX
  5
1EB28
  8
0
 10
332.41880833349978
 20
220.97855955369999
 30
0.0
  0
VERTEX
  5
1EB29
  8
0
 10
332.44880437099982
 20
220.94615325340001
 30
0.0
  0
SEQEND
  5
1EB2A
  8
0
  0
POLYLINE
  5
1DDB0
  8
0
 66
     1
 10
0.0
 20
0.0
 30
0.0
 70
   128
  0
VERTEX
  5
1EB2B
  8
0
 10
333.24543558239981
 20
182.88508765399999
 30
0.0
  0
VERTEX
  5
1EB2C
  8
0
 10
333.81989164459969
 20
183.7128527463
 30
0.0
  0
VERTEX
  5
1EB2D
  8
0
 10
334.38322422269971
 20
184.64486636219999
 30
0.0
  0
VERTEX
  5
1EB2E
  8
0
 10
334.88411790869992
 20
185.64781881869999
 30
0.0
  0
VERTEX
  5
1EB2F
  8
0
 10
335.24391156799982
 20
186.6242192686
 30
0.0
  0
VERTEX
  5
1EB30
  8
0
 10
335.40055164319978
 20
187.35514543950001
 30
0.0
  0
VERTEX
  5
1EB31
  8
0
 10
335.41914223869981
 20
187.9115510732
 30
0.0
  0
VERTEX
  5
1EB32
  8
0
 10
335.32002157709968
 20
188.38043287400001
 30
0.0
  0
VERTEX
  5
1EB33
  8
0
 10
335.11309660219979
 20
188.72958570719999
 30
0.0
  0
VERTEX
  5
1EB34
  8
0
 10
334.79751934479992
 20
188.96899335090001
 30
0.0
  0
VERTEX
  5
1EB35
  8
0
 10
334.36665180319977
 20
189.08628597859999
 30
0.0
  0
VERTEX
  5
1EB36
  8
0
 10
333.8330512325997
 20
189.0698947013
 30
0.0
  0
VERTEX
  5
1EB37
  8
0
 10
333.18297480409979
 20
188.90824876729999
 30
0.0
  0
SEQEND
  5
1EB38
  8
0
  0
ARC
  5
1DDB1
  8
0
 10
332.13497366596738
 20
186.9776980048855
 30
0.0
 40
3.562291489635188
 50
21.16314529206122
 51
80.415878335338206
  0
ARC
  5
1DDB3
  8
0
 10
54.236288504199763
 20
210.48219800710001
 30
0.0
 40
281.99625198141479
 50
356.83035610040002
 51
357.16069445189981
  0
ARC
  5
1DDD0
  8
0
 10
333.23734781609983
 20
188.71551930050001
 30
0.0
 40
0.2002525832852977
 50
105.7549329477998
 51
170.49534669970041
  0
LINE
  5
1DDD4
  8
0
 10
333.03984426139982
 20
183.571572043
 30
0.0
 11
333.03984426139982
 21
188.74858655040001
 31
0.0
  0
POLYLINE
  5
1DDD6
  8
0
 66
     1
 10
0.0
 20
0.0
 30
0.0
 70
   128
  0
VERTEX
  5
1EB39
  8
0
 10
329.99984066559978
 20
196.08117789030001
 30
0.0
  0
VERTEX
  5
1EB3A
  8
0
 10
331.06750584389982
 20
195.98124511539999
 30
0.0
  0
VERTEX
  5
1EB3B
  8
0
 10
332.34765086499971
 20
195.61133682729999
 30
0.0
  0
VERTEX
  5
1EB3C
  8
0
 10
333.03832154899982
 20
195.2648419887
 30
0.0
  0
VERTEX
  5
1EB3D
  8
0
 10
333.6426863371999
 20
194.84042152769999
 30
0.0
  0
VERTEX
  5
1EB3E
  8
0
 10
334.25722838559977
 20
194.22312229880001
 30
0.0
  0
VERTEX
  5
1EB3F
  8
0
 10
334.71243138599971
 20
193.5145385564
 30
0.0
  0
VERTEX
  5
1EB40
  8
0
 10
334.99135085559982
 20
192.750729248
 30
0.0
  0
VERTEX
  5
1EB41
  8
0
 10
335.10238499559978
 20
191.90807789569999
 30
0.0
  0
VERTEX
  5
1EB42
  8
0
 10
335.09731720379978
 20
191.56832396990001
 30
0.0
  0
SEQEND
  5
1EB43
  8
0
  0
LINE
  5
1DDF2
  8
0
 10
324.7000006257997
 20
165.64999922519999
 30
0.0
 11
324.70000078149968
 21
170.33113408840001
 31
0.0
  0
LINE
  5
1DDF4
  8
0
 10
335.30000062579978
 20
165.64999926312331
 30
0.0
 11
335.3000004700998
 21
170.33113408840001
 31
0.0
  0
LINE
  5
1DDF6
  8
0
 10
322.7000006257997
 20
164.81393888779999
 30
0.0
 11
322.70000045369977
 21
169.49507370590001
 31
0.0
  0
LINE
  5
1DDF8
  8
0
 10
337.30000062579978
 20
164.81393884588221
 30
0.0
 11
337.30000079789983
 21
169.49507370590001
 31
0.0
  0
LINE
  5
1DDFF
  8
0
 10
326.0000004357999
 20
179.82817869639999
 30
0.0
 11
328.0000005307997
 21
179.82817869639999
 31
0.0
  0
LINE
  5
1DE00
  8
0
 10
328.0000005307997
 20
179.82817869639999
 30
0.0
 11
328.0000005307997
 21
161.99999917299999
 31
0.0
  0
LINE
  5
1DE01
  8
0
 10
326.0000004357999
 20
161.99999917299999
 30
0.0
 11
326.0000004357999
 21
179.82817869639999
 31
0.0
  0
LINE
  5
1DE03
  8
0
 10
326.08178732169972
 20
180.5965403095
 30
0.0
 11
326.14852193919978
 21
180.85651807490001
 31
0.0
  0
ARC
  5
1DE04
  8
0
 10
329.87691744359972
 20
179.8030006823
 30
0.0
 40
3.8772048930777938
 50
168.18993739119969
 51
172.01866764370021
  0
LINE
  5
1DE05
  8
0
 10
326.03726963689968
 20
180.34135233609999
 30
0.0
 11
326.0000004357999
 21
179.82817869639999
 31
0.0
  0
ARC
  5
1DE06
  8
0
 10
330.32621324039968
 20
174.96349479369999
 30
0.0
 40
2.326385335995496
 50
168.19012856839981
 51
172.01875214830039
  0
LINE
  5
1DE07
  8
0
 10
328.02236228429979
 20
175.28651105239999
 30
0.0
 11
328.0000005307997
 21
174.9868542888
 31
0.0
  0
LINE
  5
1DE08
  8
0
 10
328.0000005307997
 20
179.82817869639999
 30
0.0
 11
328.02236228429979
 21
180.12783452869999
 31
0.0
  0
ARC
  5
1DE09
  8
0
 10
330.32608694869992
 20
179.80484174930001
 30
0.0
 40
2.3262570075317051
 50
168.19004677360081
 51
172.0188929439
  0
LINE
  5
1DE0A
  8
0
 10
328.04907249929971
 20
180.28094768529999
 30
0.0
 11
328.08911343289969
 21
180.4326657206
 31
0.0
  0
LINE
  5
1DE0B
  8
0
 10
328.08911343289969
 20
175.59134177870001
 30
0.0
 11
328.04907249929971
 21
175.43962374329999
 31
0.0
  0
LINE
  5
1DE0D
  8
0
 10
328.08911343289969
 20
175.59134177870001
 30
0.0
 11
329.85147925329977
 21
181.47601336240001
 31
0.0
  0
LINE
  5
1DE0E
  8
0
 10
329.85147925329977
 20
186.31733730440001
 30
0.0
 11
328.08911343289969
 21
180.4326657206
 31
0.0
  0
LINE
  5
1DE12
  8
0
 10
326.14852193919978
 20
180.85651807490001
 30
0.0
 11
327.9108878615998
 21
186.74118965869999
 31
0.0
  0
LINE
  5
1DE13
  8
0
 10
330.00000062579983
 20
187.3406726867
 30
0.0
 11
329.85147925329977
 21
186.31733730440001
 31
0.0
  0
LINE
  5
1DE14
  8
0
 10
330.00000062579983
 20
182.4944043532
 30
0.0
 11
330.00000062579983
 21
187.3406726867
 31
0.0
  0
LINE
  5
1DE15
  8
0
 10
329.85147925329977
 20
181.47601336240001
 30
0.0
 11
330.00000062579983
 21
182.4944043532
 31
0.0
  0
LINE
  5
1DE16
  8
0
 10
328.0000005307997
 20
187.33572922650001
 30
0.0
 11
327.9108878615998
 21
186.74118965869999
 31
0.0
  0
LINE
  5
1DE1A
  8
0
 10
336.00000067789989
 20
162.14870950209999
 30
0.0
 11
336.00000067790069
 21
172.2916151397396
 31
0.0
  0
ARC
  5
1DE1C
  8
0
 10
337.7581283234997
 20
181.69866992300001
 30
0.0
 40
9.3666491446715483
 50
268.42083228740012
 51
277.61896275689958
  0
LINE
  5
1DE1D
  8
0
 10
336.50000075989982
 20
172.317992989
 30
0.0
 11
337.50000045809969
 21
172.33557822189999
 31
0.0
  0
ARC
  5
1DE1E
  8
0
 10
336.41395740289983
 20
169.19695571119999
 30
0.0
 40
3.1222231100324951
 50
88.420822194900467
 51
97.618935502699486
  0
ARC
  5
1DE1F
  8
0
 10
335.24187487879971
 20
163.00761673369999
 30
0.0
 40
9.3666897884103566
 50
88.420852286500477
 51
97.618942757798294
  0
LINE
  5
1DE20
  8
0
 10
336.50000075989982
 20
172.38833438610001
 30
0.0
 11
335.50000059599972
 21
172.37074915319999
 31
0.0
  0
ARC
  5
1DE21
  8
0
 10
336.58604354419981
 20
175.50938251919999
 30
0.0
 40
3.1222339454428911
 50
268.42083818990159
 51
277.61891950779949
  0
LINE
  5
1DE22
  8
0
 10
337.0000008418998
 20
172.7309097536
 30
0.0
 11
337.0000008418998
 21
172.4147122354
 31
0.0
  0
ARC
  5
1DE23
  8
0
 10
336.58604051729981
 20
169.63618209360001
 30
0.0
 40
3.122291216442838
 50
82.381165032299137
 51
91.579077270001619
  0
LINE
  5
1DE24
  8
0
 10
335.50000059599972
 20
172.77487283580001
 30
0.0
 11
336.50000075989982
 21
172.75728760289999
 31
0.0
  0
ARC
  5
1DE25
  8
0
 10
335.24187311469967
 20
182.13797181550001
 30
0.0
 40
9.3666564098995444
 50
262.38104081800168
 51
271.57916413769988
  0
LINE
  5
1DE26
  8
0
 10
336.00000067789989
 20
172.85400684929999
 30
0.0
 11
336.00000067789989
 21
172.9992321693
 31
0.0
  0
ARC
  5
1DE27
  8
0
 10
336.41395067419973
 20
175.94853873240001
 30
0.0
 40
3.1220957985577731
 50
262.38087655509861
 51
271.5793657472982
  0
LINE
  5
1DE28
  8
0
 10
337.50000045809969
 20
172.81004376710001
 30
0.0
 11
336.50000075989982
 21
172.827629
 31
0.0
  0
ARC
  5
1DE29
  8
0
 10
337.75812655929968
 20
163.44691862639999
 30
0.0
 40
9.3666825229519883
 50
82.381053667198671
 51
91.579151288500441
  0
LINE
  5
1DE2A
  8
0
 10
339.00000023839982
 20
172.4147122354
 30
0.0
 11
339.00000023839982
 21
172.7309097536
 31
0.0
  0
ARC
  5
1DE2C
  8
0
 10
336.41395067419973
 20
159.20172286350001
 30
0.0
 40
3.1220957985577731
 50
88.420634252701745
 51
97.619123444901447
  0
LINE
  5
1DE2D
  8
0
 10
337.50000045809969
 20
162.34021782880001
 30
0.0
 11
336.50000075989982
 21
162.32263259589999
 31
0.0
  0
LINE
  5
1DE2E
  8
0
 10
339.00000023839982
 20
162.41935184229999
 30
0.0
 11
339.00000023839982
 21
172.4147122354
 31
0.0
  0
ARC
  5
1DE2F
  8
0
 10
337.75812655929968
 20
171.70334296959999
 30
0.0
 40
9.3666825229520292
 50
268.42084871149962
 51
277.61894633279809
  0
LINE
  5
1DE30
  8
0
 10
336.00000067789989
 20
172.9992321693
 30
0.0
 11
336.00000067789989
 21
173.0015520938
 31
0.0
  0
LINE
  5
1DE31
  8
0
 10
324.0000005735987
 20
172.2916151397396
 30
0.0
 11
324.00000057359978
 21
162.14870950209999
 31
0.0
  0
ARC
  5
1DE33
  8
0
 10
322.24187469219981
 20
163.44691862639999
 30
0.0
 40
9.3666825229519883
 50
88.420848711499545
 51
97.618946332801329
  0
LINE
  5
1DE34
  8
0
 10
323.50000049169972
 20
172.827629
 30
0.0
 11
322.50000079339969
 21
172.81004376710001
 31
0.0
  0
ARC
  5
1DE35
  8
0
 10
323.5860505773997
 20
175.94853873240001
 30
0.0
 40
3.1220957985577731
 50
268.42063425269851
 51
277.61912344489809
  0
LINE
  5
1DE36
  8
0
 10
324.00000057359978
 20
172.9992321693
 30
0.0
 11
324.00000057359978
 21
172.85400684929999
 31
0.0
  0
ARC
  5
1DE37
  8
0
 10
324.75812813689981
 20
182.13797181550001
 30
0.0
 40
9.3666564098995444
 50
268.42083586230012
 51
277.61895918199832
  0
LINE
  5
1DE38
  8
0
 10
324.50000065559971
 20
172.77487283580001
 30
0.0
 11
323.50000049169972
 21
172.75728760289999
 31
0.0
  0
ARC
  5
1DE39
  8
0
 10
323.41396073429968
 20
169.63618209360001
 30
0.0
 40
3.122291216442838
 50
88.420922730001621
 51
97.618834967700863
  0
LINE
  5
1DE3A
  8
0
 10
323.00000040969991
 20
172.4147122354
 30
0.0
 11
323.00000040969991
 21
172.7309097536
 31
0.0
  0
ARC
  5
1DE3B
  8
0
 10
323.41395770739967
 20
175.50938251919999
 30
0.0
 40
3.1222339454428911
 50
262.38108049220051
 51
271.57916181009841
  0
LINE
  5
1DE3C
  8
0
 10
323.50000049169972
 20
172.38833438610001
 30
0.0
 11
324.50000065559971
 21
172.37074915319999
 31
0.0
  0
ARC
  5
1DE3D
  8
0
 10
324.75812637279978
 20
163.00761673369999
 30
0.0
 40
9.3666897884103264
 50
82.381057242198423
 51
91.579147713499523
  0
ARC
  5
1DE3E
  8
0
 10
323.58604384859967
 20
169.19695571119999
 30
0.0
 40
3.1222231100324951
 50
82.3810644973005
 51
91.579177805099519
  0
LINE
  5
1DE3F
  8
0
 10
322.50000079339969
 20
172.33557822189999
 30
0.0
 11
323.50000049169972
 21
172.317992989
 31
0.0
  0
ARC
  5
1DE40
  8
0
 10
322.24187292809972
 20
181.69866992300001
 30
0.0
 40
9.3666491446715483
 50
262.38103724310042
 51
271.57916771259988
  0
LINE
  5
1DE41
  8
0
 10
321.00000101319978
 20
172.7309097536
 30
0.0
 11
321.00000101319978
 21
172.4147122354
 31
0.0
  0
ARC
  5
1DE43
  8
0
 10
323.5860505773997
 20
159.20172286350001
 30
0.0
 40
3.1220957985577731
 50
82.380876555098538
 51
91.579365747298255
  0
LINE
  5
1DE44
  8
0
 10
323.50000049169972
 20
162.32263259589999
 30
0.0
 11
322.50000079339969
 21
162.34021782880001
 31
0.0
  0
LINE
  5
1DE45
  8
0
 10
321.00000101319978
 20
172.4147122354
 30
0.0
 11
321.00000101319978
 21
162.41935184229999
 31
0.0
  0
ARC
  5
1DE46
  8
0
 10
322.24187469219981
 20
171.70334296959999
 30
0.0
 40
9.3666825229520292
 50
262.38105366720202
 51
271.57915128850038
  0
LINE
  5
1DE47
  8
0
 10
324.00000057359978
 20
173.0015520938
 30
0.0
 11
324.00000057359978
 21
172.9992321693
 31
0.0
  0
LINE
  5
1DE4E
  8
0
 10
332.00000072079979
 20
179.83312215660001
 30
0.0
 11
334.00000081579969
 21
179.83312215660001
 31
0.0
  0
LINE
  5
1DE4F
  8
0
 10
332.00000072079979
 20
161.99999917299999
 30
0.0
 11
332.00000072079979
 21
179.83312215660001
 31
0.0
  0
LINE
  5
1DE50
  8
0
 10
334.00000081579969
 20
161.99999917299999
 30
0.0
 11
334.00000081579969
 21
179.83312215660001
 31
0.0
  0
LINE
  5
1DE52
  8
0
 10
333.9627316145997
 20
180.3462957964
 30
0.0
 11
334.00000081579969
 21
179.83312215660001
 31
0.0
  0
ARC
  5
1DE53
  8
0
 10
330.12308380789977
 20
179.80794414249999
 30
0.0
 40
3.8772048930777938
 50
7.9813323562997853
 51
11.81006260880031
  0
LINE
  5
1DE54
  8
0
 10
333.85147931229972
 20
180.86146153510001
 30
0.0
 11
333.91821392989982
 21
180.6014837697
 31
0.0
  0
ARC
  5
1DE55
  8
0
 10
329.67385682809982
 20
174.96845025889999
 30
0.0
 40
2.3263155187778981
 50
7.9811903781003624
 51
11.809928905199969
  0
LINE
  5
1DE56
  8
0
 10
331.9108878186999
 20
175.59628523890001
 30
0.0
 11
331.9509287521999
 21
175.4445672036
 31
0.0
  0
LINE
  5
1DE57
  8
0
 10
331.9509287521999
 20
180.28589114549999
 30
0.0
 11
331.9108878186999
 21
180.4376091808
 31
0.0
  0
ARC
  5
1DE58
  8
0
 10
329.67391430279969
 20
179.80978520959999
 30
0.0
 40
2.3262570075317091
 50
7.9811070560999831
 51
11.809953226399159
  0
LINE
  5
1DE59
  8
0
 10
332.00000072079979
 20
179.83312215660001
 30
0.0
 11
331.9776389672997
 21
180.13277798889999
 31
0.0
  0
LINE
  5
1DE5A
  8
0
 10
331.9776389672997
 20
175.2914545127
 30
0.0
 11
332.00000072079979
 21
174.991797749
 31
0.0
  0
LINE
  5
1DE5C
  8
0
 10
331.9108878186999
 20
180.4376091808
 30
0.0
 11
330.14852199829983
 21
186.32228076460001
 31
0.0
  0
LINE
  5
1DE5D
  8
0
 10
330.14852199829983
 20
181.48095682269999
 30
0.0
 11
331.9108878186999
 21
175.59628523890001
 31
0.0
  0
LINE
  5
1DE61
  8
0
 10
333.85147931229972
 20
180.86146153510001
 30
0.0
 11
332.08911338999968
 21
186.74613311889999
 31
0.0
  0
LINE
  5
1DE62
  8
0
 10
330.14852199829983
 20
181.48095682269999
 30
0.0
 11
330.00000062579983
 21
182.49934781350001
 31
0.0
  0
LINE
  5
1DE63
  8
0
 10
330.00000062579983
 20
187.3406726867
 30
0.0
 11
330.14852199829983
 21
186.32228076460001
 31
0.0
  0
LINE
  5
1DE64
  8
0
 10
332.08911338999968
 20
186.74613311889999
 30
0.0
 11
332.00000072079979
 21
187.3406726867
 31
0.0
  0
LINE
  5
1DE65
  8
0
 10
332.00000072079979
 20
187.3406726867
 30
0.0
 11
328.0000005307997
 21
187.3406726867
 31
0.0
  0
LINE
  5
1DE67
  8
0
 10
332.00000072079979
 20
187.3406726867
 30
0.0
 11
332.00000072079979
 21
188.51935639979999
 31
0.0
  0
LINE
  5
1DE6A
  8
0
 10
334.50000065404782
 20
149.9999997033969
 30
0.0
 11
334.5000004320998
 21
160.99999900910001
 31
0.0
  0
LINE
  5
1DE70
  8
0
 10
325.5000010414476
 20
149.99999952180309
 30
0.0
 11
325.50000081949969
 21
160.99999900910001
 31
0.0
  0
ARC
  5
1DE72
  8
0
 10
333.50000062579983
 20
160.99999922520001
 30
0.0
 40
1.0
 50
0.0
 51
90.0
  0
ARC
  5
1DE73
  8
0
 10
326.50000062579983
 20
160.99999922520001
 30
0.0
 40
1.0
 50
90.0
 51
180.0
  0
ARC
  5
1DE7B
  8
0
 10
335.30000062579978
 20
155.7999992252
 30
0.0
 40
0.799999999999983
 50
180.0
 51
270.0
  0
ARC
  5
1DE7C
  8
0
 10
324.7000006257997
 20
155.7999992252
 30
0.0
 40
0.8000000000000113
 50
270.0
 51
0.0
  0
ARC
  5
1DE7F
  8
0
 10
310.8000006257999
 20
154.1999992252
 30
0.0
 40
0.7999999999999972
 50
90.0
 51
180.0
  0
ARC
  5
1DE82
  8
0
 10
349.2000006257997
 20
154.1999992252
 30
0.0
 40
0.8000000000000113
 50
0.0
 51
90.0
  0
ARC
  5
1DE83
  8
0
 10
310.8000006257999
 20
150.7999992252
 30
0.0
 40
0.7999999999999972
 50
180.0
 51
270.0
  0
ARC
  5
1DE85
  8
0
 10
349.2000006257997
 20
150.7999992252
 30
0.0
 40
0.8000000000000113
 50
270.0
 51
0.0
  0
LINE
  5
1DE86
  8
0
 10
310.80000064246218
 20
149.99999922520001
 30
0.0
 11
349.20000153769979
 21
150.0
 31
0.0
  0
LINE
  5
1DE88
  8
0
 10
349.20000044699981
 20
154.99999922520001
 30
0.0
 11
335.3000004700998
 21
154.999998957
 31
0.0
  0
LINE
  5
1DE89
  8
0
 10
310.00000107279971
 20
154.19999938460001
 30
0.0
 11
310.00000107279971
 21
150.799998641
 31
0.0
  0
LINE
  5
1DE8B
  8
0
 10
324.70000078149968
 20
154.999998957
 30
0.0
 11
310.80000080459979
 21
154.99999922520001
 31
0.0
  0
LINE
  5
1DE8C
  8
0
 10
350.00000017879972
 20
150.799998641
 30
0.0
 11
350.00000017879972
 21
154.19999938460001
 31
0.0
  0
ARC
  5
1DE93
  8
0
 10
330.00000062579983
 20
167.99999922520001
 30
0.0
 40
9.0
 50
116.3877999612001
 51
147.70844072949919
  0
ARC
  5
1DE94
  8
0
 10
330.00000062579983
 20
167.99999922520001
 30
0.0
 40
8.9999999999999876
 50
80.214016577401225
 51
99.775898609501368
  0
ARC
  5
1DE95
  8
0
 10
330.00000062579983
 20
167.99999922520001
 30
0.0
 40
9.0000000000000249
 50
32.291559270500777
 51
63.612200038799841
  0
ARC
  5
1DE99
  8
0
 10
330.04600496399979
 20
182.6149130615
 30
0.0
 40
8.3195392972166484
 50
71.192928090600887
 51
90.317945840501935
  0
POLYLINE
  5
1DE9A
  8
0
 66
     1
 10
0.0
 20
0.0
 30
0.0
 70
   128
  0
VERTEX
  5
1EB44
  8
0
 10
335.6354547561985
 20
191.67564451822651
 30
0.0
  0
VERTEX
  5
1EB45
  8
0
 10
335.53948960449981
 20
192.83581487839999
 30
0.0
  0
VERTEX
  5
1EB46
  8
0
 10
335.11018575349982
 20
193.9251344651
 30
0.0
  0
VERTEX
  5
1EB47
  8
0
 10
334.33654540399971
 20
194.8920633644
 30
0.0
  0
VERTEX
  5
1EB48
  8
0
 10
333.20985160949982
 20
195.69485783580001
 30
0.0
  0
VERTEX
  5
1EB49
  8
0
 10
332.51157108869978
 20
196.01323418320001
 30
0.0
  0
VERTEX
  5
1EB4A
  8
0
 10
331.72752216169982
 20
196.2593417615
 30
0.0
  0
VERTEX
  5
1EB4B
  8
0
 10
330.88383314149968
 20
196.41500115400001
 30
0.0
  0
VERTEX
  5
1EB4C
  8
0
 10
329.99983898409982
 20
196.47705145180001
 30
0.0
  0
SEQEND
  5
1EB4D
  8
0
  0
ARC
  5
1DF18
  8
0
 10
257.34999976149987
 20
84.800000446999974
 30
0.0
 40
0.5
 50
0.0
 51
90.0
  0
ARC
  5
1DF19
  8
0
 10
252.64999976149991
 20
84.800000446999974
 30
0.0
 40
0.5
 50
90.0
 51
180.0
  0
ARC
  5
1DF1A
  8
0
 10
252.64999976149991
 20
75.200000446999965
 30
0.0
 40
0.5
 50
180.0
 51
270.0
  0
ARC
  5
1DF1B
  8
0
 10
257.34999976149987
 20
75.200000446999965
 30
0.0
 40
0.5
 50
270.0
 51
0.0
  0
LINE
  5
1DF1C
  8
0
 10
257.85000324239991
 20
75.200000218999989
 30
0.0
 11
257.85000324239991
 21
75.50000064069998
 31
0.0
  0
LINE
  5
1DF1D
  8
0
 10
252.14999616139991
 20
75.50000064069998
 30
0.0
 11
252.14999616139991
 21
75.200000218999989
 31
0.0
  0
LINE
  5
1DF1E
  8
0
 10
252.14999616139991
 20
84.800000674999978
 30
0.0
 11
252.14999616139991
 21
84.500000253299973
 31
0.0
  0
LINE
  5
1DF1F
  8
0
 10
257.85000324239991
 20
84.500000253299973
 30
0.0
 11
257.85000324239991
 21
84.800000674999978
 31
0.0
  0
ARC
  5
1DF21
  8
0
 10
244.8779909774
 20
73.500000446999977
 30
0.0
 40
0.5
 50
0.0
 51
90.0
  0
ARC
  5
1DF23
  8
0
 10
244.8779909774
 20
73.200000446999994
 30
0.0
 40
0.5
 50
270.0
 51
0.0
  0
ARC
  5
1DF24
  8
0
 10
244.8779909774
 20
86.800000446999988
 30
0.0
 40
0.5
 50
0.0
 51
90.0
  0
ARC
  5
1DF26
  8
0
 10
244.8779909774
 20
86.500000446999977
 30
0.0
 40
0.5
 50
270.0
 51
0.0
  0
LINE
  5
1DF28
  8
0
 10
245.37799209350001
 20
73.200000356899992
 30
0.0
 11
245.37799209350001
 21
73.500000312899985
 31
0.0
  0
LINE
  5
1DF29
  8
0
 10
245.37799209350001
 20
86.500000581099982
 30
0.0
 11
245.37799209350001
 21
86.800000537199978
 31
0.0
  0
LINE
  5
1DF2B
  8
0
 10
155.50074987109991
 20
75.50000064069998
 30
0.0
 11
181.7999995678
 21
75.500000447000033
 31
0.0
  0
LINE
  5
1DF2C
  8
0
 10
181.79944305700039
 20
84.500000253299973
 30
0.0
 11
155.50074987109991
 21
84.500000253299973
 31
0.0
  0
LINE
  5
1DF2D
  8
0
 10
155.50074987109991
 20
84.500000253299973
 30
0.0
 11
155.00075072049989
 21
84.000000636999985
 31
0.0
  0
LINE
  5
1DF2E
  8
0
 10
155.00075072049989
 20
76.000000256999982
 30
0.0
 11
155.50074987109991
 21
75.50000064069998
 31
0.0
  0
LINE
  5
1DF2F
  8
0
 10
248.0277612805001
 20
74.000000394899985
 30
0.0
 11
248.0277612805001
 21
75.50000064069998
 31
0.0
  0
LINE
  5
1DF30
  8
0
 10
248.0277612805001
 20
84.500000253299973
 30
0.0
 11
248.0277612805001
 21
86.000000499199984
 31
0.0
  0
ARC
  5
1DF32
  8
0
 10
181.7999997615
 20
88.200000446999979
 30
0.0
 40
0.7999999999999972
 50
90.0
 51
180.0
  0
ARC
  5
1DF33
  8
0
 10
181.7999997615
 20
71.800000446999974
 30
0.0
 40
0.8000000000000042
 50
180.0
 51
270.0
  0
LINE
  5
1DF34
  8
0
 10
181.7999997757999
 20
71.000000834499986
 30
0.0
 11
200.0
 21
71.000000834499986
 31
0.0
  0
LINE
  5
1DF35
  8
0
 10
200.0
 20
89.000000059599984
 30
0.0
 11
181.7999997757999
 21
89.000000059599984
 31
0.0
  0
LINE
  5
1DF36
  8
0
 10
257.3503943498539
 20
85.300000291299995
 30
0.0
 11
252.64999977813039
 21
85.300000446999988
 31
0.0
  0
LINE
  5
1DF37
  8
0
 10
252.6503943498719
 20
74.700000602699987
 30
0.0
 11
257.34999974480428
 21
74.700000446999979
 31
0.0
  0
LINE
  5
1DF38
  8
0
 10
240.1779897511
 20
72.700000274899978
 30
0.0
 11
244.8591262102
 21
72.700000274899978
 31
0.0
  0
LINE
  5
1DF39
  8
0
 10
244.8591262102
 20
87.30000061909999
 30
0.0
 11
240.1779897511
 21
87.30000061909999
 31
0.0
  0
LINE
  5
1DF3A
  8
0
 10
259.86602604379988
 20
84.000000636999985
 30
0.0
 11
260.0000023840999
 21
84.000000636999985
 31
0.0
  0
LINE
  5
1DF3B
  8
0
 10
155.50074987109991
 20
84.500000253299973
 30
0.0
 11
155.50074987109991
 21
75.50000064069998
 31
0.0
  0
LINE
  5
1DF3C
  8
0
 10
155.00075072049989
 20
84.000000636999985
 30
0.0
 11
155.00075072049989
 21
76.000000256999982
 31
0.0
  0
LINE
  5
1DF3D
  8
0
 10
239.9999991059
 20
74.000000394899985
 30
0.0
 11
248.0277612805001
 21
74.000000394899985
 31
0.0
  0
LINE
  5
1DF3F
  8
0
 10
248.0277612805001
 20
86.000000499199984
 30
0.0
 11
240.1779897511
 21
86.000000499199984
 31
0.0
  0
LINE
  5
1DF41
  8
0
 10
259.86602604379988
 20
76.000000256999982
 30
0.0
 11
260.0000023840999
 21
76.000000256999982
 31
0.0
  0
ARC
  5
1DF42
  8
0
 10
243.3144665028
 20
83.941222384899973
 30
0.0
 40
3.314447530394232
 50
163.8693097599002
 51
180.32899180529969
  0
ARC
  5
1DF43
  8
0
 10
240.80000100049989
 20
85.300003499099986
 30
0.0
 40
0.8000032457971681
 50
213.1895828415004
 51
270.00003378159852
  0
ARC
  5
1DF44
  8
0
 10
240.79999953969991
 20
74.700000096099984
 30
0.0
 40
0.8000005446589499
 50
89.999861595001207
 51
146.81052178190041
  0
ARC
  5
1DF45
  8
0
 10
243.3104876246
 20
76.058226334099984
 30
0.0
 40
3.3104719382671419
 50
179.6610562022999
 51
196.1406422326001
  0
POLYLINE
  5
1DF46
  8
0
 66
     1
 10
0.0
 20
0.0
 30
0.0
 70
   128
  0
VERTEX
  5
1EB4E
  8
0
 10
199.94135648010001
 20
84.123004134699968
 30
0.0
  0
VERTEX
  5
1EB4F
  8
0
 10
199.98710118229991
 20
84.021552838399984
 30
0.0
  0
VERTEX
  5
1EB50
  8
0
 10
200.0
 20
83.914359938299995
 30
0.0
  0
SEQEND
  5
1EB51
  8
0
  0
LINE
  5
1DF47
  8
0
 10
200.0
 20
76.085640955699986
 30
0.0
 11
200.0
 21
83.914359938299995
 31
0.0
  0
POLYLINE
  5
1DF48
  8
0
 66
     1
 10
0.0
 20
0.0
 30
0.0
 70
   128
  0
VERTEX
  5
1EB52
  8
0
 10
200.0
 20
76.085640955699986
 30
0.0
  0
VERTEX
  5
1EB53
  8
0
 10
199.98546577990001
 20
75.972356740399988
 30
0.0
  0
VERTEX
  5
1EB54
  8
0
 10
199.94135648010001
 20
75.876996759299985
 30
0.0
  0
SEQEND
  5
1EB55
  8
0
  0
LINE
  5
1DF49
  8
0
 10
240.00007361169989
 20
76.077809929799997
 30
0.0
 11
239.9999991059
 21
76.085640955699986
 31
0.0
  0
LINE
  5
1DF4A
  8
0
 10
239.9999991059
 20
83.914359938299995
 30
0.0
 11
239.9999991059
 21
76.085640955699986
 31
0.0
  0
LINE
  5
1DF4B
  8
0
 10
239.9999991059
 20
83.914359938299995
 30
0.0
 11
240.00007361169989
 21
83.922190964199984
 31
0.0
  0
CIRCLE
  5
1DF4C
  8
0
 10
233.99999976149999
 20
94.000000446999977
 30
0.0
 40
2.75
  0
CIRCLE
  5
1DF4D
  8
0
 10
205.99999976149999
 20
94.000000446999977
 30
0.0
 40
2.75
  0
CIRCLE
  5
1DF4E
  8
0
 10
233.99999976149999
 20
66.000000446999977
 30
0.0
 40
2.75
  0
CIRCLE
  5
1DF4F
  8
0
 10
205.99999976149999
 20
66.000000446999977
 30
0.0
 40
2.75
  0
LINE
  5
1DF50
  8
0
 10
202.0000003278
 20
60.000000894099983
 30
0.0
 11
237.99999877810001
 21
60.000000894099983
 31
0.0
  0
LINE
  5
1DF51
  8
0
 10
200.0
 20
74.700000602699987
 30
0.0
 11
200.0
 21
62.000001221899971
 31
0.0
  0
LINE
  5
1DF52
  8
0
 10
239.9999991059
 20
85.300000291299995
 30
0.0
 11
239.9999991059
 21
97.999999672199991
 31
0.0
  0
LINE
  5
1DF53
  8
0
 10
237.99999877810001
 20
100.0
 30
0.0
 11
202.0000003278
 21
100.0
 31
0.0
  0
LINE
  5
1DF54
  8
0
 10
200.0
 20
97.999999672199991
 30
0.0
 11
200.0
 21
85.300000291299995
 31
0.0
  0
LINE
  5
1DF55
  8
0
 10
239.9999991059
 20
62.000001221899971
 30
0.0
 11
239.9999991059
 21
74.700000602699987
 31
0.0
  0
ARC
  5
1DF56
  8
0
 10
240.7999997615
 20
85.300000446999988
 30
0.0
 40
0.8000000000000476
 50
180.0
 51
213.18947117149841
  0
ARC
  5
1DF57
  8
0
 10
200.5402152739
 20
84.729796207599975
 30
0.0
 40
0.8525423594074642
 50
184.18484518819969
 51
225.3770053633005
  0
ARC
  5
1DF58
  8
0
 10
199.1999997614999
 20
85.300000446999988
 30
0.0
 40
0.8000000000000088
 50
307.76564159940051
 51
0.0
  0
ARC
  5
1DF59
  8
0
 10
200.5402971266
 20
75.270166898299991
 30
0.0
 40
0.852626752027435
 50
134.62512580940151
 51
175.81302363900019
  0
ARC
  5
1DF5A
  8
0
 10
199.1999997614999
 20
74.700000446999979
 30
0.0
 40
0.7999999999999977
 50
0.0
 51
52.234358400599511
  0
ARC
  5
1DF5B
  8
0
 10
240.7999997615
 20
74.700000446999979
 30
0.0
 40
0.8000000000000321
 50
146.81052882850159
 51
180.0
  0
ARC
  5
1DF5C
  8
0
 10
201.99999976149999
 20
62.000000446999969
 30
0.0
 40
2.0000000000000271
 50
180.0
 51
270.0
  0
ARC
  5
1DF5D
  8
0
 10
237.99999976149999
 20
98.000000446999991
 30
0.0
 40
2.0
 50
0.0
 51
90.0
  0
ARC
  5
1DF5E
  8
0
 10
201.99999976149999
 20
98.000000446999991
 30
0.0
 40
2.0000000000000271
 50
90.0
 51
180.0
  0
ARC
  5
1DF5F
  8
0
 10
237.99999976149999
 20
62.000000446999969
 30
0.0
 40
2.0
 50
270.0
 51
0.0
  0
POLYLINE
  5
1DF60
  8
0
 66
     1
 10
0.0
 20
0.0
 30
0.0
 70
   128
  0
VERTEX
  5
1EB56
  8
0
 10
199.6899459510999
 20
84.667582437399986
 30
0.0
  0
VERTEX
  5
1EB57
  8
0
 10
199.4589071719999
 20
84.543054364599982
 30
0.0
  0
VERTEX
  5
1EB58
  8
0
 10
199.19999949629991
 20
84.500000253299973
 30
0.0
  0
SEQEND
  5
1EB59
  8
0
  0
POLYLINE
  5
1DF61
  8
0
 66
     1
 10
0.0
 20
0.0
 30
0.0
 70
   128
  0
VERTEX
  5
1EB5A
  8
0
 10
199.19999949629991
 20
75.50000064069998
 30
0.0
  0
VERTEX
  5
1EB5B
  8
0
 10
199.4589071719999
 20
75.456946529399985
 30
0.0
  0
VERTEX
  5
1EB5C
  8
0
 10
199.6899459510999
 20
75.332418456699983
 30
0.0
  0
SEQEND
  5
1EB5D
  8
0
  0
LINE
  5
1DF62
  8
0
 10
240.80000147219991
 20
75.50000064069998
 30
0.0
 11
259.0000003575999
 21
75.50000064069998
 31
0.0
  0
LINE
  5
1DF63
  8
0
 10
259.0000003575999
 20
84.500000253299973
 30
0.0
 11
240.80000147219991
 21
84.500000253299973
 31
0.0
  0
LINE
  5
1DF64
  8
0
 10
181.7999997757999
 20
75.50000064069998
 30
0.0
 11
199.19999949629991
 21
75.50000064069998
 31
0.0
  0
LINE
  5
1DF67
  8
0
 10
199.19999949629991
 20
84.500000253299973
 30
0.0
 11
181.79944305700039
 21
84.500000253299973
 31
0.0
  0
LINE
  5
1DF68
  8
0
 10
260.0000023840999
 20
76.000000256999982
 30
0.0
 11
260.0000023840999
 21
84.000000636999985
 31
0.0
  0
ARC
  5
1DF69
  8
0
 10
258.99999976150002
 20
76.500000446999991
 30
0.0
 40
1.0
 50
270.0
 51
0.0
  0
ARC
  5
1DF6A
  8
0
 10
258.99999976150002
 20
83.500000446999991
 30
0.0
 40
1.0
 50
0.0
 51
90.0
  0
LINE
  5
1DF6B
  8
0
 10
180.99999976406221
 20
84.500000253299959
 30
0.0
 11
180.99999973523779
 21
75.500000452892223
 31
0.0
  0
LINE
  5
1DF6E
  8
0
 10
180.9999997377999
 20
75.500000452892209
 30
0.0
 11
180.9999997377999
 21
71.800000406799981
 31
0.0
  0
LINE
  5
1DF6F
  8
0
 10
180.9999997377999
 20
88.200000487299988
 30
0.0
 11
180.9999997377999
 21
84.500000253299959
 31
0.0
  0
ARC
  5
1DFB4
  8
0
 10
67.000750700500589
 20
159.75682022679999
 30
0.0
 40
0.8000000000000092
 50
122.7392270348991
 51
180.0
  0
LINE
  5
1DFB5
  8
0
 10
66.200750700500578
 20
159.75682022679999
 30
0.0
 11
66.200751003781534
 21
149.9999997033969
 31
0.0
  0
LINE
  5
1E004
  8
0
 10
217.1585492788835
 20
298.25496208542671
 30
0.0
 11
215.03270781372751
 21
298.4210655552817
 31
0.0
  0
LINE
  5
1E005
  8
0
 10
225.10151639579999
 20
297.62858199577403
 30
0.0
 11
217.79805714529371
 21
298.20967675077281
 31
0.0
  0
ARC
  5
1E009
  8
0
 10
208.87452768004371
 20
287.65105567628399
 30
0.0
 40
11.18033093867178
 50
89.058674958505847
 51
114.5048815475789
  0
ARC
  5
1E00A
  8
0
 10
207.30597970288591
 20
291.48065536852869
 30
0.0
 40
7.046933693271594
 50
115.8151888395757
 51
134.3762235773427
  0
ARC
  5
1E00B
  8
0
 10
206.49872272419611
 20
292.34015317874332
 30
0.0
 40
5.8680772872602063
 50
134.61160286149251
 51
155.52879440459151
  0
ARC
  5
1E00C
  8
0
 10
207.21649934405499
 20
292.09069470654731
 30
0.0
 40
6.6250831444975313
 50
156.1366032485181
 51
180.78854388046679
  0
LINE
  5
1E00D
  8
1
 10
126.7007502535006
 20
291.99967859937402
 30
0.0
 11
265.00000238410001
 21
291.99967859937402
 31
0.0
  0
ARC
  5
1E00E
  8
0
 10
200.06549421186389
 20
419.02287731205598
 30
0.0
 40
134.20575271428879
 50
274.36201294884017
 51
275.15667117457718
  0
ARC
  5
1E00F
  8
0
 10
208.87452768004371
 20
296.34830152246411
 30
0.0
 40
11.18033093867178
 50
245.49511845242131
 51
270.94132504149422
  0
ARC
  5
1E010
  8
0
 10
207.30597970288591
 20
292.51870183021941
 30
0.0
 40
7.046933693271594
 50
225.62377642265821
 51
244.1848111604275
  0
ARC
  5
1E011
  8
0
 10
206.49872272419611
 20
291.65920402000478
 30
0.0
 40
5.8680772872602063
 50
204.471205595405
 51
225.3883971385068
  0
ARC
  5
1E012
  8
0
 10
207.21649934405499
 20
291.90866249220079
 30
0.0
 40
6.6250831444975313
 50
179.21145611953469
 51
203.86339675147889
  0
ARC
  5
1E013
  8
0
 10
140.75034139315269
 20
1202.9165427801961
 30
0.0
 40
920.33080218873783
 50
274.47794771085353
 51
274.59547400597103
  0
LINE
  5
1E014
  8
0
 10
217.1585492788835
 20
285.74439511332139
 30
0.0
 11
215.03270781372751
 21
285.57829164346629
 31
0.0
  0
LINE
  5
1E015
  8
0
 10
225.10151639579999
 20
286.37077520297402
 30
0.0
 11
217.79805714529371
 21
285.78968044797517
 31
0.0
  0
LINE
  5
1E016
  8
0
 10
227.84408256409989
 20
286.59384092937398
 30
0.0
 11
227.5704823433999
 21
286.571884068374
 31
0.0
  0
LINE
  5
1E017
  8
0
 10
227.11387723679991
 20
286.58005595837398
 30
0.0
 11
226.2944470896839
 21
286.59472143316219
 31
0.0
  0
LINE
  5
1E018
  8
0
 10
227.5704823433999
 20
286.571884068374
 30
0.0
 11
227.11387723679991
 21
286.58005595837398
 31
0.0
  0
POLYLINE
  5
1E019
  8
0
 66
     1
 10
0.0
 20
0.0
 30
0.0
 70
   128
  0
VERTEX
  5
1EB5E
  8
0
 10
210.25130786
 20
285.31135479617399
 30
0.0
  0
VERTEX
  5
1EB5F
  8
0
 10
210.38955710819991
 20
285.28079717117402
 30
0.0
  0
VERTEX
  5
1EB60
  8
0
 10
210.42955555019989
 20
285.25214782607401
 30
0.0
  0
VERTEX
  5
1EB61
  8
0
 10
210.39101183409991
 20
285.22862727447398
 30
0.0
  0
VERTEX
  5
1EB62
  8
0
 10
210.27291081839999
 20
285.20586528507403
 30
0.0
  0
VERTEX
  5
1EB63
  8
0
 10
210.07259637109999
 20
285.18600809077401
 30
0.0
  0
VERTEX
  5
1EB64
  8
0
 10
209.8190363496
 20
285.17046757667413
 30
0.0
  0
VERTEX
  5
1EB65
  8
0
 10
209.54424403600001
 20
285.16041814047401
 30
0.0
  0
VERTEX
  5
1EB66
  8
0
 10
209.3032084404999
 20
285.15849123407401
 30
0.0
  0
VERTEX
  5
1EB67
  8
0
 10
209.0905278921
 20
285.16667197157398
 30
0.0
  0
VERTEX
  5
1EB68
  8
0
 10
209.05820354810001
 20
285.16947944347402
 30
0.0
  0
VERTEX
  5
1EB69
  8
0
 10
208.92419554289989
 20
285.19328032317401
 30
0.0
  0
VERTEX
  5
1EB6A
  8
0
 10
208.8813975452999
 20
285.22355668877401
 30
0.0
  0
VERTEX
  5
1EB6B
  8
0
 10
208.9219398795999
 20
285.26139492797398
 30
0.0
  0
VERTEX
  5
1EB6C
  8
0
 10
209.03875939539989
 20
285.29576538757402
 30
0.0
  0
VERTEX
  5
1EB6D
  8
0
 10
209.22828167669991
 20
285.32605525727411
 30
0.0
  0
VERTEX
  5
1EB6E
  8
0
 10
209.4831287859999
 20
285.34613270937399
 30
0.0
  0
VERTEX
  5
1EB6F
  8
0
 10
209.7595602273
 20
285.35033763077399
 30
0.0
  0
VERTEX
  5
1EB70
  8
0
 10
210.0231617689
 20
285.33828957627401
 30
0.0
  0
VERTEX
  5
1EB71
  8
0
 10
210.2170165627999
 20
285.31666240347403
 30
0.0
  0
VERTEX
  5
1EB72
  8
0
 10
210.25130786
 20
285.31135479617399
 30
0.0
  0
SEQEND
  5
1EB73
  8
0
  0
POLYLINE
  5
1E01A
  8
0
 66
     1
 10
0.0
 20
0.0
 30
0.0
 70
   128
  0
VERTEX
  5
1EB74
  8
0
 10
216.4679959415999
 20
286.86445207027401
 30
0.0
  0
VERTEX
  5
1EB75
  8
0
 10
216.58184081309989
 20
286.85497819137402
 30
0.0
  0
VERTEX
  5
1EB76
  8
0
 10
216.61507412789999
 20
286.79858940347412
 30
0.0
  0
VERTEX
  5
1EB77
  8
0
 10
216.57037809490001
 20
286.71220644067409
 30
0.0
  0
VERTEX
  5
1EB78
  8
0
 10
216.4450667797999
 20
286.59892874467403
 30
0.0
  0
VERTEX
  5
1EB79
  8
0
 10
216.2664093077
 20
286.487712065474
 30
0.0
  0
VERTEX
  5
1EB7A
  8
0
 10
216.05129614469999
 20
286.3839380505741
 30
0.0
  0
VERTEX
  5
1EB7B
  8
0
 10
215.80544933669989
 20
286.29044630257403
 30
0.0
  0
VERTEX
  5
1EB7C
  8
0
 10
215.5867263673999
 20
286.22663953037397
 30
0.0
  0
VERTEX
  5
1EB7D
  8
0
 10
215.3972618281
 20
286.18831281247401
 30
0.0
  0
VERTEX
  5
1EB7E
  8
0
 10
215.34822583190001
 20
286.18262150017398
 30
0.0
  0
VERTEX
  5
1EB7F
  8
0
 10
215.23992791769999
 20
286.18743317827398
 30
0.0
  0
VERTEX
  5
1EB80
  8
0
 10
215.21322876209999
 20
286.22498037917399
 30
0.0
  0
VERTEX
  5
1EB81
  8
0
 10
215.27181267730001
 20
286.29725007967397
 30
0.0
  0
VERTEX
  5
1EB82
  8
0
 10
215.39780199520001
 20
286.39080003527403
 30
0.0
  0
VERTEX
  5
1EB83
  8
0
 10
215.5871920287
 20
286.50741978247402
 30
0.0
  0
VERTEX
  5
1EB84
  8
0
 10
215.80318808550001
 20
286.62297502787402
 30
0.0
  0
VERTEX
  5
1EB85
  8
0
 10
216.01223275059999
 20
286.72096646087402
 30
0.0
  0
VERTEX
  5
1EB86
  8
0
 10
216.2329412996001
 20
286.80765350047398
 30
0.0
  0
VERTEX
  5
1EB87
  8
0
 10
216.42299816010001
 20
286.85830394427398
 30
0.0
  0
VERTEX
  5
1EB88
  8
0
 10
216.4679959415999
 20
286.86445207027401
 30
0.0
  0
SEQEND
  5
1EB89
  8
0
  0
POLYLINE
  5
1E01B
  8
0
 66
     1
 10
0.0
 20
0.0
 30
0.0
 70
   128
  0
VERTEX
  5
1EB8A
  8
0
 10
216.025327146
 20
286.04127141337398
 30
0.0
  0
VERTEX
  5
1EB8B
  8
0
 10
216.13424345850001
 20
286.04016500217398
 30
0.0
  0
VERTEX
  5
1EB8C
  8
0
 10
216.15644246339991
 20
286.01202788457408
 30
0.0
  0
SEQEND
  5
1EB8D
  8
0
  0
POLYLINE
  5
1E01C
  8
0
 66
     1
 10
0.0
 20
0.0
 30
0.0
 70
   128
  0
VERTEX
  5
1EB8E
  8
0
 10
216.15644246339991
 20
286.01202788457408
 30
0.0
  0
VERTEX
  5
1EB8F
  8
0
 10
216.0947628319
 20
285.96482379987413
 30
0.0
  0
VERTEX
  5
1EB90
  8
0
 10
215.94851911059999
 20
285.90291785697411
 30
0.0
  0
VERTEX
  5
1EB91
  8
0
 10
215.75213298199989
 20
285.8424256618739
 30
0.0
  0
VERTEX
  5
1EB92
  8
0
 10
215.51888138050009
 20
285.78534955787399
 30
0.0
  0
VERTEX
  5
1EB93
  8
0
 10
215.2638182044
 20
285.73510703327401
 30
0.0
  0
VERTEX
  5
1EB94
  8
0
 10
215.0488875806
 20
285.70111375927411
 30
0.0
  0
VERTEX
  5
1EB95
  8
0
 10
214.8637406528
 20
285.67852778987412
 30
0.0
  0
VERTEX
  5
1EB96
  8
0
 10
214.8235410451
 20
285.67493195337403
 30
0.0
  0
VERTEX
  5
1EB97
  8
0
 10
214.71649482839999
 20
285.67200573787409
 30
0.0
  0
VERTEX
  5
1EB98
  8
0
 10
214.6957971155
 20
285.68625124797398
 30
0.0
  0
VERTEX
  5
1EB99
  8
0
 10
214.76413384080001
 20
285.71956605347401
 30
0.0
  0
VERTEX
  5
1EB9A
  8
0
 10
214.90384340279999
 20
285.76695267737398
 30
0.0
  0
VERTEX
  5
1EB9B
  8
0
 10
215.11058211319991
 20
285.82952358457402
 30
0.0
  0
VERTEX
  5
1EB9C
  8
0
 10
215.3448320924999
 20
285.895082640174
 30
0.0
  0
VERTEX
  5
1EB9D
  8
0
 10
215.5736766755
 20
285.95426353317401
 30
0.0
  0
VERTEX
  5
1EB9E
  8
0
 10
215.80630242820001
 20
286.00710537907401
 30
0.0
  0
VERTEX
  5
1EB9F
  8
0
 10
215.98669588559989
 20
286.03723040477399
 30
0.0
  0
VERTEX
  5
1EBA0
  8
0
 10
216.025327146
 20
286.04127141337398
 30
0.0
  0
VERTEX
  5
1EBA1
  8
0
 10
216.025327146
 20
286.04127141337398
 30
0.0
  0
SEQEND
  5
1EBA2
  8
0
  0
POLYLINE
  5
1E01D
  8
0
 66
     1
 10
0.0
 20
0.0
 30
0.0
 70
   128
  0
VERTEX
  5
1EBA3
  8
0
 10
212.94616609810001
 20
285.452757968274
 30
0.0
  0
VERTEX
  5
1EBA4
  8
0
 10
213.05843144650001
 20
285.45979411037399
 30
0.0
  0
VERTEX
  5
1EBA5
  8
0
 10
213.0748525260999
 20
285.45617079987397
 30
0.0
  0
SEQEND
  5
1EBA6
  8
0
  0
ARC
  5
1E01E
  8
0
 10
211.7035129761999
 20
294.48421802727398
 30
0.0
 40
9.1337775682773206
 50
272.6626900123016
 51
278.67239776210079
  0
ARC
  5
1E01F
  8
0
 10
223.7216238682781
 20
186.41075742078081
 30
0.0
 40
99.626444093035943
 50
96.209178396405122
 51
96.682803138617246
  0
POLYLINE
  5
1E020
  8
0
 66
     1
 10
0.0
 20
0.0
 30
0.0
 70
   128
  0
VERTEX
  5
1EBA7
  8
0
 10
210.47683320929991
 20
286.64084943637403
 30
0.0
  0
VERTEX
  5
1EBA8
  8
0
 10
210.6268599629
 20
286.51152458667411
 30
0.0
  0
VERTEX
  5
1EBA9
  8
0
 10
210.68121008569989
 20
286.37517290817408
 30
0.0
  0
VERTEX
  5
1EBAA
  8
0
 10
210.65538451069989
 20
286.25156591337401
 30
0.0
  0
VERTEX
  5
1EBAB
  8
0
 10
210.54662652309989
 20
286.1257763641741
 30
0.0
  0
VERTEX
  5
1EBAC
  8
0
 10
210.3608574717999
 20
286.02841310827398
 30
0.0
  0
VERTEX
  5
1EBAD
  8
0
 10
210.12832857660001
 20
285.97070184227391
 30
0.0
  0
VERTEX
  5
1EBAE
  8
0
 10
209.85629111519989
 20
285.95499229307399
 30
0.0
  0
VERTEX
  5
1EBAF
  8
0
 10
209.5956586300999
 20
285.98656925067399
 30
0.0
  0
VERTEX
  5
1EBB0
  8
0
 10
209.36366058879989
 20
286.064281134574
 30
0.0
  0
VERTEX
  5
1EBB1
  8
0
 10
209.31790471069999
 20
286.08909855287402
 30
0.0
  0
VERTEX
  5
1EBB2
  8
0
 10
209.1755595057999
 20
286.21637914957398
 30
0.0
  0
VERTEX
  5
1EBB3
  8
0
 10
209.12358611819991
 20
286.34685418267401
 30
0.0
  0
VERTEX
  5
1EBB4
  8
0
 10
209.15182195599991
 20
286.49671376377398
 30
0.0
  0
VERTEX
  5
1EBB5
  8
0
 10
209.26432758569999
 20
286.62893176707399
 30
0.0
  0
VERTEX
  5
1EBB6
  8
0
 10
209.4552710651999
 20
286.73482686907403
 30
0.0
  0
VERTEX
  5
1EBB7
  8
0
 10
209.69243235879989
 20
286.79082217317398
 30
0.0
  0
VERTEX
  5
1EBB8
  8
0
 10
209.94069874280001
 20
286.7973605233741
 30
0.0
  0
VERTEX
  5
1EBB9
  8
0
 10
210.20414941009989
 20
286.75510036457399
 30
0.0
  0
VERTEX
  5
1EBBA
  8
0
 10
210.42947359379991
 20
286.66794161007402
 30
0.0
  0
VERTEX
  5
1EBBB
  8
0
 10
210.47683320929991
 20
286.64084943637403
 30
0.0
  0
SEQEND
  5
1EBBC
  8
0
  0
POLYLINE
  5
1E021
  8
0
 66
     1
 10
0.0
 20
0.0
 30
0.0
 70
   128
  0
VERTEX
  5
1EBBD
  8
0
 10
216.67856797569991
 20
288.338331279074
 30
0.0
  0
VERTEX
  5
1EBBE
  8
0
 10
216.80702343579989
 20
288.294888573474
 30
0.0
  0
VERTEX
  5
1EBBF
  8
0
 10
216.85995236030001
 20
288.18979184767397
 30
0.0
  0
VERTEX
  5
1EBC0
  8
0
 10
216.84379950159999
 20
288.05413516867401
 30
0.0
  0
VERTEX
  5
1EBC1
  8
0
 10
216.75809919829999
 20
287.87692543747397
 30
0.0
  0
VERTEX
  5
1EBC2
  8
0
 10
216.61025732749999
 20
287.69363091017402
 30
0.0
  0
VERTEX
  5
1EBC3
  8
0
 10
216.4237096905
 20
287.5268925043739
 30
0.0
  0
VERTEX
  5
1EBC4
  8
0
 10
216.20017737149999
 20
287.377323030274
 30
0.0
  0
VERTEX
  5
1EBC5
  8
0
 10
215.9830152987999
 20
287.27523517487401
 30
0.0
  0
VERTEX
  5
1EBC6
  8
0
 10
215.7898291944999
 20
287.22820711017403
 30
0.0
  0
VERTEX
  5
1EBC7
  8
0
 10
215.74334129690001
 20
287.22701548297402
 30
0.0
  0
VERTEX
  5
1EBC8
  8
0
 10
215.62400907269989
 20
287.26634942617397
 30
0.0
  0
VERTEX
  5
1EBC9
  8
0
 10
215.57427644730001
 20
287.36076784017399
 30
0.0
  0
VERTEX
  5
1EBCA
  8
0
 10
215.59792086479999
 20
287.509229971774
 30
0.0
  0
VERTEX
  5
1EBCB
  8
0
 10
215.68255200979999
 20
287.67108265937401
 30
0.0
  0
VERTEX
  5
1EBCC
  8
0
 10
215.82438498729991
 20
287.85499884437399
 30
0.0
  0
VERTEX
  5
1EBCD
  8
0
 10
216.0175636409999
 20
288.04037674027398
 30
0.0
  0
VERTEX
  5
1EBCE
  8
0
 10
216.22264832249991
 20
288.18696877617401
 30
0.0
  0
VERTEX
  5
1EBCF
  8
0
 10
216.43946021790001
 20
288.294516277274
 30
0.0
  0
VERTEX
  5
1EBD0
  8
0
 10
216.63301140070001
 20
288.338352699474
 30
0.0
  0
VERTEX
  5
1EBD1
  8
0
 10
216.67856797569991
 20
288.338331279074
 30
0.0
  0
SEQEND
  5
1EBD2
  8
0
  0
POLYLINE
  5
1E022
  8
0
 66
     1
 10
0.0
 20
0.0
 30
0.0
 70
   128
  0
VERTEX
  5
1EBD3
  8
0
 10
213.75576481219991
 20
287.04912821457401
 30
0.0
  0
VERTEX
  5
1EBD4
  8
0
 10
213.89949023720001
 20
286.96367704007412
 30
0.0
  0
VERTEX
  5
1EBD5
  8
0
 10
213.95835727449989
 20
286.84179671737411
 30
0.0
  0
VERTEX
  5
1EBD6
  8
0
 10
213.93203437319991
 20
286.70826461787402
 30
0.0
  0
VERTEX
  5
1EBD7
  8
0
 10
213.81970196959989
 20
286.55955987677402
 30
0.0
  0
VERTEX
  5
1EBD8
  8
0
 10
213.63959535949991
 20
286.42771766217402
 30
0.0
  0
VERTEX
  5
1EBD9
  8
0
 10
213.41436058279999
 20
286.32006096347408
 30
0.0
  0
VERTEX
  5
1EBDA
  8
0
 10
213.15084844820001
 20
286.24170832957401
 30
0.0
  0
VERTEX
  5
1EBDB
  8
0
 10
212.9071436822
 20
286.21096583707401
 30
0.0
  0
VERTEX
  5
1EBDC
  8
0
 10
212.68785260609991
 20
286.22643650207402
 30
0.0
  0
VERTEX
  5
1EBDD
  8
0
 10
212.63296976679999
 20
286.24079423647402
 30
0.0
  0
VERTEX
  5
1EBDE
  8
0
 10
212.49436661600001
 20
286.32053314407398
 30
0.0
  0
VERTEX
  5
1EBDF
  8
0
 10
212.4357324092999
 20
286.43532097967397
 30
0.0
  0
VERTEX
  5
1EBE0
  8
0
 10
212.4634057282999
 20
286.58281267317398
 30
0.0
  0
VERTEX
  5
1EBE1
  8
0
 10
212.56943680340001
 20
286.728828686074
 30
0.0
  0
VERTEX
  5
1EBE2
  8
0
 10
212.75064423680001
 20
286.87435622017398
 30
0.0
  0
VERTEX
  5
1EBE3
  8
0
 10
212.9826925694
 20
286.99041205157391
 30
0.0
  0
VERTEX
  5
1EBE4
  8
0
 10
213.2250748573999
 20
287.06197161857392
 30
0.0
  0
VERTEX
  5
1EBE5
  8
0
 10
213.48164677619999
 20
287.09088871877401
 30
0.0
  0
VERTEX
  5
1EBE6
  8
0
 10
213.7007646262
 20
287.06598329047398
 30
0.0
  0
VERTEX
  5
1EBE7
  8
0
 10
213.75576481219991
 20
287.04912821457401
 30
0.0
  0
SEQEND
  5
1EBE8
  8
0
  0
ARC
  5
1E023
  8
0
 10
212.03980857769989
 20
289.16930549097412
 30
0.0
 40
3.730281478223243
 50
271.55589284649841
 51
294.83734747299951
  0
POLYLINE
  5
1E024
  8
0
 66
     1
 10
0.0
 20
0.0
 30
0.0
 70
   128
  0
VERTEX
  5
1EBE9
  8
0
 10
212.14109361166641
 20
285.44039931775518
 30
0.0
  0
VERTEX
  5
1EBEA
  8
0
 10
212.10841536519999
 20
285.44996772587399
 30
0.0
  0
VERTEX
  5
1EBEB
  8
0
 10
212.16381415719999
 20
285.4788266184741
 30
0.0
  0
VERTEX
  5
1EBEC
  8
0
 10
212.2953467070999
 20
285.52421508987402
 30
0.0
  0
VERTEX
  5
1EBED
  8
0
 10
212.49685883519999
 20
285.58687354137402
 30
0.0
  0
VERTEX
  5
1EBEE
  8
0
 10
212.7377547323
 20
285.65399954717401
 30
0.0
  0
VERTEX
  5
1EBEF
  8
0
 10
212.9781253635
 20
285.71416484817399
 30
0.0
  0
VERTEX
  5
1EBF0
  8
0
 10
213.22137191889999
 20
285.768392036374
 30
0.0
  0
VERTEX
  5
1EBF1
  8
0
 10
213.4100168942999
 20
285.80053710077402
 30
0.0
  0
VERTEX
  5
1EBF2
  8
0
 10
213.4572051465
 20
285.80587683867401
 30
0.0
  0
SEQEND
  5
1EBF3
  8
0
  0
POLYLINE
  5
1E025
  8
0
 66
     1
 10
0.0
 20
0.0
 30
0.0
 70
   128
  0
VERTEX
  5
1EBF4
  8
0
 10
223.3641825615999
 20
286.677963572274
 30
0.0
  0
VERTEX
  5
1EBF5
  8
0
 10
223.4667323528999
 20
286.67184012637398
 30
0.0
  0
VERTEX
  5
1EBF6
  8
0
 10
223.48101511589991
 20
286.63400607807409
 30
0.0
  0
VERTEX
  5
1EBF7
  8
0
 10
223.41641113159989
 20
286.57612484577402
 30
0.0
  0
VERTEX
  5
1EBF8
  8
0
 10
223.2699289917
 20
286.50105232997402
 30
0.0
  0
VERTEX
  5
1EBF9
  8
0
 10
223.0705998837
 20
286.42742150157397
 30
0.0
  0
VERTEX
  5
1EBFA
  8
0
 10
222.83577248450001
 20
286.35968873907399
 30
0.0
  0
VERTEX
  5
1EBFB
  8
0
 10
222.5815959274
 20
286.3016924883741
 30
0.0
  0
VERTEX
  5
1EBFC
  8
0
 10
222.36490696659999
 20
286.26284376417402
 30
0.0
  0
VERTEX
  5
1EBFD
  8
0
 10
222.18256145709989
 20
286.23868711917402
 30
0.0
  0
VERTEX
  5
1EBFE
  8
0
 10
222.14790135620001
 20
286.23559279997397
 30
0.0
  0
VERTEX
  5
1EBFF
  8
0
 10
222.0490656792999
 20
286.23548057557412
 30
0.0
  0
VERTEX
  5
1EC00
  8
0
 10
222.0374651253
 20
286.25489632297399
 30
0.0
  0
VERTEX
  5
1EC01
  8
0
 10
222.11173623799991
 20
286.29659349727399
 30
0.0
  0
VERTEX
  5
1EC02
  8
0
 10
222.25321531290001
 20
286.35394480707401
 30
0.0
  0
VERTEX
  5
1EC03
  8
0
 10
222.458653897
 20
286.42890882377401
 30
0.0
  0
VERTEX
  5
1EC04
  8
0
 10
222.69548922769991
 20
286.50902771087402
 30
0.0
  0
VERTEX
  5
1EC05
  8
0
 10
222.9282267390999
 20
286.58134025217402
 30
0.0
  0
VERTEX
  5
1EC06
  8
0
 10
223.1573805212999
 20
286.64261382697401
 30
0.0
  0
VERTEX
  5
1EC07
  8
0
 10
223.3292579649999
 20
286.6744282717741
 30
0.0
  0
VERTEX
  5
1EC08
  8
0
 10
223.3641825615999
 20
286.677963572274
 30
0.0
  0
SEQEND
  5
1EC09
  8
0
  0
POLYLINE
  5
1E026
  8
0
 66
     1
 10
0.0
 20
0.0
 30
0.0
 70
   128
  0
VERTEX
  5
1EC0A
  8
0
 10
223.81843700999991
 20
287.676957442174
 30
0.0
  0
VERTEX
  5
1EC0B
  8
0
 10
223.9268764853
 20
287.66307142257398
 30
0.0
  0
VERTEX
  5
1EC0C
  8
0
 10
223.95651489490001
 20
287.59691073257397
 30
0.0
  0
VERTEX
  5
1EC0D
  8
0
 10
223.9135548472
 20
287.49740403767402
 30
0.0
  0
VERTEX
  5
1EC0E
  8
0
 10
223.79393577569999
 20
287.365878007074
 30
0.0
  0
VERTEX
  5
1EC0F
  8
0
 10
223.61971884959991
 20
287.23392449947403
 30
0.0
  0
VERTEX
  5
1EC10
  8
0
 10
223.4074555336999
 20
287.11007210117401
 30
0.0
  0
VERTEX
  5
1EC11
  8
0
 10
223.17056804890001
 20
287.00219374777402
 30
0.0
  0
VERTEX
  5
1EC12
  8
0
 10
222.96378836029999
 20
286.9309694568741
 30
0.0
  0
VERTEX
  5
1EC13
  8
0
 10
222.78523519629999
 20
286.88990511627401
 30
0.0
  0
VERTEX
  5
1EC14
  8
0
 10
222.7454490959
 20
286.88511113327411
 30
0.0
  0
VERTEX
  5
1EC15
  8
0
 10
222.64187857499991
 20
286.8941924597741
 30
0.0
  0
VERTEX
  5
1EC16
  8
0
 10
222.6192437112
 20
286.94102960337398
 30
0.0
  0
VERTEX
  5
1EC17
  8
0
 10
222.67759665839989
 20
287.02706425147397
 30
0.0
  0
VERTEX
  5
1EC18
  8
0
 10
222.79795706269991
 20
287.13478893667411
 30
0.0
  0
VERTEX
  5
1EC19
  8
0
 10
222.97785878179991
 20
287.26820089547402
 30
0.0
  0
VERTEX
  5
1EC1A
  8
0
 10
223.18976446979991
 20
287.40491998077403
 30
0.0
  0
VERTEX
  5
1EC1B
  8
0
 10
223.40022474519989
 20
287.5233944567741
 30
0.0
  0
VERTEX
  5
1EC1C
  8
0
 10
223.61279353489999
 20
287.62151813757401
 30
0.0
  0
VERTEX
  5
1EC1D
  8
0
 10
223.7815603613
 20
287.67171782137399
 30
0.0
  0
VERTEX
  5
1EC1E
  8
0
 10
223.81843700999991
 20
287.676957442174
 30
0.0
  0
SEQEND
  5
1EC1F
  8
0
  0
POLYLINE
  5
1E027
  8
0
 66
     1
 10
0.0
 20
0.0
 30
0.0
 70
   128
  0
VERTEX
  5
1EC20
  8
0
 10
217.9065875709
 20
285.82501132667397
 30
0.0
  0
VERTEX
  5
1EC21
  8
0
 10
218.0099569260999
 20
285.82913661997401
 30
0.0
  0
VERTEX
  5
1EC22
  8
0
 10
218.02108064283991
 20
285.82118498790402
 30
0.0
  0
SEQEND
  5
1EC23
  8
0
  0
ARC
  5
1E028
  8
0
 10
217.04006754049999
 20
291.95774989907397
 30
0.0
 40
6.214484340310606
 50
271.09243414469881
 51
279.08265435760109
  0
ARC
  5
1E029
  8
0
 10
241.79596908914539
 20
60.644473483967197
 30
0.0
 40
226.44420322112131
 50
96.055851833234826
 51
96.246219399567536
  0
POLYLINE
  5
1E02A
  8
0
 66
     1
 10
0.0
 20
0.0
 30
0.0
 70
   128
  0
VERTEX
  5
1EC24
  8
0
 10
220.9571756421999
 20
286.47456784427402
 30
0.0
  0
VERTEX
  5
1EC25
  8
0
 10
221.06184139839991
 20
286.47033917407401
 30
0.0
  0
VERTEX
  5
1EC26
  8
0
 10
221.0778340697
 20
286.43514821927403
 30
0.0
  0
VERTEX
  5
1EC27
  8
0
 10
221.0148468612999
 20
286.38022673007413
 30
0.0
  0
VERTEX
  5
1EC28
  8
0
 10
220.8699479698999
 20
286.308178218774
 30
0.0
  0
VERTEX
  5
1EC29
  8
0
 10
220.67210525269991
 20
286.23700421927401
 30
0.0
  0
VERTEX
  5
1EC2A
  8
0
 10
220.43885737650001
 20
286.17119044687399
 30
0.0
  0
VERTEX
  5
1EC2B
  8
0
 10
220.1848521828
 20
286.11427499607402
 30
0.0
  0
VERTEX
  5
1EC2C
  8
0
 10
219.9673734605
 20
286.07589426147399
 30
0.0
  0
VERTEX
  5
1EC2D
  8
0
 10
219.7832994163
 20
286.05178278567399
 30
0.0
  0
VERTEX
  5
1EC2E
  8
0
 10
219.74574103949999
 20
286.04843887197399
 30
0.0
  0
VERTEX
  5
1EC2F
  8
0
 10
219.64481174939999
 20
286.047929904174
 30
0.0
  0
VERTEX
  5
1EC30
  8
0
 10
219.63107287880001
 20
286.06652469067399
 30
0.0
  0
VERTEX
  5
1EC31
  8
0
 10
219.70360800619989
 20
286.10650171217412
 30
0.0
  0
VERTEX
  5
1EC32
  8
0
 10
219.84452083699989
 20
286.16175428657402
 30
0.0
  0
VERTEX
  5
1EC33
  8
0
 10
220.0499854981
 20
286.23382747797399
 30
0.0
  0
VERTEX
  5
1EC34
  8
0
 10
220.28471603989999
 20
286.30993562447401
 30
0.0
  0
VERTEX
  5
1EC35
  8
0
 10
220.51411941640001
 20
286.37836827587398
 30
0.0
  0
VERTEX
  5
1EC36
  8
0
 10
220.74379473920001
 20
286.43793520207402
 30
0.0
  0
VERTEX
  5
1EC37
  8
0
 10
220.920868963
 20
286.470668396674
 30
0.0
  0
VERTEX
  5
1EC38
  8
0
 10
220.9571756421999
 20
286.47456784427402
 30
0.0
  0
SEQEND
  5
1EC39
  8
0
  0
POLYLINE
  5
1E02B
  8
0
 66
     1
 10
0.0
 20
0.0
 30
0.0
 70
   128
  0
VERTEX
  5
1EC3A
  8
0
 10
218.96324381229999
 20
287.11670637757408
 30
0.0
  0
VERTEX
  5
1EC3B
  8
0
 10
219.0750695765
 20
287.10867278907398
 30
0.0
  0
VERTEX
  5
1EC3C
  8
0
 10
219.10516247149999
 20
287.05232637627398
 30
0.0
  0
VERTEX
  5
1EC3D
  8
0
 10
219.06075701109989
 20
286.96558671697397
 30
0.0
  0
VERTEX
  5
1EC3E
  8
0
 10
218.93809065219989
 20
286.84945591417409
 30
0.0
  0
VERTEX
  5
1EC3F
  8
0
 10
218.76193657510001
 20
286.73348623017398
 30
0.0
  0
VERTEX
  5
1EC40
  8
0
 10
218.54968443509989
 20
286.62482929107398
 30
0.0
  0
VERTEX
  5
1EC41
  8
0
 10
218.3084905147
 20
286.52735613907402
 30
0.0
  0
VERTEX
  5
1EC42
  8
0
 10
218.09424534440001
 20
286.46090301377399
 30
0.0
  0
VERTEX
  5
1EC43
  8
0
 10
217.9086402058
 20
286.42100049807402
 30
0.0
  0
VERTEX
  5
1EC44
  8
0
 10
217.86160469049989
 20
286.41516902177398
 30
0.0
  0
VERTEX
  5
1EC45
  8
0
 10
217.7547298371
 20
286.42010410007413
 30
0.0
  0
VERTEX
  5
1EC46
  8
0
 10
217.7300497889
 20
286.459106958174
 30
0.0
  0
VERTEX
  5
1EC47
  8
0
 10
217.78962835659991
 20
286.533135461374
 30
0.0
  0
VERTEX
  5
1EC48
  8
0
 10
217.91327446689999
 20
286.62742954377399
 30
0.0
  0
VERTEX
  5
1EC49
  8
0
 10
218.09881255030001
 20
286.74561158447398
 30
0.0
  0
VERTEX
  5
1EC4A
  8
0
 10
218.312100321
 20
286.86459223437402
 30
0.0
  0
VERTEX
  5
1EC4B
  8
0
 10
218.5200162230999
 20
286.96700465557399
 30
0.0
  0
VERTEX
  5
1EC4C
  8
0
 10
218.73728260390001
 20
287.05733363207401
 30
0.0
  0
VERTEX
  5
1EC4D
  8
0
 10
218.92191171639999
 20
287.11027280117401
 30
0.0
  0
VERTEX
  5
1EC4E
  8
0
 10
218.96324381229999
 20
287.11670637757408
 30
0.0
  0
SEQEND
  5
1EC4F
  8
0
  0
POLYLINE
  5
1E02C
  8
0
 66
     1
 10
0.0
 20
0.0
 30
0.0
 70
   128
  0
VERTEX
  5
1EC50
  8
0
 10
218.51283758869999
 20
286.258463288374
 30
0.0
  0
VERTEX
  5
1EC51
  8
0
 10
218.61916482439989
 20
286.25573544457399
 30
0.0
  0
VERTEX
  5
1EC52
  8
0
 10
218.63720640540001
 20
286.223972222474
 30
0.0
  0
VERTEX
  5
1EC53
  8
0
 10
218.57452839609991
 20
286.17292317257397
 30
0.0
  0
VERTEX
  5
1EC54
  8
0
 10
218.42906698580001
 20
286.10582417507402
 30
0.0
  0
VERTEX
  5
1EC55
  8
0
 10
218.23194324970001
 20
286.03979526717399
 30
0.0
  0
VERTEX
  5
1EC56
  8
0
 10
217.9991014300999
 20
285.97834101577399
 30
0.0
  0
VERTEX
  5
1EC57
  8
0
 10
217.7448019384999
 20
285.92487145837401
 30
0.0
  0
VERTEX
  5
1EC58
  8
0
 10
217.52741262309999
 20
285.88879900677398
 30
0.0
  0
VERTEX
  5
1EC59
  8
0
 10
217.34261587259991
 20
285.86597555007398
 30
0.0
  0
VERTEX
  5
1EC5A
  8
0
 10
217.30479300019991
 20
285.86277226607399
 30
0.0
  0
VERTEX
  5
1EC5B
  8
0
 10
217.20147207369999
 20
285.86187819647398
 30
0.0
  0
VERTEX
  5
1EC5C
  8
0
 10
217.1853378415
 20
285.87891581167412
 30
0.0
  0
VERTEX
  5
1EC5D
  8
0
 10
217.25610718129991
 20
285.91588140157398
 30
0.0
  0
VERTEX
  5
1EC5E
  8
0
 10
217.39689335220001
 20
285.96727830047399
 30
0.0
  0
VERTEX
  5
1EC5F
  8
0
 10
217.60334521530001
 20
286.03428928807409
 30
0.0
  0
VERTEX
  5
1EC60
  8
0
 10
217.8378894924999
 20
286.104500765674
 30
0.0
  0
VERTEX
  5
1EC61
  8
0
 10
218.0668458342
 20
286.16767377287402
 30
0.0
  0
VERTEX
  5
1EC62
  8
0
 10
218.29752326010001
 20
286.22334777067402
 30
0.0
  0
VERTEX
  5
1EC63
  8
0
 10
218.47587153309999
 20
286.25455406187399
 30
0.0
  0
VERTEX
  5
1EC64
  8
0
 10
218.51283758869999
 20
286.258463288374
 30
0.0
  0
SEQEND
  5
1EC65
  8
0
  0
POLYLINE
  5
1E02D
  8
0
 66
     1
 10
0.0
 20
0.0
 30
0.0
 70
   128
  0
VERTEX
  5
1EC66
  8
0
 10
215.45431464910001
 20
285.64867145077397
 30
0.0
  0
VERTEX
  5
1EC67
  8
0
 10
215.5603550374
 20
285.65293690817401
 30
0.0
  0
VERTEX
  5
1EC68
  8
0
 10
215.5749432742048
 20
285.64516688390472
 30
0.0
  0
SEQEND
  5
1EC69
  8
0
  0
ARC
  5
1E02E
  8
0
 10
214.2016738563
 20
294.54815661647399
 30
0.0
 40
9.0082792514657157
 50
271.81772116559972
 51
278.7686592911993
  0
ARC
  5
1E02F
  8
0
 10
217.4196792472917
 20
262.8866686271499
 30
0.0
 40
22.846694083549991
 50
94.934912919782775
 51
97.373978645188515
  0
POLYLINE
  5
1E030
  8
0
 66
     1
 10
0.0
 20
0.0
 30
0.0
 70
   128
  0
VERTEX
  5
1EC6A
  8
0
 10
221.40924707049999
 20
287.40861220907402
 30
0.0
  0
VERTEX
  5
1EC6B
  8
0
 10
221.51895686979989
 20
287.39869082967402
 30
0.0
  0
VERTEX
  5
1EC6C
  8
0
 10
221.54862135639999
 20
287.33796207857398
 30
0.0
  0
VERTEX
  5
1EC6D
  8
0
 10
221.5051807463
 20
287.24479629357398
 30
0.0
  0
VERTEX
  5
1EC6E
  8
0
 10
221.38451114290001
 20
287.12031478687402
 30
0.0
  0
VERTEX
  5
1EC6F
  8
0
 10
221.21028676619991
 20
286.99566191687398
 30
0.0
  0
VERTEX
  5
1EC70
  8
0
 10
220.99950984119999
 20
286.87864402937402
 30
0.0
  0
VERTEX
  5
1EC71
  8
0
 10
220.7604207098
 20
286.77412029977398
 30
0.0
  0
VERTEX
  5
1EC72
  8
0
 10
220.54804190989989
 20
286.70316469547402
 30
0.0
  0
VERTEX
  5
1EC73
  8
0
 10
220.36526054139989
 20
286.661474506074
 30
0.0
  0
VERTEX
  5
1EC74
  8
0
 10
220.32358944410001
 20
286.65615572287402
 30
0.0
  0
VERTEX
  5
1EC75
  8
0
 10
220.21820843219999
 20
286.66250408317399
 30
0.0
  0
VERTEX
  5
1EC76
  8
0
 10
220.19451558589989
 20
286.704993347374
 30
0.0
  0
VERTEX
  5
1EC77
  8
0
 10
220.25331184259991
 20
286.78479372217402
 30
0.0
  0
VERTEX
  5
1EC78
  8
0
 10
220.37428319450001
 20
286.88512137787399
 30
0.0
  0
VERTEX
  5
1EC79
  8
0
 10
220.55543661109991
 20
287.01053327577409
 30
0.0
  0
VERTEX
  5
1EC7A
  8
0
 10
220.76841145750001
 20
287.13991726447409
 30
0.0
  0
VERTEX
  5
1EC7B
  8
0
 10
220.98037302489999
 20
287.253443157974
 30
0.0
  0
VERTEX
  5
1EC7C
  8
0
 10
221.19578048579999
 20
287.34981734927402
 30
0.0
  0
VERTEX
  5
1EC7D
  8
0
 10
221.3704891502
 20
287.40246222047392
 30
0.0
  0
VERTEX
  5
1EC7E
  8
0
 10
221.40924707049999
 20
287.40861220907402
 30
0.0
  0
SEQEND
  5
1EC7F
  8
0
  0
POLYLINE
  5
1E031
  8
0
 66
     1
 10
0.0
 20
0.0
 30
0.0
 70
   128
  0
VERTEX
  5
1EC80
  8
0
 10
209.36154089859991
 20
288.24169724877402
 30
0.0
  0
VERTEX
  5
1EC81
  8
0
 10
209.2004202306
 20
288.429923827474
 30
0.0
  0
VERTEX
  5
1EC82
  8
0
 10
209.12427343419989
 20
288.64973574567398
 30
0.0
  0
VERTEX
  5
1EC83
  8
0
 10
209.1357696801
 20
288.86565310577402
 30
0.0
  0
VERTEX
  5
1EC84
  8
0
 10
209.23598371439991
 20
289.07602048177398
 30
0.0
  0
VERTEX
  5
1EC85
  8
0
 10
209.4056539236999
 20
289.2302409808741
 30
0.0
  0
VERTEX
  5
1EC86
  8
0
 10
209.6239577977999
 20
289.32700399937403
 30
0.0
  0
VERTEX
  5
1EC87
  8
0
 10
209.88610461350009
 20
289.35510735657402
 30
0.0
  0
VERTEX
  5
1EC88
  8
0
 10
210.1264808327
 20
289.307782199874
 30
0.0
  0
VERTEX
  5
1EC89
  8
0
 10
210.3532280771999
 20
289.192727773174
 30
0.0
  0
VERTEX
  5
1EC8A
  8
0
 10
210.4140508918999
 20
289.14519353467398
 30
0.0
  0
VERTEX
  5
1EC8B
  8
0
 10
210.57449169450001
 20
288.95316646127401
 30
0.0
  0
VERTEX
  5
1EC8C
  8
0
 10
210.65491698679989
 20
288.731966173974
 30
0.0
  0
VERTEX
  5
1EC8D
  8
0
 10
210.6409937142999
 20
288.50620869237412
 30
0.0
  0
VERTEX
  5
1EC8E
  8
0
 10
210.54734364149999
 20
288.32161357317409
 30
0.0
  0
VERTEX
  5
1EC8F
  8
0
 10
210.37600636479999
 20
288.163811905974
 30
0.0
  0
VERTEX
  5
1EC90
  8
0
 10
210.1483110337999
 20
288.06780651837403
 30
0.0
  0
VERTEX
  5
1EC91
  8
0
 10
209.90631990130001
 20
288.042317150874
 30
0.0
  0
VERTEX
  5
1EC92
  8
0
 10
209.64438915249991
 20
288.08613029007398
 30
0.0
  0
VERTEX
  5
1EC93
  8
0
 10
209.41674225029999
 20
288.19923592427398
 30
0.0
  0
VERTEX
  5
1EC94
  8
0
 10
209.36154089859991
 20
288.24169724877402
 30
0.0
  0
SEQEND
  5
1EC95
  8
0
  0
POLYLINE
  5
1E032
  8
0
 66
     1
 10
0.0
 20
0.0
 30
0.0
 70
   128
  0
VERTEX
  5
1EC96
  8
0
 10
226.25836431979991
 20
289.47309265537399
 30
0.0
  0
VERTEX
  5
1EC97
  8
0
 10
226.37593820689989
 20
289.44839141957402
 30
0.0
  0
VERTEX
  5
1EC98
  8
0
 10
226.4352411031
 20
289.34980533707397
 30
0.0
  0
VERTEX
  5
1EC99
  8
0
 10
226.4341607689
 20
289.203170693174
 30
0.0
  0
VERTEX
  5
1EC9A
  8
0
 10
226.3672210275999
 20
289.0087305630741
 30
0.0
  0
VERTEX
  5
1EC9B
  8
0
 10
226.24400332569999
 20
288.813284371674
 30
0.0
  0
VERTEX
  5
1EC9C
  8
0
 10
226.07867866749999
 20
288.62908483177398
 30
0.0
  0
VERTEX
  5
1EC9D
  8
0
 10
225.8799903094
 20
288.46634925037398
 30
0.0
  0
VERTEX
  5
1EC9E
  8
0
 10
225.694437325
 20
288.35774842347399
 30
0.0
  0
VERTEX
  5
1EC9F
  8
0
 10
225.52601322529989
 20
288.297453202974
 30
0.0
  0
VERTEX
  5
1ECA0
  8
0
 10
225.4872851072999
 20
288.29145501997402
 30
0.0
  0
VERTEX
  5
1ECA1
  8
0
 10
225.37819370619991
 20
288.31219440947399
 30
0.0
  0
VERTEX
  5
1ECA2
  8
0
 10
225.33746510739999
 20
288.38950675607401
 30
0.0
  0
VERTEX
  5
1ECA3
  8
0
 10
225.36206319919989
 20
288.52602700397398
 30
0.0
  0
VERTEX
  5
1ECA4
  8
0
 10
225.4418961703
 20
288.6940327069741
 30
0.0
  0
VERTEX
  5
1ECA5
  8
0
 10
225.57112276549989
 20
288.8949539109741
 30
0.0
  0
VERTEX
  5
1ECA6
  8
0
 10
225.7296413183
 20
289.093630161774
 30
0.0
  0
VERTEX
  5
1ECA7
  8
0
 10
225.8932635187999
 20
289.26136694547398
 30
0.0
  0
VERTEX
  5
1ECA8
  8
0
 10
226.06860920779991
 20
289.398365427474
 30
0.0
  0
VERTEX
  5
1ECA9
  8
0
 10
226.22094750399989
 20
289.46648073077398
 30
0.0
  0
VERTEX
  5
1ECAA
  8
0
 10
226.25836431979991
 20
289.47309265537399
 30
0.0
  0
SEQEND
  5
1ECAB
  8
0
  0
POLYLINE
  5
1E033
  8
0
 66
     1
 10
0.0
 20
0.0
 30
0.0
 70
   128
  0
VERTEX
  5
1ECAC
  8
0
 10
226.20444446799999
 20
287.90265136097412
 30
0.0
  0
VERTEX
  5
1ECAD
  8
0
 10
226.312507689
 20
287.88596206037403
 30
0.0
  0
VERTEX
  5
1ECAE
  8
0
 10
226.3419412076
 20
287.81621345017402
 30
0.0
  0
VERTEX
  5
1ECAF
  8
0
 10
226.29968523970001
 20
287.71332931397399
 30
0.0
  0
VERTEX
  5
1ECB0
  8
0
 10
226.181217283
 20
287.57763049257397
 30
0.0
  0
VERTEX
  5
1ECB1
  8
0
 10
226.00692957640001
 20
287.44118149087399
 30
0.0
  0
VERTEX
  5
1ECB2
  8
0
 10
225.7947184144999
 20
287.314035935974
 30
0.0
  0
VERTEX
  5
1ECB3
  8
0
 10
225.55852383369989
 20
287.204196682874
 30
0.0
  0
VERTEX
  5
1ECB4
  8
0
 10
225.35128220909999
 20
287.13177843647401
 30
0.0
  0
VERTEX
  5
1ECB5
  8
0
 10
225.17289295789999
 20
287.09104471537398
 30
0.0
  0
VERTEX
  5
1ECB6
  8
0
 10
225.1360386609999
 20
287.08693525447399
 30
0.0
  0
VERTEX
  5
1ECB7
  8
0
 10
225.03444254390001
 20
287.09866898757411
 30
0.0
  0
VERTEX
  5
1ECB8
  8
0
 10
225.0137932598
 20
287.14786936227398
 30
0.0
  0
VERTEX
  5
1ECB9
  8
0
 10
225.07140114899991
 20
287.23766049997403
 30
0.0
  0
VERTEX
  5
1ECBA
  8
0
 10
225.1929052173999
 20
287.35168046017401
 30
0.0
  0
VERTEX
  5
1ECBB
  8
0
 10
225.37314221259999
 20
287.49071993557402
 30
0.0
  0
VERTEX
  5
1ECBC
  8
0
 10
225.58298781510001
 20
287.63052449257401
 30
0.0
  0
VERTEX
  5
1ECBD
  8
0
 10
225.7907509803
 20
287.750420632474
 30
0.0
  0
VERTEX
  5
1ECBE
  8
0
 10
226.00139006969991
 20
287.84900485227411
 30
0.0
  0
VERTEX
  5
1ECBF
  8
0
 10
226.16852521889999
 20
287.89799614507399
 30
0.0
  0
VERTEX
  5
1ECC0
  8
0
 10
226.20444446799999
 20
287.90265136097412
 30
0.0
  0
SEQEND
  5
1ECC1
  8
0
  0
POLYLINE
  5
1E034
  8
0
 66
     1
 10
0.0
 20
0.0
 30
0.0
 70
   128
  0
VERTEX
  5
1ECC2
  8
0
 10
219.1142596304
 20
288.50500728627412
 30
0.0
  0
VERTEX
  5
1ECC3
  8
0
 10
219.23283562060001
 20
288.485428790274
 30
0.0
  0
VERTEX
  5
1ECC4
  8
0
 10
219.28490027780001
 20
288.39627863537402
 30
0.0
  0
VERTEX
  5
1ECC5
  8
0
 10
219.2736387251999
 20
288.26537682367399
 30
0.0
  0
VERTEX
  5
1ECC6
  8
0
 10
219.1944092512
 20
288.08977967757409
 30
0.0
  0
VERTEX
  5
1ECC7
  8
0
 10
219.0602913498
 20
287.91478183747398
 30
0.0
  0
VERTEX
  5
1ECC8
  8
0
 10
218.8889242708
 20
287.752293522174
 30
0.0
  0
VERTEX
  5
1ECC9
  8
0
 10
218.6765529214999
 20
287.599779206074
 30
0.0
  0
VERTEX
  5
1ECCA
  8
0
 10
218.46979558460001
 20
287.49124054487402
 30
0.0
  0
VERTEX
  5
1ECCB
  8
0
 10
218.2874538003999
 20
287.43058723087398
 30
0.0
  0
VERTEX
  5
1ECCC
  8
0
 10
218.23944598429989
 20
287.42300393687401
 30
0.0
  0
VERTEX
  5
1ECCD
  8
0
 10
218.12777668230001
 20
287.43810346977398
 30
0.0
  0
VERTEX
  5
1ECCE
  8
0
 10
218.0876478552
 20
287.50799736637401
 30
0.0
  0
VERTEX
  5
1ECCF
  8
0
 10
218.12313124529999
 20
287.62977198387398
 30
0.0
  0
VERTEX
  5
1ECD0
  8
0
 10
218.21089908479999
 20
287.77134186287401
 30
0.0
  0
VERTEX
  5
1ECD1
  8
0
 10
218.34980770940001
 20
287.946358794974
 30
0.0
  0
VERTEX
  5
1ECD2
  8
0
 10
218.52709799999991
 20
288.13240072387401
 30
0.0
  0
VERTEX
  5
1ECD3
  8
0
 10
218.7088996171
 20
288.2917991436741
 30
0.0
  0
VERTEX
  5
1ECD4
  8
0
 10
218.90008524059999
 20
288.42391842667399
 30
0.0
  0
VERTEX
  5
1ECD5
  8
0
 10
219.07115802160001
 20
288.496819098174
 30
0.0
  0
VERTEX
  5
1ECD6
  8
0
 10
219.1142596304
 20
288.50500728627412
 30
0.0
  0
SEQEND
  5
1ECD7
  8
0
  0
POLYLINE
  5
1E035
  8
0
 66
     1
 10
0.0
 20
0.0
 30
0.0
 70
   128
  0
VERTEX
  5
1ECD8
  8
0
 10
221.52086421839999
 20
288.841836626374
 30
0.0
  0
VERTEX
  5
1ECD9
  8
0
 10
221.63837850089999
 20
288.82406675887398
 30
0.0
  0
VERTEX
  5
1ECDA
  8
0
 10
221.6929353773001
 20
288.734286796974
 30
0.0
  0
VERTEX
  5
1ECDB
  8
0
 10
221.68571576469989
 20
288.60005690407399
 30
0.0
  0
VERTEX
  5
1ECDC
  8
0
 10
221.61203324789989
 20
288.41871116937398
 30
0.0
  0
VERTEX
  5
1ECDD
  8
0
 10
221.4824900031
 20
288.234933518574
 30
0.0
  0
VERTEX
  5
1ECDE
  8
0
 10
221.3125720619999
 20
288.06134267407401
 30
0.0
  0
VERTEX
  5
1ECDF
  8
0
 10
221.10544219609989
 20
287.90237475807402
 30
0.0
  0
VERTEX
  5
1ECE0
  8
0
 10
220.9102593362
 20
287.79285960527397
 30
0.0
  0
VERTEX
  5
1ECE1
  8
0
 10
220.73525637380001
 20
287.72961209227401
 30
0.0
  0
VERTEX
  5
1ECE2
  8
0
 10
220.68949490779991
 20
287.721305160474
 30
0.0
  0
VERTEX
  5
1ECE3
  8
0
 10
220.5790512262999
 20
287.73469618217399
 30
0.0
  0
VERTEX
  5
1ECE4
  8
0
 10
220.53862810129999
 20
287.80453559637402
 30
0.0
  0
VERTEX
  5
1ECE5
  8
0
 10
220.5706134438
 20
287.92927414807411
 30
0.0
  0
VERTEX
  5
1ECE6
  8
0
 10
220.6549949944
 20
288.077670155774
 30
0.0
  0
VERTEX
  5
1ECE7
  8
0
 10
220.78988775609989
 20
288.26184827527391
 30
0.0
  0
VERTEX
  5
1ECE8
  8
0
 10
220.95968276260001
 20
288.454823667874
 30
0.0
  0
VERTEX
  5
1ECE9
  8
0
 10
221.1346782743
 20
288.62125543567402
 30
0.0
  0
VERTEX
  5
1ECEA
  8
0
 10
221.3185995817
 20
288.75878756557398
 30
0.0
  0
VERTEX
  5
1ECEB
  8
0
 10
221.48056775329999
 20
288.83326124097402
 30
0.0
  0
VERTEX
  5
1ECEC
  8
0
 10
221.52086421839999
 20
288.841836626374
 30
0.0
  0
SEQEND
  5
1ECED
  8
0
  0
POLYLINE
  5
1E036
  8
0
 66
     1
 10
0.0
 20
0.0
 30
0.0
 70
   128
  0
VERTEX
  5
1ECEE
  8
0
 10
223.89870584010001
 20
289.18632399917402
 30
0.0
  0
VERTEX
  5
1ECEF
  8
0
 10
224.016238749
 20
289.165646076874
 30
0.0
  0
VERTEX
  5
1ECF0
  8
0
 10
224.07340332859991
 20
289.071722428074
 30
0.0
  0
VERTEX
  5
1ECF1
  8
0
 10
224.06969666480001
 20
288.93141751807411
 30
0.0
  0
VERTEX
  5
1ECF2
  8
0
 10
224.00008216500001
 20
288.74315019387399
 30
0.0
  0
VERTEX
  5
1ECF3
  8
0
 10
223.8744318485
 20
288.55282790657401
 30
0.0
  0
VERTEX
  5
1ECF4
  8
0
 10
223.707550019
 20
288.372950867474
 30
0.0
  0
VERTEX
  5
1ECF5
  8
0
 10
223.50450679659991
 20
288.21011400477403
 30
0.0
  0
VERTEX
  5
1ECF6
  8
0
 10
223.31329137079999
 20
288.09907218137403
 30
0.0
  0
VERTEX
  5
1ECF7
  8
0
 10
223.14119413489991
 20
288.03620488077399
 30
0.0
  0
VERTEX
  5
1ECF8
  8
0
 10
223.10018241399999
 20
288.029148715274
 30
0.0
  0
VERTEX
  5
1ECF9
  8
0
 10
222.9908823966999
 20
288.04617189497401
 30
0.0
  0
VERTEX
  5
1ECFA
  8
0
 10
222.9508951306
 20
288.11929445407401
 30
0.0
  0
VERTEX
  5
1ECFB
  8
0
 10
222.9784399271
 20
288.25008287717412
 30
0.0
  0
VERTEX
  5
1ECFC
  8
0
 10
223.0605229734999
 20
288.41004591127398
 30
0.0
  0
VERTEX
  5
1ECFD
  8
0
 10
223.19265902039999
 20
288.60448185047392
 30
0.0
  0
VERTEX
  5
1ECFE
  8
0
 10
223.3554951845999
 20
288.800605346174
 30
0.0
  0
VERTEX
  5
1ECFF
  8
0
 10
223.5237069428
 20
288.96815959057398
 30
0.0
  0
VERTEX
  5
1ED00
  8
0
 10
223.70254695409989
 20
289.10619347047401
 30
0.0
  0
VERTEX
  5
1ED01
  8
0
 10
223.859731853
 20
289.17851951597407
 30
0.0
  0
VERTEX
  5
1ED02
  8
0
 10
223.89870584010001
 20
289.18632399917402
 30
0.0
  0
SEQEND
  5
1ED03
  8
0
  0
POLYLINE
  5
1E037
  8
0
 66
     1
 10
0.0
 20
0.0
 30
0.0
 70
   128
  0
VERTEX
  5
1ED04
  8
0
 10
213.61292228100001
 20
289.55087485417403
 30
0.0
  0
VERTEX
  5
1ED05
  8
0
 10
213.77789303660001
 20
289.38991623627402
 30
0.0
  0
VERTEX
  5
1ED06
  8
0
 10
213.8632431625999
 20
289.18019240417402
 30
0.0
  0
VERTEX
  5
1ED07
  8
0
 10
213.86331021779989
 20
288.95787173577412
 30
0.0
  0
VERTEX
  5
1ED08
  8
0
 10
213.77725973720001
 20
288.72388322527399
 30
0.0
  0
VERTEX
  5
1ED09
  8
0
 10
213.6167779564
 20
288.52612828527401
 30
0.0
  0
VERTEX
  5
1ED0A
  8
0
 10
213.39855790129991
 20
288.37610362727401
 30
0.0
  0
VERTEX
  5
1ED0B
  8
0
 10
213.14571499819999
 20
288.2953132565741
 30
0.0
  0
VERTEX
  5
1ED0C
  8
0
 10
212.9166692494999
 20
288.29262243277401
 30
0.0
  0
VERTEX
  5
1ED0D
  8
0
 10
212.69676908849999
 20
288.35791745847399
 30
0.0
  0
VERTEX
  5
1ED0E
  8
0
 10
212.6425661145999
 20
288.38862595777402
 30
0.0
  0
VERTEX
  5
1ED0F
  8
0
 10
212.48186081639989
 20
288.54530025897401
 30
0.0
  0
VERTEX
  5
1ED10
  8
0
 10
212.39852979769989
 20
288.74359606457398
 30
0.0
  0
VERTEX
  5
1ED11
  8
0
 10
212.398423627
 20
288.97936619517401
 30
0.0
  0
VERTEX
  5
1ED12
  8
0
 10
212.48048618429991
 20
289.20083633317398
 30
0.0
  0
VERTEX
  5
1ED13
  8
0
 10
212.639645487
 20
289.40779530137399
 30
0.0
  0
VERTEX
  5
1ED14
  8
0
 10
212.8550976514
 20
289.56021462257411
 30
0.0
  0
VERTEX
  5
1ED15
  8
0
 10
213.090994209
 20
289.641920716274
 30
0.0
  0
VERTEX
  5
1ED16
  8
0
 10
213.34703341119999
 20
289.65094942297401
 30
0.0
  0
VERTEX
  5
1ED17
  8
0
 10
213.56250792739999
 20
289.58087089167401
 30
0.0
  0
VERTEX
  5
1ED18
  8
0
 10
213.61292228100001
 20
289.55087485417403
 30
0.0
  0
SEQEND
  5
1ED19
  8
0
  0
ARC
  5
1E038
  8
0
 10
226.74281202404799
 20
296.62034818606668
 30
0.0
 40
10.086805469071709
 50
276.26800901104087
 51
309.31732236883369
  0
ARC
  5
1E039
  8
0
 10
229.17630654789991
 20
292.01050406097397
 30
0.0
 40
5.0856055675235803
 50
321.09671733909818
 51
359.87983954789831
  0
ARC
  5
1E03A
  8
0
 10
224.64934520940639
 20
292.06869056095809
 30
0.0
 40
5.7158287420596343
 50
274.53732965230802
 51
359.3098239416334
  0
ARC
  5
1E03B
  8
0
 10
227.6196780457
 20
292.50428991137397
 30
0.0
 40
5.4009622690394918
 50
268.55607903537361
 51
354.64074718470158
  0
POLYLINE
  5
1E03E
  8
0
 66
     1
 10
0.0
 20
0.0
 30
0.0
 70
   128
  0
VERTEX
  5
1ED1A
  8
0
 10
213.4572051465
 20
285.80587683867401
 30
0.0
  0
VERTEX
  5
1ED1B
  8
0
 10
213.57178017489991
 20
285.807877785274
 30
0.0
  0
VERTEX
  5
1ED1C
  8
0
 10
213.6066898703117
 20
285.78406060741861
 30
0.0
  0
SEQEND
  5
1ED1D
  8
0
  0
ARC
  5
1E08D
  8
0
 10
240.17799549184181
 20
73.200028265106752
 30
0.0
 40
0.5000279902397152
 50
249.14692045769391
 51
269.99934219627141
  0
ARC
  5
1E08E
  8
0
 10
240.1779954918419
 20
73.49997240469277
 30
0.0
 40
0.5000279902401694
 50
90.000657803741674
 51
110.8530795422991
  0
ARC
  5
1E08F
  8
0
 10
240.1779954918419
 20
86.500028489407214
 30
0.0
 40
0.5000279902401806
 50
249.1469204577009
 51
269.9993421962584
  0
ARC
  5
1E090
  8
0
 10
240.17799549076
 20
86.799972634771621
 30
0.0
 40
0.5000279843613111
 50
90.000657679787764
 51
110.8530796662495
  0
LINE
  5
1E091
  8
0
 10
223.0952719733211
 20
182.0067145687004
 30
0.0
 11
234.21458188472121
 21
189.46030709660039
 31
0.0
  0
LINE
  5
1E135
  8
1
 10
330.00000062579983
 20
227.00040704063039
 30
0.0
 11
330.00000062579983
 21
144.99999961259999
 31
0.0
  0
ARC
  5
1E136
  8
0
 10
330.0000006257838
 20
167.99999922520479
 30
0.0
 40
8.9999999999954898
 50
302.73922703479832
 51
320.96017892274909
  0
ARC
  5
1E137
  8
0
 10
324.7000006257997
 20
159.75682022679999
 30
0.0
 40
0.8000000000000092
 50
0.0
 51
57.260772965100891
  0
ARC
  5
1E138
  8
0
 10
335.30000062579978
 20
159.75682022679999
 30
0.0
 40
0.8000000000000092
 50
122.7392270348991
 51
180.0
  0
ARC
  5
1E139
  8
0
 10
330.0000006257838
 20
167.99999922520479
 30
0.0
 40
8.9999999999954898
 50
219.0398210772544
 51
237.2607729652016
  0
ARC
  5
1E13B
  8
0
 10
213.1307315233644
 20
212.28592812670121
 30
0.0
 40
12.013389257059149
 50
184.51732935507201
 51
205.12960958363229
  0
ARC
  5
1E13C
  8
0
 10
191.5970618981458
 20
177.76558539303261
 30
0.0
 40
28.886694065619729
 50
38.927783722255413
 51
49.108280845212562
  0
ARC
  5
1E13D
  8
0
 10
221.1305594170714
 20
222.8304500345711
 30
0.0
 40
25.04563258631374
 50
228.04143421941649
 51
238.6820473812252
  0
ARC
  5
1E13E
  8
0
 10
210.8273069084153
 20
211.03530453394561
 30
0.0
 40
9.9353588752247042
 50
205.64722384172981
 51
224.58937421918549
  0
LINE
  5
1E141
  8
0
 10
230.36503121250001
 20
196.4772060514
 30
0.0
 11
217.7145414053999
 21
218.43081861740001
 31
0.0
  0
ARC
  5
1E142
  8
0
 10
210.50238310179739
 20
212.89352926249589
 30
0.0
 40
9.0926784170649366
 50
37.516025557783323
 51
57.485203205341129
  0
ARC
  5
1E143
  8
0
 10
210.46608100698879
 20
212.86000512602419
 30
0.0
 40
9.1404694153151063
 50
57.406271758146097
 51
78.699423640737606
  0
ARC
  5
1E144
  8
0
 10
210.46749462016649
 20
212.833798412047
 30
0.0
 40
9.1658933656023081
 50
78.740189822317404
 51
101.03359430199269
  0
ARC
  5
1E145
  8
0
 10
210.46777976829199
 20
212.85577690272029
 30
0.0
 40
9.1443768177126188
 50
101.0617035426794
 51
123.8351413762837
  0
LINE
  5
1E192
  8
0
 10
335.89151370519971
 20
196.5558245778
 30
0.0
 11
336.83926108469967
 21
214.95655700570001
 31
0.0
  0
LINE
  5
1E194
  8
0
 10
335.6354547561985
 20
191.67564451822651
 30
0.0
 11
335.80404482029968
 21
194.88976299769999
 31
0.0
  0
LINE
  5
1E195
  8
0
 10
334.96984563304522
 20
189.13487708586231
 30
0.0
 11
335.09731720379978
 21
191.56832396990001
 31
0.0
  0
ARC
  5
1E196
  8
0
 10
329.88643716679968
 20
216.17111069730001
 30
0.0
 40
5.8296751737108483
 50
88.882221548104212
 51
124.11879480960511
  0
ARC
  5
1E197
  8
0
 10
329.6274710253997
 20
215.74179899009999
 30
0.0
 40
6.0569642312669449
 50
119.8087965767066
 51
144.5238909889039
  0
ARC
  5
1E198
  8
0
 10
328.56688829390032
 20
215.469188610792
 30
0.0
 40
5.3091317921955108
 50
149.94836962875189
 51
169.5347582250686
  0
LINE
  5
1E199
  8
0
 10
324.10848754639977
 20
196.5558245778
 30
0.0
 11
323.16074016689981
 21
214.95655700570001
 31
0.0
  0
LINE
  5
1E19A
  8
0
 10
324.3645464954011
 20
191.67564451822651
 30
0.0
 11
324.19595643129981
 21
194.88976299769999
 31
0.0
  0
LINE
  5
1E19B
  8
0
 10
324.59944960839971
 20
187.35514543950001
 30
0.0
 11
324.54299050569972
 21
188.26377354569999
 31
0.0
  0
POLYLINE
  5
1E19C
  8
0
 66
     1
 10
0.0
 20
0.0
 30
0.0
 70
   128
  0
VERTEX
  5
1ED1E
  8
0
 10
324.95357587288407
 20
189.03034741027949
 30
0.0
  0
VERTEX
  5
1ED1F
  8
0
 10
324.90557207909978
 20
189.2395444215
 30
0.0
  0
VERTEX
  5
1ED20
  8
0
 10
324.74482673399979
 20
189.80740532280001
 30
0.0
  0
VERTEX
  5
1ED21
  8
0
 10
324.58038822929967
 20
190.39029031999999
 30
0.0
  0
VERTEX
  5
1ED22
  8
0
 10
324.3645464954011
 20
191.67564451822679
 30
0.0
  0
SEQEND
  5
1ED23
  8
0
  0
LINE
  5
1E19D
  8
0
 10
325.03015561855432
 20
189.13487708586231
 30
0.0
 11
324.90268404779982
 21
191.56832396990001
 31
0.0
  0
POLYLINE
  5
1E19E
  8
0
 66
     1
 10
0.0
 20
0.0
 30
0.0
 70
   128
  0
VERTEX
  5
1ED24
  8
0
 10
323.29608741399983
 20
216.1426447332
 30
0.0
  0
VERTEX
  5
1ED25
  8
0
 10
323.28111919759982
 20
215.98209962249999
 30
0.0
  0
VERTEX
  5
1ED26
  8
0
 10
323.25246985249981
 20
215.73827937249999
 30
0.0
  0
VERTEX
  5
1ED27
  8
0
 10
323.22894930089979
 20
215.51727652549999
 30
0.0
  0
VERTEX
  5
1ED28
  8
0
 10
323.20618731149978
 20
215.28738141060001
 30
0.0
  0
VERTEX
  5
1ED29
  8
0
 10
323.1863301172998
 20
215.09332358840001
 30
0.0
  0
VERTEX
  5
1ED2A
  8
0
 10
323.17078960309982
 20
214.97678533199999
 30
0.0
  0
VERTEX
  5
1ED2B
  8
0
 10
323.16074016689981
 20
214.95655700570001
 30
0.0
  0
VERTEX
  5
1ED2C
  8
0
 10
323.1588132604997
 20
215.02473726869999
 30
0.0
  0
VERTEX
  5
1ED2D
  8
0
 10
323.16699399799973
 20
215.17273932699999
 30
0.0
  0
VERTEX
  5
1ED2E
  8
0
 10
323.16980146989982
 20
215.20769372589999
 30
0.0
  0
VERTEX
  5
1ED2F
  8
0
 10
323.19360234959981
 20
215.44217094780001
 30
0.0
  0
VERTEX
  5
1ED30
  8
0
 10
323.22387871519982
 20
215.67691266540001
 30
0.0
  0
VERTEX
  5
1ED31
  8
0
 10
323.2617169543999
 20
215.9308880568
 30
0.0
  0
VERTEX
  5
1ED32
  8
0
 10
323.29608741399983
 20
216.1426447332
 30
0.0
  0
VERTEX
  5
1ED33
  8
0
 10
323.3263772836998
 20
216.3200430572
 30
0.0
  0
VERTEX
  5
1ED34
  8
0
 10
323.3460724278998
 20
216.43353402619999
 30
0.0
  0
SEQEND
  5
1ED35
  8
0
  0
POLYLINE
  5
1E19F
  8
0
 66
     1
 10
0.0
 20
0.0
 30
0.0
 70
   128
  0
VERTEX
  5
1ED36
  8
0
 10
324.86477409669988
 20
214.99931961300001
 30
0.0
  0
VERTEX
  5
1ED37
  8
0
 10
324.85530021779982
 20
214.75485116249999
 30
0.0
  0
VERTEX
  5
1ED38
  8
0
 10
324.79891142989982
 20
214.49688225989999
 30
0.0
  0
VERTEX
  5
1ED39
  8
0
 10
324.71252846709979
 20
214.26541507249999
 30
0.0
  0
VERTEX
  5
1ED3A
  8
0
 10
324.59925077109978
 20
214.05949965120001
 30
0.0
  0
VERTEX
  5
1ED3B
  8
0
 10
324.48803409189981
 20
213.93047049649999
 30
0.0
  0
VERTEX
  5
1ED3C
  8
0
 10
324.38426007699979
 20
213.87189030650001
 30
0.0
  0
VERTEX
  5
1ED3D
  8
0
 10
324.29076832899977
 20
213.89313936240001
 30
0.0
  0
VERTEX
  5
1ED3E
  8
0
 10
324.22696155679978
 20
213.99361789229999
 30
0.0
  0
VERTEX
  5
1ED3F
  8
0
 10
324.18863483889982
 20
214.16595354680001
 30
0.0
  0
VERTEX
  5
1ED40
  8
0
 10
324.18294352659967
 20
214.23386558889999
 30
0.0
  0
VERTEX
  5
1ED41
  8
0
 10
324.18775520469978
 20
214.48132172230001
 30
0.0
  0
VERTEX
  5
1ED42
  8
0
 10
324.22530240559979
 20
214.73951041699999
 30
0.0
  0
VERTEX
  5
1ED43
  8
0
 10
324.29757210609978
 20
214.9928599596
 30
0.0
  0
VERTEX
  5
1ED44
  8
0
 10
324.39112206169989
 20
215.18882513049999
 30
0.0
  0
VERTEX
  5
1ED45
  8
0
 10
324.50774180889982
 20
215.3301477433001
 30
0.0
  0
VERTEX
  5
1ED46
  8
0
 10
324.62329705429983
 20
215.3807930649001
 30
0.0
  0
VERTEX
  5
1ED47
  8
0
 10
324.72128848729972
 20
215.35216420890001
 30
0.0
  0
VERTEX
  5
1ED48
  8
0
 10
324.80797552689978
 20
215.24492055179999
 30
0.0
  0
VERTEX
  5
1ED49
  8
0
 10
324.85862597069968
 20
215.06258249289999
 30
0.0
  0
VERTEX
  5
1ED4A
  8
0
 10
324.86477409669988
 20
214.99931961300001
 30
0.0
  0
SEQEND
  5
1ED4B
  8
0
  0
POLYLINE
  5
1E1A0
  8
0
 66
     1
 10
0.0
 20
0.0
 30
0.0
 70
   128
  0
VERTEX
  5
1ED4C
  8
0
 10
324.04159343979973
 20
211.89379841089999
 30
0.0
  0
VERTEX
  5
1ED4D
  8
0
 10
324.04048702859973
 20
211.64691597230001
 30
0.0
  0
VERTEX
  5
1ED4E
  8
0
 10
324.01234991099977
 20
211.38235330590001
 30
0.0
  0
VERTEX
  5
1ED4F
  8
0
 10
323.96514582629982
 20
211.1359886825
 30
0.0
  0
VERTEX
  5
1ED50
  8
0
 10
323.90323988339981
 20
210.91966107490001
 30
0.0
  0
VERTEX
  5
1ED51
  8
0
 10
323.84274768829982
 20
210.782968998
 30
0.0
  0
VERTEX
  5
1ED52
  8
0
 10
323.78567158429979
 20
210.71770563730001
 30
0.0
  0
VERTEX
  5
1ED53
  8
0
 10
323.7354290596997
 20
210.73759868740001
 30
0.0
  0
VERTEX
  5
1ED54
  8
0
 10
323.70143578569969
 20
210.8351714909
 30
0.0
  0
VERTEX
  5
1ED55
  8
0
 10
323.67884981629982
 20
211.00395321849999
 30
0.0
  0
VERTEX
  5
1ED56
  8
0
 10
323.67525397979978
 20
211.05966493490001
 30
0.0
  0
VERTEX
  5
1ED57
  8
0
 10
323.67232776429978
 20
211.3077692688
 30
0.0
  0
VERTEX
  5
1ED58
  8
0
 10
323.68657327439968
 20
211.56645715240001
 30
0.0
  0
VERTEX
  5
1ED59
  8
0
 10
323.71988807989987
 20
211.82400882249999
 30
0.0
  0
VERTEX
  5
1ED5A
  8
0
 10
323.76727470379979
 20
212.02815100550001
 30
0.0
  0
VERTEX
  5
1ED5B
  8
0
 10
323.82984561099988
 20
212.17906624080001
 30
0.0
  0
VERTEX
  5
1ED5C
  8
0
 10
323.8954046665998
 20
212.2405782342
 30
0.0
  0
VERTEX
  5
1ED5D
  8
0
 10
323.95458555959982
 20
212.2209534049
 30
0.0
  0
VERTEX
  5
1ED5E
  8
0
 10
324.00742740549981
 20
212.118690461
 30
0.0
  0
VERTEX
  5
1ED5F
  8
0
 10
324.0375524311998
 20
211.94847077130009
 30
0.0
  0
VERTEX
  5
1ED60
  8
0
 10
324.04159343979973
 20
211.89379841089999
 30
0.0
  0
SEQEND
  5
1ED61
  8
0
  0
POLYLINE
  5
1E1A1
  8
0
 66
     1
 10
0.0
 20
0.0
 30
0.0
 70
   128
  0
VERTEX
  5
1ED62
  8
0
 10
323.45307999469969
 20
212.5347048045
 30
0.0
  0
VERTEX
  5
1ED63
  8
0
 10
323.4601161367998
 20
212.2893162072001
 30
0.0
  0
VERTEX
  5
1ED64
  8
0
 10
323.45519223429977
 20
212.02556937940011
 30
0.0
  0
VERTEX
  5
1ED65
  8
0
 10
323.44167408719977
 20
211.77817285059999
 30
0.0
  0
VERTEX
  5
1ED66
  8
0
 10
323.4219435527998
 20
211.55378744010011
 30
0.0
  0
VERTEX
  5
1ED67
  8
0
 10
323.40092267089972
 20
211.39828264720001
 30
0.0
  0
VERTEX
  5
1ED68
  8
0
 10
323.38070272649969
 20
211.3200366497
 30
0.0
  0
VERTEX
  5
1ED69
  8
0
 10
323.36245020099977
 20
211.33449077610001
 30
0.0
  0
VERTEX
  5
1ED6A
  8
0
 10
323.34812413149979
 20
211.4261068404
 30
0.0
  0
VERTEX
  5
1ED6B
  8
0
 10
323.33497711639978
 20
211.59116327769999
 30
0.0
  0
VERTEX
  5
1ED6C
  8
0
 10
323.33286022019979
 20
211.62792444230001
 30
0.0
  0
VERTEX
  5
1ED6D
  8
0
 10
323.32274419439977
 20
211.87526509169999
 30
0.0
  0
VERTEX
  5
1ED6E
  8
0
 10
323.3181285596998
 20
212.1197745204
 30
0.0
  0
VERTEX
  5
1ED6F
  8
0
 10
323.31993998209992
 20
212.38245591520001
 30
0.0
  0
VERTEX
  5
1ED70
  8
0
 10
323.3305207378998
 20
212.60513514280001
 30
0.0
  0
VERTEX
  5
1ED71
  8
0
 10
323.35086082289968
 20
212.76984140280001
 30
0.0
  0
VERTEX
  5
1ED72
  8
0
 10
323.37714833389981
 20
212.84270435580009
 30
0.0
  0
VERTEX
  5
1ED73
  8
0
 10
323.40531013159978
 20
212.83221766360001
 30
0.0
  0
VERTEX
  5
1ED74
  8
0
 10
323.43273432179973
 20
212.73476034410001
 30
0.0
  0
VERTEX
  5
1ED75
  8
0
 10
323.45031443229982
 20
212.57706508039999
 30
0.0
  0
VERTEX
  5
1ED76
  8
0
 10
323.45307999469969
 20
212.5347048045
 30
0.0
  0
SEQEND
  5
1ED77
  8
0
  0
ARC
  5
1E1A2
  8
0
 10
332.72721028834133
 20
213.31239468374511
 30
0.0
 40
9.9928088714438648
 50
143.4950463492489
 51
151.18998771811289
  0
POLYLINE
  5
1E1A3
  8
0
 66
     1
 10
0.0
 20
0.0
 30
0.0
 70
   128
  0
VERTEX
  5
1ED78
  8
0
 10
326.3386533054998
 20
217.850522697
 30
0.0
  0
VERTEX
  5
1ED79
  8
0
 10
326.29521059989969
 20
217.61695072059999
 30
0.0
  0
VERTEX
  5
1ED7A
  8
0
 10
326.19011387409978
 20
217.38881021740011
 30
0.0
  0
VERTEX
  5
1ED7B
  8
0
 10
326.05445719509981
 20
217.1998634935
 30
0.0
  0
VERTEX
  5
1ED7C
  8
0
 10
325.87724746389978
 20
217.02880933879999
 30
0.0
  0
VERTEX
  5
1ED7D
  8
0
 10
325.69395293659983
 20
216.9224634767001
 30
0.0
  0
VERTEX
  5
1ED7E
  8
0
 10
325.52721453079971
 20
216.88828766350011
 30
0.0
  0
VERTEX
  5
1ED7F
  8
0
 10
325.37764505669981
 20
216.9306777418
 30
0.0
  0
VERTEX
  5
1ED80
  8
0
 10
325.2755572012997
 20
217.050497979
 30
0.0
  0
VERTEX
  5
1ED81
  8
0
 10
325.22852913659972
 20
217.2380141914
 30
0.0
  0
VERTEX
  5
1ED82
  8
0
 10
325.22733750939977
 20
217.3017874360001
 30
0.0
  0
VERTEX
  5
1ED83
  8
0
 10
325.26667145259978
 20
217.5411894918
 30
0.0
  0
VERTEX
  5
1ED84
  8
0
 10
325.36108986659968
 20
217.77532398700001
 30
0.0
  0
VERTEX
  5
1ED85
  8
0
 10
325.50955199819981
 20
217.99388676890001
 30
0.0
  0
VERTEX
  5
1ED86
  8
0
 10
325.67140468579981
 20
218.14457476140001
 30
0.0
  0
VERTEX
  5
1ED87
  8
0
 10
325.85532087079969
 20
218.24628263720001
 30
0.0
  0
VERTEX
  5
1ED88
  8
0
 10
326.04069876669968
 20
218.27536225320009
 30
0.0
  0
VERTEX
  5
1ED89
  8
0
 10
326.18729080259982
 20
218.2255886495
 30
0.0
  0
VERTEX
  5
1ED8A
  8
0
 10
326.29483830369969
 20
218.09982284910001
 30
0.0
  0
VERTEX
  5
1ED8B
  8
0
 10
326.33867472589992
 20
217.9103657604
 30
0.0
  0
VERTEX
  5
1ED8C
  8
0
 10
326.3386533054998
 20
217.850522697
 30
0.0
  0
SEQEND
  5
1ED8D
  8
0
  0
POLYLINE
  5
1E1A4
  8
0
 66
     1
 10
0.0
 20
0.0
 30
0.0
 70
   128
  0
VERTEX
  5
1ED8E
  8
0
 10
325.04945024099982
 20
218.81419569260001
 30
0.0
  0
VERTEX
  5
1ED8F
  8
0
 10
324.96399906649981
 20
218.6025060714
 30
0.0
  0
VERTEX
  5
1ED90
  8
0
 10
324.8421187437998
 20
218.3711133898
 30
0.0
  0
VERTEX
  5
1ED91
  8
0
 10
324.70858664429983
 20
218.1590884924
 30
0.0
  0
VERTEX
  5
1ED92
  8
0
 10
324.55988190319971
 20
217.960690707
 30
0.0
  0
VERTEX
  5
1ED93
  8
0
 10
324.42803968859971
 20
217.82526522879999
 30
0.0
  0
VERTEX
  5
1ED94
  8
0
 10
324.32038298989983
 20
217.75723770260001
 30
0.0
  0
VERTEX
  5
1ED95
  8
0
 10
324.24203035599982
 20
217.76534393430001
 30
0.0
  0
VERTEX
  5
1ED96
  8
0
 10
324.21128786349982
 20
217.8507201374
 30
0.0
  0
VERTEX
  5
1ED97
  8
0
 10
324.22675852849989
 20
218.00494715569999
 30
0.0
  0
VERTEX
  5
1ED98
  8
0
 10
324.24111626289982
 20
218.06188449269999
 30
0.0
  0
VERTEX
  5
1ED99
  8
0
 10
324.32085517049973
 20
218.27970221640001
 30
0.0
  0
VERTEX
  5
1ED9A
  8
0
 10
324.43564300609978
 20
218.50703805690009
 30
0.0
  0
VERTEX
  5
1ED9B
  8
0
 10
324.5831346995999
 20
218.73608380560009
 30
0.0
  0
VERTEX
  5
1ED9C
  8
0
 10
324.7291507124998
 20
218.916335702
 30
0.0
  0
VERTEX
  5
1ED9D
  8
0
 10
324.87467824659979
 20
219.0532065928
 30
0.0
  0
VERTEX
  5
1ED9E
  8
0
 10
324.99073407799978
 20
219.1164806486
 30
0.0
  0
VERTEX
  5
1ED9F
  8
0
 10
325.06229364499973
 20
219.10499185329999
 30
0.0
  0
VERTEX
  5
1EDA0
  8
0
 10
325.0912107451997
 20
219.01971250779999
 30
0.0
  0
VERTEX
  5
1EDA1
  8
0
 10
325.06630531699977
 20
218.86905059220001
 30
0.0
  0
VERTEX
  5
1EDA2
  8
0
 10
325.04945024099982
 20
218.81419569260001
 30
0.0
  0
SEQEND
  5
1EDA3
  8
0
  0
POLYLINE
  5
1E1A5
  8
0
 66
     1
 10
0.0
 20
0.0
 30
0.0
 70
   128
  0
VERTEX
  5
1EDA4
  8
0
 10
323.80619886509982
 20
215.77213481070001
 30
0.0
  0
VERTEX
  5
1EDA5
  8
0
 10
323.80819981169981
 20
215.5380524695
 30
0.0
  0
VERTEX
  5
1EDA6
  8
0
 10
323.78438263379991
 20
215.27076661589999
 30
0.0
  0
VERTEX
  5
1EDA7
  8
0
 10
323.74158743019979
 20
215.01984596259999
 30
0.0
  0
VERTEX
  5
1EDA8
  8
0
 10
323.68325962869972
 20
214.79116156699999
 30
0.0
  0
VERTEX
  5
1EDA9
  8
0
 10
323.6231590545998
 20
214.63550031189999
 30
0.0
  0
VERTEX
  5
1EDAA
  8
0
 10
323.56598423049979
 20
214.5543895662
 30
0.0
  0
VERTEX
  5
1EDAB
  8
0
 10
323.51432749249977
 20
214.55986946819999
 30
0.0
  0
VERTEX
  5
1EDAC
  8
0
 10
323.47784805289967
 20
214.64806571610001
 30
0.0
  0
VERTEX
  5
1EDAD
  8
0
 10
323.45213330529992
 20
214.81021270159999
 30
0.0
  0
VERTEX
  5
1EDAE
  8
0
 10
323.4472913592997
 20
214.86923620109999
 30
0.0
  0
VERTEX
  5
1EDAF
  8
0
 10
323.4407213441998
 20
215.1046931744001
 30
0.0
  0
VERTEX
  5
1EDB0
  8
0
 10
323.4502897522998
 20
215.3602816165
 30
0.0
  0
VERTEX
  5
1EDB1
  8
0
 10
323.47914864489979
 20
215.62605500219999
 30
0.0
  0
VERTEX
  5
1EDB2
  8
0
 10
323.52453711629983
 20
215.84320962429999
 30
0.0
  0
VERTEX
  5
1EDB3
  8
0
 10
323.58719556779988
 20
216.01012125610001
 30
0.0
  0
VERTEX
  5
1EDB4
  8
0
 10
323.65432157359982
 20
216.0913102329001
 30
0.0
  0
VERTEX
  5
1EDB5
  8
0
 10
323.7144868745998
 20
216.08626991509999
 30
0.0
  0
VERTEX
  5
1EDB6
  8
0
 10
323.76871406279969
 20
215.99534302949999
 30
0.0
  0
VERTEX
  5
1EDB7
  8
0
 10
323.80085912719977
 20
215.83365425470001
 30
0.0
  0
VERTEX
  5
1EDB8
  8
0
 10
323.80619886509982
 20
215.77213481070001
 30
0.0
  0
SEQEND
  5
1EDB9
  8
0
  0
POLYLINE
  5
1E1A6
  8
0
 66
     1
 10
0.0
 20
0.0
 30
0.0
 70
   128
  0
VERTEX
  5
1EDBA
  8
0
 10
324.67828559869992
 20
200.29912665489999
 30
0.0
  0
VERTEX
  5
1EDBB
  8
0
 10
324.67216215279967
 20
200.04938691859999
 30
0.0
  0
VERTEX
  5
1EDBC
  8
0
 10
324.63432810449979
 20
199.79252442719999
 30
0.0
  0
VERTEX
  5
1EDBD
  8
0
 10
324.57644687219971
 20
199.56018179660001
 30
0.0
  0
VERTEX
  5
1EDBE
  8
0
 10
324.50137435639982
 20
199.3523068726
 30
0.0
  0
VERTEX
  5
1EDBF
  8
0
 10
324.42774352799989
 20
199.2192637176
 30
0.0
  0
VERTEX
  5
1EDC0
  8
0
 10
324.36001076549979
 20
199.15991425519999
 30
0.0
  0
VERTEX
  5
1EDC1
  8
0
 10
324.30201451479979
 20
199.18586090209999
 30
0.0
  0
VERTEX
  5
1EDC2
  8
0
 10
324.26316579059971
 20
199.2899268866
 30
0.0
  0
VERTEX
  5
1EDC3
  8
0
 10
324.23900914559982
 20
199.4657196105
 30
0.0
  0
VERTEX
  5
1EDC4
  8
0
 10
324.23591482639978
 20
199.51700940730001
 30
0.0
  0
VERTEX
  5
1EDC5
  8
0
 10
324.23580260199981
 20
199.76887628439999
 30
0.0
  0
VERTEX
  5
1EDC6
  8
0
 10
324.2552183493998
 20
200.0196292997
 30
0.0
  0
VERTEX
  5
1EDC7
  8
0
 10
324.29691552369979
 20
200.2699129284
 30
0.0
  0
VERTEX
  5
1EDC8
  8
0
 10
324.35426683349988
 20
200.46404898169999
 30
0.0
  0
VERTEX
  5
1EDC9
  8
0
 10
324.42923085019981
 20
200.60610175139999
 30
0.0
  0
VERTEX
  5
1EDCA
  8
0
 10
324.50934973729977
 20
200.66308006649999
 30
0.0
  0
VERTEX
  5
1EDCB
  8
0
 10
324.58166227859982
 20
200.6367087365
 30
0.0
  0
VERTEX
  5
1EDCC
  8
0
 10
324.64293585339982
 20
200.52578449250001
 30
0.0
  0
VERTEX
  5
1EDCD
  8
0
 10
324.6747502981998
 20
200.35166442400001
 30
0.0
  0
VERTEX
  5
1EDCE
  8
0
 10
324.67828559869992
 20
200.29912665489999
 30
0.0
  0
SEQEND
  5
1EDCF
  8
0
  0
POLYLINE
  5
1E1A7
  8
0
 66
     1
 10
0.0
 20
0.0
 30
0.0
 70
   128
  0
VERTEX
  5
1EDD0
  8
0
 10
325.67727946859981
 20
203.32576110959999
 30
0.0
  0
VERTEX
  5
1EDD1
  8
0
 10
325.6633934489999
 20
203.0788302422001
 30
0.0
  0
VERTEX
  5
1EDD2
  8
0
 10
325.59723275899978
 20
202.82947793610001
 30
0.0
  0
VERTEX
  5
1EDD3
  8
0
 10
325.49772606409982
 20
202.6088736952
 30
0.0
  0
VERTEX
  5
1EDD4
  8
0
 10
325.36620003349981
 20
202.4129495025
 30
0.0
  0
VERTEX
  5
1EDD5
  8
0
 10
325.23424652589978
 20
202.29047313340001
 30
0.0
  0
VERTEX
  5
1EDD6
  8
0
 10
325.11039412759982
 20
202.23995447159999
 30
0.0
  0
VERTEX
  5
1EDD7
  8
0
 10
325.00251577419982
 20
202.2721260786
 30
0.0
  0
VERTEX
  5
1EDD8
  8
0
 10
324.93129148329979
 20
202.37959697849999
 30
0.0
  0
VERTEX
  5
1EDD9
  8
0
 10
324.89022714269981
 20
202.5558628142
 30
0.0
  0
VERTEX
  5
1EDDA
  8
0
 10
324.88543315969969
 20
202.61443927889999
 30
0.0
  0
VERTEX
  5
1EDDB
  8
0
 10
324.8945144861998
 20
202.86404117949999
 30
0.0
  0
VERTEX
  5
1EDDC
  8
0
 10
324.94135162979978
 20
203.11482399709999
 30
0.0
  0
VERTEX
  5
1EDDD
  8
0
 10
325.02738627789972
 20
203.3570535481
 30
0.0
  0
VERTEX
  5
1EDDE
  8
0
 10
325.13511096309981
 20
203.53926867249999
 30
0.0
  0
VERTEX
  5
1EDDF
  8
0
 10
325.26852292189977
 20
203.66938188680001
 30
0.0
  0
VERTEX
  5
1EDE0
  8
0
 10
325.40524200719977
 20
203.7151321769
 30
0.0
  0
VERTEX
  5
1EDE1
  8
0
 10
325.52371648319968
 20
203.67911234499999
 30
0.0
  0
VERTEX
  5
1EDE2
  8
0
 10
325.62184016399982
 20
203.5611957312
 30
0.0
  0
VERTEX
  5
1EDE3
  8
0
 10
325.67203984779991
 20
203.38149890310001
 30
0.0
  0
VERTEX
  5
1EDE4
  8
0
 10
325.67727946859981
 20
203.32576110959999
 30
0.0
  0
SEQEND
  5
1EDE5
  8
0
  0
POLYLINE
  5
1E1A8
  8
0
 66
     1
 10
0.0
 20
0.0
 30
0.0
 70
   128
  0
VERTEX
  5
1EDE6
  8
0
 10
323.82533335309972
 20
204.89128828049999
 30
0.0
  0
VERTEX
  5
1EDE7
  8
0
 10
323.82945864639993
 20
204.6418651939
 30
0.0
  0
VERTEX
  5
1EDE8
  8
0
 10
323.8215070142997
 20
204.3813183904
 30
0.0
  0
VERTEX
  5
1EDE9
  8
0
 10
323.80633111289978
 20
204.14237082010001
 30
0.0
  0
VERTEX
  5
1EDEA
  8
0
 10
323.78683014959989
 20
203.92749607569999
 30
0.0
  0
VERTEX
  5
1EDEB
  8
0
 10
323.76885748649983
 20
203.78611013299999
 30
0.0
  0
VERTEX
  5
1EDEC
  8
0
 10
323.75369788329982
 20
203.71996760370001
 30
0.0
  0
VERTEX
  5
1EDED
  8
0
 10
323.74092293149982
 20
203.74207720160001
 30
0.0
  0
VERTEX
  5
1EDEE
  8
0
 10
323.7304655759998
 20
203.8419038058
 30
0.0
  0
VERTEX
  5
1EDEF
  8
0
 10
323.71957049889988
 20
204.0140643716
 30
0.0
  0
VERTEX
  5
1EDF0
  8
0
 10
323.71706896639989
 20
204.06184867030001
 30
0.0
  0
VERTEX
  5
1EDF1
  8
0
 10
323.70615479719982
 20
204.31278795009999
 30
0.0
  0
VERTEX
  5
1EDF2
  8
0
 10
323.69916615259979
 20
204.56275120379999
 30
0.0
  0
VERTEX
  5
1EDF3
  8
0
 10
323.69845089689977
 20
204.8173375428
 30
0.0
  0
VERTEX
  5
1EDF4
  8
0
 10
323.70676341649983
 20
205.0207272172
 30
0.0
  0
VERTEX
  5
1EDF5
  8
0
 10
323.72543829679972
 20
205.17113208769999
 30
0.0
  0
VERTEX
  5
1EDF6
  8
0
 10
323.75130112469969
 20
205.23439124230001
 30
0.0
  0
VERTEX
  5
1EDF7
  8
0
 10
323.77879050739978
 20
205.2144907415001
 30
0.0
  0
VERTEX
  5
1EDF8
  8
0
 10
323.80560840659967
 20
205.10962754490001
 30
0.0
  0
VERTEX
  5
1EDF9
  8
0
 10
323.82267908379981
 20
204.9406372011
 30
0.0
  0
VERTEX
  5
1EDFA
  8
0
 10
323.82533335309972
 20
204.89128828049999
 30
0.0
  0
SEQEND
  5
1EDFB
  8
0
  0
POLYLINE
  5
1E1A9
  8
0
 66
     1
 10
0.0
 20
0.0
 30
0.0
 70
   128
  0
VERTEX
  5
1EDFC
  8
0
 10
324.47488987069983
 20
204.1669093073001
 30
0.0
  0
VERTEX
  5
1EDFD
  8
0
 10
324.47066120049982
 20
203.91801521190001
 30
0.0
  0
VERTEX
  5
1EDFE
  8
0
 10
324.43547024569961
 20
203.6608956755
 30
0.0
  0
VERTEX
  5
1EDFF
  8
0
 10
324.38054875649982
 20
203.42814326289999
 30
0.0
  0
VERTEX
  5
1EE00
  8
0
 10
324.30850024519992
 20
203.21929603820001
 30
0.0
  0
VERTEX
  5
1EE01
  8
0
 10
324.23732624569971
 20
203.08502167469999
 30
0.0
  0
VERTEX
  5
1EE02
  8
0
 10
324.1715124732998
 20
203.0239082873
 30
0.0
  0
VERTEX
  5
1EE03
  8
0
 10
324.11459702249982
 20
203.04731056099999
 30
0.0
  0
VERTEX
  5
1EE04
  8
0
 10
324.0762162878998
 20
203.1491115690001
 30
0.0
  0
VERTEX
  5
1EE05
  8
0
 10
324.0521048120998
 20
203.32268774510001
 30
0.0
  0
VERTEX
  5
1EE06
  8
0
 10
324.04876089839979
 20
203.37711423639999
 30
0.0
  0
VERTEX
  5
1EE07
  8
0
 10
324.0482519305998
 20
203.62807586790009
 30
0.0
  0
VERTEX
  5
1EE08
  8
0
 10
324.06684671709979
 20
203.8802407682
 30
0.0
  0
VERTEX
  5
1EE09
  8
0
 10
324.10682373859981
 20
204.1311055422
 30
0.0
  0
VERTEX
  5
1EE0A
  8
0
 10
324.16207631299972
 20
204.32747304439999
 30
0.0
  0
VERTEX
  5
1EE0B
  8
0
 10
324.23414950439968
 20
204.4711388648
 30
0.0
  0
VERTEX
  5
1EE0C
  8
0
 10
324.31025765089981
 20
204.52815815810001
 30
0.0
  0
VERTEX
  5
1EE0D
  8
0
 10
324.37869030229979
 20
204.5031912625
 30
0.0
  0
VERTEX
  5
1EE0E
  8
0
 10
324.43825722849988
 20
204.39507961280009
 30
0.0
  0
VERTEX
  5
1EE0F
  8
0
 10
324.47099042309981
 20
204.22032624490001
 30
0.0
  0
VERTEX
  5
1EE10
  8
0
 10
324.47488987069983
 20
204.1669093073001
 30
0.0
  0
SEQEND
  5
1EE11
  8
0
  0
POLYLINE
  5
1E1AA
  8
0
 66
     1
 10
0.0
 20
0.0
 30
0.0
 70
   128
  0
VERTEX
  5
1EE12
  8
0
 10
325.11702840399971
 20
211.09187379479999
 30
0.0
  0
VERTEX
  5
1EE13
  8
0
 10
325.10899481549973
 20
210.8462281525
 30
0.0
  0
VERTEX
  5
1EE14
  8
0
 10
325.05264840269979
 20
210.5940520764
 30
0.0
  0
VERTEX
  5
1EE15
  8
0
 10
324.96590874339972
 20
210.37016958000001
 30
0.0
  0
VERTEX
  5
1EE16
  8
0
 10
324.84977794059978
 20
210.16875058420001
 30
0.0
  0
VERTEX
  5
1EE17
  8
0
 10
324.73380825669977
 20
210.0420460105
 30
0.0
  0
VERTEX
  5
1EE18
  8
0
 10
324.62515131749979
 20
209.985972941
 30
0.0
  0
VERTEX
  5
1EE19
  8
0
 10
324.52767816559981
 20
210.00965088609999
 30
0.0
  0
VERTEX
  5
1EE1A
  8
0
 10
324.46122504019979
 20
210.11109426620001
 30
0.0
  0
VERTEX
  5
1EE1B
  8
0
 10
324.42132252449977
 20
210.2832548321
 30
0.0
  0
VERTEX
  5
1EE1C
  8
0
 10
324.41549104819978
 20
210.34936383370001
 30
0.0
  0
VERTEX
  5
1EE1D
  8
0
 10
324.42042612649971
 20
210.59752777220001
 30
0.0
  0
VERTEX
  5
1EE1E
  8
0
 10
324.45942898459981
 20
210.85319444539999
 30
0.0
  0
VERTEX
  5
1EE1F
  8
0
 10
324.53345748779969
 20
211.10020354389999
 30
0.0
  0
VERTEX
  5
1EE20
  8
0
 10
324.62775157019979
 20
211.28830090170001
 30
0.0
  0
VERTEX
  5
1EE21
  8
0
 10
324.74593361089978
 20
211.42447143800001
 30
0.0
  0
VERTEX
  5
1EE22
  8
0
 10
324.86491426079982
 20
211.4731609822
 30
0.0
  0
VERTEX
  5
1EE23
  8
0
 10
324.96732668199979
 20
211.4428110421
 30
0.0
  0
VERTEX
  5
1EE24
  8
0
 10
325.05765565849981
 20
211.333462596
 30
0.0
  0
VERTEX
  5
1EE25
  8
0
 10
325.1105948275997
 20
211.15121394400001
 30
0.0
  0
VERTEX
  5
1EE26
  8
0
 10
325.11702840399971
 20
211.09187379479999
 30
0.0
  0
SEQEND
  5
1EE27
  8
0
  0
POLYLINE
  5
1E1AB
  8
0
 66
     1
 10
0.0
 20
0.0
 30
0.0
 70
   128
  0
VERTEX
  5
1EE28
  8
0
 10
324.2587853147997
 20
208.02816525110001
 30
0.0
  0
VERTEX
  5
1EE29
  8
0
 10
324.25605747099979
 20
207.78002366429999
 30
0.0
  0
VERTEX
  5
1EE2A
  8
0
 10
324.22429424889981
 20
207.52035602929999
 30
0.0
  0
VERTEX
  5
1EE2B
  8
0
 10
324.17324519899978
 20
207.28289484979999
 30
0.0
  0
VERTEX
  5
1EE2C
  8
0
 10
324.10614620149983
 20
207.071492076
 30
0.0
  0
VERTEX
  5
1EE2D
  8
0
 10
324.04011729359968
 20
206.9364763797
 30
0.0
  0
VERTEX
  5
1EE2E
  8
0
 10
323.97866304219968
 20
206.8738281727
 30
0.0
  0
VERTEX
  5
1EE2F
  8
0
 10
323.92519348479982
 20
206.89546465879999
 30
0.0
  0
VERTEX
  5
1EE30
  8
0
 10
323.88912103319967
 20
206.99549615390001
 30
0.0
  0
VERTEX
  5
1EE31
  8
0
 10
323.8662975764999
 20
207.1671500802
 30
0.0
  0
VERTEX
  5
1EE32
  8
0
 10
323.86309429249968
 20
207.22096562390001
 30
0.0
  0
VERTEX
  5
1EE33
  8
0
 10
323.86220022289967
 20
207.47089535000001
 30
0.0
  0
VERTEX
  5
1EE34
  8
0
 10
323.87923783809981
 20
207.72417038680001
 30
0.0
  0
VERTEX
  5
1EE35
  8
0
 10
323.91620342799979
 20
207.97727033499999
 30
0.0
  0
VERTEX
  5
1EE36
  8
0
 10
323.96760032699979
 20
208.17725881940009
 30
0.0
  0
VERTEX
  5
1EE37
  8
0
 10
324.03461131449978
 20
208.3240017295
 30
0.0
  0
VERTEX
  5
1EE38
  8
0
 10
324.10482279209992
 20
208.38268622760009
 30
0.0
  0
VERTEX
  5
1EE39
  8
0
 10
324.16799579929977
 20
208.35991352799999
 30
0.0
  0
VERTEX
  5
1EE3A
  8
0
 10
324.22366979709977
 20
208.25437977909999
 30
0.0
  0
VERTEX
  5
1EE3B
  8
0
 10
324.25487608829968
 20
208.0816604197
 30
0.0
  0
VERTEX
  5
1EE3C
  8
0
 10
324.2587853147997
 20
208.02816525110001
 30
0.0
  0
SEQEND
  5
1EE3D
  8
0
  0
POLYLINE
  5
1E1AC
  8
0
 66
     1
 10
0.0
 20
0.0
 30
0.0
 70
   128
  0
VERTEX
  5
1EE3E
  8
0
 10
323.64899347719989
 20
208.7213784457
 30
0.0
  0
VERTEX
  5
1EE3F
  8
0
 10
323.65325893459982
 20
208.47312137489999
 30
0.0
  0
VERTEX
  5
1EE40
  8
0
 10
323.64548891029978
 20
208.2114234567
 30
0.0
  0
VERTEX
  5
1EE41
  8
0
 10
323.62994653359971
 20
207.969134301
 30
0.0
  0
VERTEX
  5
1EE42
  8
0
 10
323.60916593289971
 20
207.7516965568
 30
0.0
  0
VERTEX
  5
1EE43
  8
0
 10
323.58891665189981
 20
207.6084367931
 30
0.0
  0
VERTEX
  5
1EE44
  8
0
 10
323.57052722199978
 20
207.54020810130001
 30
0.0
  0
VERTEX
  5
1EE45
  8
0
 10
323.55413128799978
 20
207.5602203608
 30
0.0
  0
VERTEX
  5
1EE46
  8
0
 10
323.54110068819978
 20
207.65783414250001
 30
0.0
  0
VERTEX
  5
1EE47
  8
0
 10
323.52898045629979
 20
207.8278005123
 30
0.0
  0
VERTEX
  5
1EE48
  8
0
 10
323.52657159039973
 20
207.8734390438
 30
0.0
  0
VERTEX
  5
1EE49
  8
0
 10
323.51707023749969
 20
208.12355875969999
 30
0.0
  0
VERTEX
  5
1EE4A
  8
0
 10
323.51295751699979
 20
208.37213993079999
 30
0.0
  0
VERTEX
  5
1EE4B
  8
0
 10
323.51588699219968
 20
208.62969532610001
 30
0.0
  0
VERTEX
  5
1EE4C
  8
0
 10
323.52762491629983
 20
208.84035676720001
 30
0.0
  0
VERTEX
  5
1EE4D
  8
0
 10
323.5490257776998
 20
208.99455398320001
 30
0.0
  0
VERTEX
  5
1EE4E
  8
0
 10
323.57577103369982
 20
209.05761197210001
 30
0.0
  0
VERTEX
  5
1EE4F
  8
0
 10
323.60307368629981
 20
209.03908237819999
 30
0.0
  0
VERTEX
  5
1EE50
  8
0
 10
323.62956143169981
 20
208.93642827869999
 30
0.0
  0
VERTEX
  5
1EE51
  8
0
 10
323.64641743889979
 20
208.76916274429999
 30
0.0
  0
VERTEX
  5
1EE52
  8
0
 10
323.64899347719989
 20
208.7213784457
 30
0.0
  0
SEQEND
  5
1EE53
  8
0
  0
POLYLINE
  5
1E1AD
  8
0
 66
     1
 10
0.0
 20
0.0
 30
0.0
 70
   128
  0
VERTEX
  5
1EE54
  8
0
 10
325.40893423549983
 20
207.20979347830001
 30
0.0
  0
VERTEX
  5
1EE55
  8
0
 10
325.39901285619982
 20
206.96323141459999
 30
0.0
  0
VERTEX
  5
1EE56
  8
0
 10
325.33828410499967
 20
206.7128397525
 30
0.0
  0
VERTEX
  5
1EE57
  8
0
 10
325.24511831999979
 20
206.4907975495
 30
0.0
  0
VERTEX
  5
1EE58
  8
0
 10
325.12063681329983
 20
206.29241466529999
 30
0.0
  0
VERTEX
  5
1EE59
  8
0
 10
324.99598394329968
 20
206.16859719160001
 30
0.0
  0
VERTEX
  5
1EE5A
  8
0
 10
324.87896605579982
 20
206.1157725752
 30
0.0
  0
VERTEX
  5
1EE5B
  8
0
 10
324.77444232619968
 20
206.14336580040001
 30
0.0
  0
VERTEX
  5
1EE5C
  8
0
 10
324.70348672189971
 20
206.248318404
 30
0.0
  0
VERTEX
  5
1EE5D
  8
0
 10
324.66179653249969
 20
206.42340332270001
 30
0.0
  0
VERTEX
  5
1EE5E
  8
0
 10
324.65647774929971
 20
206.4833879471
 30
0.0
  0
VERTEX
  5
1EE5F
  8
0
 10
324.66282610959979
 20
206.73227831720001
 30
0.0
  0
VERTEX
  5
1EE60
  8
0
 10
324.70531537379981
 20
206.98459967970001
 30
0.0
  0
VERTEX
  5
1EE61
  8
0
 10
324.78511574859982
 20
207.2283342481
 30
0.0
  0
VERTEX
  5
1EE62
  8
0
 10
324.88544340429968
 20
207.4115365744
 30
0.0
  0
VERTEX
  5
1EE63
  8
0
 10
325.01085530219979
 20
207.54413828259999
 30
0.0
  0
VERTEX
  5
1EE64
  8
0
 10
325.14023929089979
 20
207.5932040811
 30
0.0
  0
VERTEX
  5
1EE65
  8
0
 10
325.25376518439981
 20
207.5609058142
 30
0.0
  0
VERTEX
  5
1EE66
  8
0
 10
325.35013937569983
 20
207.44713172319999
 30
0.0
  0
VERTEX
  5
1EE67
  8
0
 10
325.40278424689973
 20
207.26713687180001
 30
0.0
  0
VERTEX
  5
1EE68
  8
0
 10
325.40893423549983
 20
207.20979347830001
 30
0.0
  0
SEQEND
  5
1EE69
  8
0
  0
POLYLINE
  5
1E1AE
  8
0
 66
     1
 10
0.0
 20
0.0
 30
0.0
 70
   128
  0
VERTEX
  5
1EE6A
  8
0
 10
327.4734146817998
 20
202.24781110890001
 30
0.0
  0
VERTEX
  5
1EE6B
  8
0
 10
327.44871344599977
 20
202.0059280098001
 30
0.0
  0
VERTEX
  5
1EE6C
  8
0
 10
327.35012736349972
 20
201.7733283341
 30
0.0
  0
VERTEX
  5
1EE6D
  8
0
 10
327.20349271959981
 20
201.57569050789999
 30
0.0
  0
VERTEX
  5
1EE6E
  8
0
 10
327.00905258949979
 20
201.40870809559999
 30
0.0
  0
VERTEX
  5
1EE6F
  8
0
 10
326.81360639809992
 20
201.31465569139999
 30
0.0
  0
VERTEX
  5
1EE70
  8
0
 10
326.62940685819967
 20
201.28912627700001
 30
0.0
  0
VERTEX
  5
1EE71
  8
0
 10
326.46667127679979
 20
201.34063586600001
 30
0.0
  0
VERTEX
  5
1EE72
  8
0
 10
326.35807044989969
 20
201.4606423676
 30
0.0
  0
VERTEX
  5
1EE73
  8
0
 10
326.2977752293998
 20
201.64433270699999
 30
0.0
  0
VERTEX
  5
1EE74
  8
0
 10
326.29177704639977
 20
201.70322209599999
 30
0.0
  0
VERTEX
  5
1EE75
  8
0
 10
326.31251643589979
 20
201.94994807250001
 30
0.0
  0
VERTEX
  5
1EE76
  8
0
 10
326.38982878249982
 20
202.18680202959999
 30
0.0
  0
VERTEX
  5
1EE77
  8
0
 10
326.52634903039967
 20
202.4118803442
 30
0.0
  0
VERTEX
  5
1EE78
  8
0
 10
326.69435473339979
 20
202.5746010244001
 30
0.0
  0
VERTEX
  5
1EE79
  8
0
 10
326.89527593739979
 20
202.67741531140001
 30
0.0
  0
VERTEX
  5
1EE7A
  8
0
 10
327.09395218819969
 20
202.69407480960001
 30
0.0
  0
VERTEX
  5
1EE7B
  8
0
 10
327.26168897189967
 20
202.6337139309
 30
0.0
  0
VERTEX
  5
1EE7C
  8
0
 10
327.39868745389981
 20
202.49641835689999
 30
0.0
  0
VERTEX
  5
1EE7D
  8
0
 10
327.46680275719967
 20
202.3070096970001
 30
0.0
  0
VERTEX
  5
1EE7E
  8
0
 10
327.4734146817998
 20
202.24781110890001
 30
0.0
  0
SEQEND
  5
1EE7F
  8
0
  0
POLYLINE
  5
1E1AF
  8
0
 66
     1
 10
0.0
 20
0.0
 30
0.0
 70
   128
  0
VERTEX
  5
1EE80
  8
0
 10
325.90297338739981
 20
199.4347140193
 30
0.0
  0
VERTEX
  5
1EE81
  8
0
 10
325.88628408679978
 20
199.18775707489999
 30
0.0
  0
VERTEX
  5
1EE82
  8
0
 10
325.81653547659971
 20
198.9405151457
 30
0.0
  0
VERTEX
  5
1EE83
  8
0
 10
325.71365134039979
 20
198.72295446699999
 30
0.0
  0
VERTEX
  5
1EE84
  8
0
 10
325.57795251899989
 20
198.52885194129999
 30
0.0
  0
VERTEX
  5
1EE85
  8
0
 10
325.44150351729979
 20
198.4071448446
 30
0.0
  0
VERTEX
  5
1EE86
  8
0
 10
325.31435796239981
 20
198.3582708985
 30
0.0
  0
VERTEX
  5
1EE87
  8
0
 10
325.20451870929969
 20
198.39220084249999
 30
0.0
  0
VERTEX
  5
1EE88
  8
0
 10
325.1321004628997
 20
198.5013127327
 30
0.0
  0
VERTEX
  5
1EE89
  8
0
 10
325.09136674179967
 20
198.6797448248
 30
0.0
  0
VERTEX
  5
1EE8A
  8
0
 10
325.08725728089991
 20
198.73482324189999
 30
0.0
  0
VERTEX
  5
1EE8B
  8
0
 10
325.09899101399969
 20
198.98536764089999
 30
0.0
  0
VERTEX
  5
1EE8C
  8
0
 10
325.1481913886999
 20
199.23045821490001
 30
0.0
  0
VERTEX
  5
1EE8D
  8
0
 10
325.23798252639978
 20
199.47241768239999
 30
0.0
  0
VERTEX
  5
1EE8E
  8
0
 10
325.35200248659982
 20
199.6576651931
 30
0.0
  0
VERTEX
  5
1EE8F
  8
0
 10
325.49104196199983
 20
199.78669062259999
 30
0.0
  0
VERTEX
  5
1EE90
  8
0
 10
325.63084651899982
 20
199.8290508986
 30
0.0
  0
VERTEX
  5
1EE91
  8
0
 10
325.7507426588997
 20
199.7903265059
 30
0.0
  0
VERTEX
  5
1EE92
  8
0
 10
325.84932687879967
 20
199.67010766269999
 30
0.0
  0
VERTEX
  5
1EE93
  8
0
 10
325.8983181714998
 20
199.48946461080001
 30
0.0
  0
VERTEX
  5
1EE94
  8
0
 10
325.90297338739981
 20
199.4347140193
 30
0.0
  0
SEQEND
  5
1EE95
  8
0
  0
POLYLINE
  5
1E1B0
  8
0
 66
     1
 10
0.0
 20
0.0
 30
0.0
 70
   128
  0
VERTEX
  5
1EE96
  8
0
 10
326.50532931269981
 20
213.95074725149999
 30
0.0
  0
VERTEX
  5
1EE97
  8
0
 10
326.48575081669981
 20
213.70880827310009
 30
0.0
  0
VERTEX
  5
1EE98
  8
0
 10
326.39660066179982
 20
213.47484514120001
 30
0.0
  0
VERTEX
  5
1EE99
  8
0
 10
326.26569885009991
 20
213.2764995098
 30
0.0
  0
VERTEX
  5
1EE9A
  8
0
 10
326.09010170399978
 20
213.10295313600011
 30
0.0
  0
VERTEX
  5
1EE9B
  8
0
 10
325.91510386389979
 20
213.00242617730001
 30
0.0
  0
VERTEX
  5
1EE9C
  8
0
 10
325.75261554859981
 20
212.96828761699999
 30
0.0
  0
VERTEX
  5
1EE9D
  8
0
 10
325.60010123249981
 20
213.00636008390001
 30
0.0
  0
VERTEX
  5
1EE9E
  8
0
 10
325.49156257129982
 20
213.12104314570001
 30
0.0
  0
VERTEX
  5
1EE9F
  8
0
 10
325.43090925729967
 20
213.30336257819999
 30
0.0
  0
VERTEX
  5
1EEA0
  8
0
 10
325.4233259632997
 20
213.3726008237
 30
0.0
  0
VERTEX
  5
1EEA1
  8
0
 10
325.43842549619978
 20
213.6181682349
 30
0.0
  0
VERTEX
  5
1EEA2
  8
0
 10
325.50831939279988
 20
213.86756151920011
 30
0.0
  0
VERTEX
  5
1EEA3
  8
0
 10
325.63009401029979
 20
214.09221887589999
 30
0.0
  0
VERTEX
  5
1EEA4
  8
0
 10
325.77166388929982
 20
214.2466954887
 30
0.0
  0
VERTEX
  5
1EEA5
  8
0
 10
325.94668082139981
 20
214.354300499
 30
0.0
  0
VERTEX
  5
1EEA6
  8
0
 10
326.13272275029982
 20
214.3850117922
 30
0.0
  0
VERTEX
  5
1EEA7
  8
0
 10
326.29212117009979
 20
214.3354803324001
 30
0.0
  0
VERTEX
  5
1EEA8
  8
0
 10
326.42424045309991
 20
214.2078667879
 30
0.0
  0
VERTEX
  5
1EEA9
  8
0
 10
326.49714112459981
 20
214.0152506531
 30
0.0
  0
VERTEX
  5
1EEAA
  8
0
 10
326.50532931269981
 20
213.95074725149999
 30
0.0
  0
SEQEND
  5
1EEAB
  8
0
  0
POLYLINE
  5
1E1B1
  8
0
 66
     1
 10
0.0
 20
0.0
 30
0.0
 70
   128
  0
VERTEX
  5
1EEAC
  8
0
 10
326.84215865279981
 20
210.0643120706001
 30
0.0
  0
VERTEX
  5
1EEAD
  8
0
 10
326.82438878529979
 20
209.82173234230001
 30
0.0
  0
VERTEX
  5
1EEAE
  8
0
 10
326.73460882339992
 20
209.5871545375
 30
0.0
  0
VERTEX
  5
1EEAF
  8
0
 10
326.6003789304998
 20
209.38837677239999
 30
0.0
  0
VERTEX
  5
1EEB0
  8
0
 10
326.41903319579978
 20
209.21519175180009
 30
0.0
  0
VERTEX
  5
1EEB1
  8
0
 10
326.23525554499969
 20
209.1138526798
 30
0.0
  0
VERTEX
  5
1EEB2
  8
0
 10
326.0616647004997
 20
209.080041945
 30
0.0
  0
VERTEX
  5
1EEB3
  8
0
 10
325.90269678459981
 20
209.1220892966
 30
0.0
  0
VERTEX
  5
1EEB4
  8
0
 10
325.79318163169978
 20
209.23721939329999
 30
0.0
  0
VERTEX
  5
1EEB5
  8
0
 10
325.7299341186997
 20
209.4183653593
 30
0.0
  0
VERTEX
  5
1EEB6
  8
0
 10
325.7216271868997
 20
209.4858303666
 30
0.0
  0
VERTEX
  5
1EEB7
  8
0
 10
325.7350182085998
 20
209.73212420940001
 30
0.0
  0
VERTEX
  5
1EEB8
  8
0
 10
325.80485762279977
 20
209.9794872105
 30
0.0
  0
VERTEX
  5
1EEB9
  8
0
 10
325.92959617449981
 20
210.20552292470001
 30
0.0
  0
VERTEX
  5
1EEBA
  8
0
 10
326.07799218219981
 20
210.36322936420001
 30
0.0
  0
VERTEX
  5
1EEBB
  8
0
 10
326.26217030169983
 20
210.47151610260011
 30
0.0
  0
VERTEX
  5
1EEBC
  8
0
 10
326.4551456942998
 20
210.4996792972
 30
0.0
  0
VERTEX
  5
1EEBD
  8
0
 10
326.62157746209982
 20
210.44752523310001
 30
0.0
  0
VERTEX
  5
1EEBE
  8
0
 10
326.75910959199967
 20
210.31708791860001
 30
0.0
  0
VERTEX
  5
1EEBF
  8
0
 10
326.83358326739972
 20
210.12639403349999
 30
0.0
  0
VERTEX
  5
1EEC0
  8
0
 10
326.84215865279981
 20
210.0643120706001
 30
0.0
  0
SEQEND
  5
1EEC1
  8
0
  0
POLYLINE
  5
1E1B2
  8
0
 66
     1
 10
0.0
 20
0.0
 30
0.0
 70
   128
  0
VERTEX
  5
1EEC2
  8
0
 10
327.18664602559983
 20
206.15916475660001
 30
0.0
  0
VERTEX
  5
1EEC3
  8
0
 10
327.1659681032998
 20
205.91685697439999
 30
0.0
  0
VERTEX
  5
1EEC4
  8
0
 10
327.07204445449969
 20
205.68323284389999
 30
0.0
  0
VERTEX
  5
1EEC5
  8
0
 10
326.93173954449981
 20
205.48509210349999
 30
0.0
  0
VERTEX
  5
1EEC6
  8
0
 10
326.74347222029979
 20
205.3148426116
 30
0.0
  0
VERTEX
  5
1EEC7
  8
0
 10
326.5531499329997
 20
205.2170015872
 30
0.0
  0
VERTEX
  5
1EEC8
  8
0
 10
326.37327289389992
 20
205.18706887959999
 30
0.0
  0
VERTEX
  5
1EEC9
  8
0
 10
326.21043603119978
 20
205.23366481069999
 30
0.0
  0
VERTEX
  5
1EECA
  8
0
 10
326.09939420779978
 20
205.35170063379999
 30
0.0
  0
VERTEX
  5
1EECB
  8
0
 10
326.03652690719969
 20
205.53496256470001
 30
0.0
  0
VERTEX
  5
1EECC
  8
0
 10
326.02947074169981
 20
205.5965825916
 30
0.0
  0
VERTEX
  5
1EECD
  8
0
 10
326.04649392139982
 20
205.84343522789999
 30
0.0
  0
VERTEX
  5
1EECE
  8
0
 10
326.11961648049981
 20
206.08333274730001
 30
0.0
  0
VERTEX
  5
1EECF
  8
0
 10
326.2504049035997
 20
206.3097260893
 30
0.0
  0
VERTEX
  5
1EED0
  8
0
 10
326.41036793769979
 20
206.47226050500001
 30
0.0
  0
VERTEX
  5
1EED1
  8
0
 10
326.60480387689972
 20
206.5787218511
 30
0.0
  0
VERTEX
  5
1EED2
  8
0
 10
326.8009273725998
 20
206.60088360309999
 30
0.0
  0
VERTEX
  5
1EED3
  8
0
 10
326.96848161699972
 20
206.5445050598
 30
0.0
  0
VERTEX
  5
1EED4
  8
0
 10
327.10651549689982
 20
206.41068518169999
 30
0.0
  0
VERTEX
  5
1EED5
  8
0
 10
327.17884154239982
 20
206.2201030553
 30
0.0
  0
VERTEX
  5
1EED6
  8
0
 10
327.18664602559983
 20
206.15916475660001
 30
0.0
  0
SEQEND
  5
1EED7
  8
0
  0
POLYLINE
  5
1E1B3
  8
0
 66
     1
 10
0.0
 20
0.0
 30
0.0
 70
   128
  0
VERTEX
  5
1EED8
  8
0
 10
327.55119688059972
 20
220.94615325340001
 30
0.0
  0
VERTEX
  5
1EED9
  8
0
 10
327.39023826269982
 20
220.80583274369999
 30
0.0
  0
VERTEX
  5
1EEDA
  8
0
 10
327.18051443059971
 20
220.6628598273
 30
0.0
  0
VERTEX
  5
1EEDB
  8
0
 10
326.9581937621997
 20
220.5369524658
 30
0.0
  0
VERTEX
  5
1EEDC
  8
0
 10
326.7242052516998
 20
220.42776048190001
 30
0.0
  0
VERTEX
  5
1EEDD
  8
0
 10
326.52645031169982
 20
220.36039233209999
 30
0.0
  0
VERTEX
  5
1EEDE
  8
0
 10
326.3764256536997
 20
220.33827155829999
 30
0.0
  0
VERTEX
  5
1EEDF
  8
0
 10
326.2956352829998
 20
220.3700967133
 30
0.0
  0
VERTEX
  5
1EEE0
  8
0
 10
326.29294445919982
 20
220.4440325499001
 30
0.0
  0
VERTEX
  5
1EEE1
  8
0
 10
326.35823948489968
 20
220.55789232260011
 30
0.0
  0
VERTEX
  5
1EEE2
  8
0
 10
326.38894798419977
 20
220.5951042474
 30
0.0
  0
VERTEX
  5
1EEE3
  8
0
 10
326.54562228539982
 20
220.7456059754
 30
0.0
  0
VERTEX
  5
1EEE4
  8
0
 10
326.74391809099978
 20
220.89331001049999
 30
0.0
  0
VERTEX
  5
1EEE5
  8
0
 10
326.9796882215997
 20
221.03208079940001
 30
0.0
  0
VERTEX
  5
1EEE6
  8
0
 10
327.20115835959967
 20
221.13115862020001
 30
0.0
  0
VERTEX
  5
1EEE7
  8
0
 10
327.4081173277998
 20
221.19236886499999
 30
0.0
  0
VERTEX
  5
1EEE8
  8
0
 10
327.56053664899969
 20
221.20252400640001
 30
0.0
  0
VERTEX
  5
1EEE9
  8
0
 10
327.64224274269992
 20
221.16699963810001
 30
0.0
  0
VERTEX
  5
1EEEA
  8
0
 10
327.6512714493997
 20
221.0864141584
 30
0.0
  0
VERTEX
  5
1EEEB
  8
0
 10
327.5811929180997
 20
220.97855955369999
 30
0.0
  0
VERTEX
  5
1EEEC
  8
0
 10
327.55119688059972
 20
220.94615325340001
 30
0.0
  0
SEQEND
  5
1EEED
  8
0
  0
POLYLINE
  5
1E1B4
  8
0
 66
     1
 10
0.0
 20
0.0
 30
0.0
 70
   128
  0
VERTEX
  5
1EEEE
  8
0
 10
326.75456566919979
 20
182.88508765399999
 30
0.0
  0
VERTEX
  5
1EEEF
  8
0
 10
326.18010960699979
 20
183.7128527463
 30
0.0
  0
VERTEX
  5
1EEF0
  8
0
 10
325.61677702889978
 20
184.64486636219999
 30
0.0
  0
VERTEX
  5
1EEF1
  8
0
 10
325.11588334289968
 20
185.64781881869999
 30
0.0
  0
VERTEX
  5
1EEF2
  8
0
 10
324.75608968359973
 20
186.6242192686
 30
0.0
  0
VERTEX
  5
1EEF3
  8
0
 10
324.59944960839971
 20
187.35514543950001
 30
0.0
  0
VERTEX
  5
1EEF4
  8
0
 10
324.58085901289968
 20
187.9115510732
 30
0.0
  0
VERTEX
  5
1EEF5
  8
0
 10
324.6799796744998
 20
188.38043287400001
 30
0.0
  0
VERTEX
  5
1EEF6
  8
0
 10
324.8869046493997
 20
188.72958570719999
 30
0.0
  0
VERTEX
  5
1EEF7
  8
0
 10
325.20248190679968
 20
188.96899335090001
 30
0.0
  0
VERTEX
  5
1EEF8
  8
0
 10
325.63334944839971
 20
189.08628597859999
 30
0.0
  0
VERTEX
  5
1EEF9
  8
0
 10
326.1669500189999
 20
189.0698947013
 30
0.0
  0
VERTEX
  5
1EEFA
  8
0
 10
326.8170264474997
 20
188.90824876729999
 30
0.0
  0
SEQEND
  5
1EEFB
  8
0
  0
ARC
  5
1E1B5
  8
0
 10
327.86502758563211
 20
186.9776980048855
 30
0.0
 40
3.562291489635188
 50
99.584121664665119
 51
158.83685470794069
  0
ARC
  5
1E1B6
  8
0
 10
605.76371274739972
 20
210.48219800710001
 30
0.0
 40
281.99625198141479
 50
182.8393055481003
 51
183.1696438996002
  0
ARC
  5
1E1B7
  8
0
 10
326.76265343549971
 20
188.71551930050001
 30
0.0
 40
0.2002525832852977
 50
9.5046533003000082
 51
74.245067052200127
  0
LINE
  5
1E1B8
  8
0
 10
326.96015699019972
 20
183.571572043
 30
0.0
 11
326.96015699019972
 21
188.74858655040001
 31
0.0
  0
POLYLINE
  5
1E1B9
  8
0
 66
     1
 10
0.0
 20
0.0
 30
0.0
 70
   128
  0
VERTEX
  5
1EEFC
  8
0
 10
330.00016058599982
 20
196.08117789030001
 30
0.0
  0
VERTEX
  5
1EEFD
  8
0
 10
328.93249540769978
 20
195.98124511539999
 30
0.0
  0
VERTEX
  5
1EEFE
  8
0
 10
327.65235038659978
 20
195.61133682729999
 30
0.0
  0
VERTEX
  5
1EEFF
  8
0
 10
326.96167970259978
 20
195.2648419887
 30
0.0
  0
VERTEX
  5
1EF00
  8
0
 10
326.35731491439969
 20
194.84042152769999
 30
0.0
  0
VERTEX
  5
1EF01
  8
0
 10
325.74277286599983
 20
194.22312229880001
 30
0.0
  0
VERTEX
  5
1EF02
  8
0
 10
325.28756986559978
 20
193.5145385564
 30
0.0
  0
VERTEX
  5
1EF03
  8
0
 10
325.00865039599978
 20
192.750729248
 30
0.0
  0
VERTEX
  5
1EF04
  8
0
 10
324.89761625599982
 20
191.90807789569999
 30
0.0
  0
VERTEX
  5
1EF05
  8
0
 10
324.90268404779982
 20
191.56832396990001
 30
0.0
  0
SEQEND
  5
1EF06
  8
0
  0
LINE
  5
1E1BA
  8
0
 10
328.0000005307997
 20
187.3406726867
 30
0.0
 11
328.0000005307997
 21
188.51935639979999
 31
0.0
  0
ARC
  5
1E1BB
  8
0
 10
329.95399628759969
 20
182.6149130615
 30
0.0
 40
8.3195392972166484
 50
89.682054159494797
 51
108.8070719093991
  0
POLYLINE
  5
1E1BC
  8
0
 66
     1
 10
0.0
 20
0.0
 30
0.0
 70
   128
  0
VERTEX
  5
1EF07
  8
0
 10
324.3645464954011
 20
191.67564451822651
 30
0.0
  0
VERTEX
  5
1EF08
  8
0
 10
324.46051164709979
 20
192.83581487839999
 30
0.0
  0
VERTEX
  5
1EF09
  8
0
 10
324.88981549809978
 20
193.9251344651
 30
0.0
  0
VERTEX
  5
1EF0A
  8
0
 10
325.66345584759978
 20
194.8920633644
 30
0.0
  0
VERTEX
  5
1EF0B
  8
0
 10
326.79014964209978
 20
195.69485783580001
 30
0.0
  0
VERTEX
  5
1EF0C
  8
0
 10
327.4884301628997
 20
196.01323418320001
 30
0.0
  0
VERTEX
  5
1EF0D
  8
0
 10
328.27247908989978
 20
196.2593417615
 30
0.0
  0
VERTEX
  5
1EF0E
  8
0
 10
329.11616811009981
 20
196.41500115400001
 30
0.0
  0
VERTEX
  5
1EF0F
  8
0
 10
330.00016226749972
 20
196.47705145180001
 30
0.0
  0
SEQEND
  5
1EF10
  8
0
  0
LINE
  5
1E1BD
  8
0
 10
332.00000072079979
 20
188.51935639979999
 30
0.0
 11
328.0000005307997
 21
188.51935639979999
 31
0.0
  0
LINE
  5
1E20A
  8
1
 10
61.700750700484662
 20
227.00040704063039
 30
0.0
 11
61.700750700484662
 21
144.99999961259999
 31
0.0
  0
LINE
  5
1E20B
  8
0
 10
54.86251143680056
 20
214.95861336589999
 30
0.0
 11
55.809797811700612
 21
196.5740039945
 31
0.0
  0
ARC
  5
1E20D
  8
0
 10
62.087622535876683
 20
214.9245942535392
 30
0.0
 40
7.1530032948745612
 50
127.14013383062
 51
141.9324818376287
  0
LINE
  5
1E20E
  8
0
 10
56.377032299965663
 20
195.87395720147879
 30
0.0
 11
56.410204711700551
 21
195.24479992689999
 31
0.0
  0
ARC
  5
1E25C
  8
0
 10
57.353738099533011
 20
188.30353313076779
 30
0.0
 40
1.110481517721825
 50
130.44291089384271
 51
182.4031856359114
  0
LINE
  5
1E25D
  8
0
 10
67.157268150968775
 20
188.25696930289999
 30
0.0
 11
67.108261491422056
 21
187.56344690922779
 31
0.0
  0
ARC
  5
1E25E
  8
0
 10
61.59901144510598
 20
214.89673685501671
 30
0.0
 40
6.9298393967985943
 50
13.03514151719293
 51
27.81583051401044
  0
ARC
  5
1E25F
  8
0
 10
61.313878865092647
 20
214.9245942535392
 30
0.0
 40
7.1530032948745612
 50
38.067518162372309
 51
52.85986616937965
  0
ARC
  5
1E260
  8
0
 10
61.793230002523728
 20
216.126080963758
 30
0.0
 40
5.874326076872384
 50
63.736197456371713
 51
90.902042638690176
  0
LINE
  5
1E261
  8
0
 10
67.02446910100366
 20
195.87395720147879
 30
0.0
 11
66.991296689268779
 21
195.24479992689999
 31
0.0
  0
POLYLINE
  5
1E262
  8
0
 66
     1
 10
0.0
 20
0.0
 30
0.0
 70
   128
  0
VERTEX
  5
1EF11
  8
0
 10
68.538989964168763
 20
214.95861336589999
 30
0.0
  0
VERTEX
  5
1EF12
  8
0
 10
68.541938065768761
 20
215.02473726869999
 30
0.0
  0
VERTEX
  5
1EF13
  8
0
 10
68.533757328268734
 20
215.17273932699999
 30
0.0
  0
VERTEX
  5
1EF14
  8
0
 10
68.53094985636875
 20
215.20769372589999
 30
0.0
  0
VERTEX
  5
1EF15
  8
0
 10
68.507148976668745
 20
215.44217094780001
 30
0.0
  0
VERTEX
  5
1EF16
  8
0
 10
68.476872611068757
 20
215.67691266540001
 30
0.0
  0
VERTEX
  5
1EF17
  8
0
 10
68.439034371868729
 20
215.9308880568
 30
0.0
  0
VERTEX
  5
1EF18
  8
0
 10
68.404663912268745
 20
216.1426447332
 30
0.0
  0
VERTEX
  5
1EF19
  8
0
 10
68.37437404246873
 20
216.3200430572
 30
0.0
  0
VERTEX
  5
1EF1A
  8
0
 10
68.354296590468721
 20
216.43573567269999
 30
0.0
  0
VERTEX
  5
1EF1B
  8
0
 10
68.350282124468777
 20
216.45975261929999
 30
0.0
  0
SEQEND
  5
1EF1C
  8
0
  0
ARC
  5
1E263
  8
0
 10
58.561618138768722
 20
213.06904770349999
 30
0.0
 40
10.471018918480979
 50
28.905676924401519
 51
35.750419522700099
  0
POLYLINE
  5
1E264
  8
0
 66
     1
 10
0.0
 20
0.0
 30
0.0
 70
   128
  0
VERTEX
  5
1EF1D
  8
0
 10
67.728122323015441
 20
218.13041493295239
 30
0.0
  0
VERTEX
  5
1EF1E
  8
0
 10
67.745437006668737
 20
218.09203326709999
 30
0.0
  0
VERTEX
  5
1EF1F
  8
0
 10
67.713860049168716
 20
218.1347586215
 30
0.0
  0
VERTEX
  5
1EF20
  8
0
 10
67.63614816516872
 20
218.25092434890001
 30
0.0
  0
VERTEX
  5
1EF21
  8
0
 10
67.611330746868759
 20
218.2884864509
 30
0.0
  0
VERTEX
  5
1EF22
  8
0
 10
67.484050150268729
 20
218.48097220069999
 30
0.0
  0
VERTEX
  5
1EF23
  8
0
 10
67.353575117168759
 20
218.6758533121
 30
0.0
  0
VERTEX
  5
1EF24
  8
0
 10
67.203715536068728
 20
218.89764219529999
 30
0.0
  0
VERTEX
  5
1EF25
  8
0
 10
67.071497532768717
 20
219.09412145620001
 30
0.0
  0
VERTEX
  5
1EF26
  8
0
 10
66.96560243076874
 20
219.25587728619999
 30
0.0
  0
VERTEX
  5
1EF27
  8
0
 10
66.909607126568744
 20
219.35078278190011
 30
0.0
  0
VERTEX
  5
1EF28
  8
0
 10
66.903068776468729
 20
219.3773329258
 30
0.0
  0
VERTEX
  5
1EF29
  8
0
 10
66.945328935268776
 20
219.33506205680001
 30
0.0
  0
VERTEX
  5
1EF2A
  8
0
 10
67.032487689768743
 20
219.22357529409999
 30
0.0
  0
VERTEX
  5
1EF2B
  8
0
 10
67.059579863468741
 20
219.18679922819999
 30
0.0
  0
SEQEND
  5
1EF2C
  8
0
  0
POLYLINE
  5
1E265
  8
0
 66
     1
 10
0.0
 20
0.0
 30
0.0
 70
   128
  0
VERTEX
  5
1EF2D
  8
0
 10
65.45873205106875
 20
220.68024575710001
 30
0.0
  0
VERTEX
  5
1EF2E
  8
0
 10
65.270505472368768
 20
220.78713178640001
 30
0.0
  0
VERTEX
  5
1EF2F
  8
0
 10
65.050693554068744
 20
220.91761752970001
 30
0.0
  0
VERTEX
  5
1EF30
  8
0
 10
64.834776194068752
 20
221.04981318119999
 30
0.0
  0
VERTEX
  5
1EF31
  8
0
 10
64.62440881806873
 20
221.18342444300001
 30
0.0
  0
VERTEX
  5
1EF32
  8
0
 10
64.470188318968724
 20
221.28826156260001
 30
0.0
  0
VERTEX
  5
1EF33
  8
0
 10
64.373425300468739
 20
221.36267423629999
 30
0.0
  0
VERTEX
  5
1EF34
  8
0
 10
64.345321943268743
 20
221.4008621872
 30
0.0
  0
VERTEX
  5
1EF35
  8
0
 10
64.392647099868725
 20
221.3939778507
 30
0.0
  0
VERTEX
  5
1EF36
  8
0
 10
64.507701526668711
 20
221.34599983699999
 30
0.0
  0
VERTEX
  5
1EF37
  8
0
 10
64.555235765168732
 20
221.32311910390001
 30
0.0
  0
VERTEX
  5
1EF38
  8
0
 10
64.747262838568759
 20
221.22182846070001
 30
0.0
  0
VERTEX
  5
1EF39
  8
0
 10
64.968463125868766
 20
221.09284400940001
 30
0.0
  0
VERTEX
  5
1EF3A
  8
0
 10
65.19422060736872
 20
220.94993069770001
 30
0.0
  0
VERTEX
  5
1EF3B
  8
0
 10
65.378815726568746
 20
220.82409411670011
 30
0.0
  0
VERTEX
  5
1EF3C
  8
0
 10
65.536617393868767
 20
220.70749625569999
 30
0.0
  0
VERTEX
  5
1EF3D
  8
0
 10
65.63262278146874
 20
220.62669098379999
 30
0.0
  0
VERTEX
  5
1EF3E
  8
0
 10
65.658112148968712
 20
220.5916434527
 30
0.0
  0
VERTEX
  5
1EF3F
  8
0
 10
65.614299009768729
 20
220.60071080930001
 30
0.0
  0
VERTEX
  5
1EF40
  8
0
 10
65.501193375568732
 20
220.65711915500009
 30
0.0
  0
VERTEX
  5
1EF41
  8
0
 10
65.45873205106875
 20
220.68024575710001
 30
0.0
  0
SEQEND
  5
1EF42
  8
0
  0
ARC
  5
1E266
  8
0
 10
58.316554266118828
 20
188.85778757136549
 30
0.0
 40
8.8864747614063582
 50
316.29450144301597
 51
351.62491202517492
  0
POLYLINE
  5
1E267
  8
0
 66
     1
 10
0.0
 20
0.0
 30
0.0
 70
   128
  0
VERTEX
  5
1EF43
  8
0
 10
67.157268150968775
 20
188.25696930289999
 30
0.0
  0
VERTEX
  5
1EF44
  8
0
 10
67.14182589136874
 20
188.15709799530001
 30
0.0
  0
VERTEX
  5
1EF45
  8
0
 10
67.057739104368736
 20
188.02173398439999
 30
0.0
  0
VERTEX
  5
1EF46
  8
0
 10
66.912461164668741
 20
187.98709064729999
 30
0.0
  0
VERTEX
  5
1EF47
  8
0
 10
66.741663123668729
 20
188.14238868659999
 30
0.0
  0
VERTEX
  5
1EF48
  8
0
 10
66.682489681268734
 20
188.35508413619999
 30
0.0
  0
VERTEX
  5
1EF49
  8
0
 10
66.673679369768706
 20
188.51004317409999
 30
0.0
  0
VERTEX
  5
1EF4A
  8
0
 10
66.683814953268723
 20
188.6942736805
 30
0.0
  0
VERTEX
  5
1EF4B
  8
0
 10
66.713566984268766
 20
188.8984438032
 30
0.0
  0
VERTEX
  5
1EF4C
  8
0
 10
66.757770347668725
 20
189.10995461050001
 30
0.0
  0
VERTEX
  5
1EF4D
  8
0
 10
66.869236621268726
 20
189.526835084
 30
0.0
  0
VERTEX
  5
1EF4E
  8
0
 10
67.091453447268734
 20
190.29209166769999
 30
0.0
  0
VERTEX
  5
1EF4F
  8
0
 10
67.25290473476872
 20
190.98577983679999
 30
0.0
  0
VERTEX
  5
1EF50
  8
0
 10
67.328773531368768
 20
191.5934920311
 30
0.0
  0
SEQEND
  5
1EF51
  8
0
  0
ARC
  5
1E268
  8
0
 10
61.644150037068748
 20
215.1268523718
 30
0.0
 40
11.066283833922389
 50
270.29305169826119
 51
297.6161577231556
  0
POLYLINE
  5
1E269
  8
0
 66
     1
 10
0.0
 20
0.0
 30
0.0
 70
   128
  0
VERTEX
  5
1EF52
  8
0
 10
61.700587169468747
 20
199.43642020230001
 30
0.0
  0
VERTEX
  5
1EF53
  8
0
 10
62.84474031926873
 20
199.49646443130001
 30
0.0
  0
VERTEX
  5
1EF54
  8
0
 10
63.936397991368722
 20
199.68068376190001
 30
0.0
  0
VERTEX
  5
1EF55
  8
0
 10
64.91571185106875
 20
199.9639995396
 30
0.0
  0
VERTEX
  5
1EF56
  8
0
 10
65.747358462968734
 20
200.30015856029999
 30
0.0
  0
VERTEX
  5
1EF57
  8
0
 10
66.428077033968748
 20
200.64201727509999
 30
0.0
  0
VERTEX
  5
1EF58
  8
0
 10
66.937240516976033
 20
200.92601206543861
 30
0.0
  0
SEQEND
  5
1EF59
  8
0
  0
POLYLINE
  5
1E26A
  8
0
 66
     1
 10
0.0
 20
0.0
 30
0.0
 70
   128
  0
VERTEX
  5
1EF5A
  8
0
 10
61.700750700484662
 20
194.04026526487311
 30
0.0
  0
VERTEX
  5
1EF5B
  8
0
 10
63.111389148268763
 20
194.15522143250001
 30
0.0
  0
VERTEX
  5
1EF5C
  8
0
 10
64.412670302468754
 20
194.4448310882
 30
0.0
  0
VERTEX
  5
1EF5D
  8
0
 10
65.528545388268753
 20
194.8694583029
 30
0.0
  0
VERTEX
  5
1EF5E
  8
0
 10
66.416625025868711
 20
195.37642374640001
 30
0.0
  0
VERTEX
  5
1EF5F
  8
0
 10
67.054297401768736
 20
195.89837230750001
 30
0.0
  0
VERTEX
  5
1EF60
  8
0
 10
67.440635151468754
 20
196.3525485248
 30
0.0
  0
VERTEX
  5
1EF61
  8
0
 10
67.544920462368736
 20
196.51511088020001
 30
0.0
  0
VERTEX
  5
1EF62
  8
0
 10
67.591703589268661
 20
196.57400399449989
 30
0.0
  0
SEQEND
  5
1EF63
  8
0
  0
ARC
  5
1E26B
  8
0
 10
-1330.729278755822
 20
267.89665187581397
 30
0.0
 40
1400.138739470965
 50
356.87601250198458
 51
357.0801064463642
  0
POLYLINE
  5
1E26C
  8
0
 66
     1
 10
0.0
 20
0.0
 30
0.0
 70
   128
  0
VERTEX
  5
1EF64
  8
0
 10
66.440138485982118
 20
211.38352268531401
 30
0.0
  0
VERTEX
  5
1EF65
  8
0
 10
65.34103616066875
 20
211.40765920280001
 30
0.0
  0
VERTEX
  5
1EF66
  8
0
 10
64.512746500968774
 20
211.3817796111
 30
0.0
  0
VERTEX
  5
1EF67
  8
0
 10
63.609697832068719
 20
211.34526804090001
 30
0.0
  0
VERTEX
  5
1EF68
  8
0
 10
62.658070504468753
 20
211.31609529260001
 30
0.0
  0
VERTEX
  5
1EF69
  8
0
 10
61.70075070048437
 20
211.30298445487711
 30
0.0
  0
SEQEND
  5
1EF6A
  8
0
  0
POLYLINE
  5
1E26D
  8
0
 66
     1
 10
0.0
 20
0.0
 30
0.0
 70
   128
  0
VERTEX
  5
1EF6B
  8
0
 10
66.440138485982175
 20
211.38352268531401
 30
0.0
  0
VERTEX
  5
1EF6C
  8
0
 10
66.69950634166878
 20
211.232149601
 30
0.0
  0
VERTEX
  5
1EF6D
  8
0
 10
66.774774900868749
 20
211.09875440600001
 30
0.0
  0
VERTEX
  5
1EF6E
  8
0
 10
66.80756537176876
 20
210.94194948680001
 30
0.0
  0
VERTEX
  5
1EF6F
  8
0
 10
66.808561421268735
 20
210.7485324145
 30
0.0
  0
VERTEX
  5
1EF70
  8
0
 10
66.778917423668759
 20
210.5155192316
 30
0.0
  0
VERTEX
  5
1EF71
  8
0
 10
66.688104625068718
 20
210.17534062269999
 30
0.0
  0
VERTEX
  5
1EF72
  8
0
 10
66.407057549068725
 20
209.54535678030001
 30
0.0
  0
VERTEX
  5
1EF73
  8
0
 10
65.99202528526871
 20
208.93686041239999
 30
0.0
  0
VERTEX
  5
1EF74
  8
0
 10
65.476777590068764
 20
208.39964374900001
 30
0.0
  0
VERTEX
  5
1EF75
  8
0
 10
64.811079389668748
 20
207.90978297589999
 30
0.0
  0
VERTEX
  5
1EF76
  8
0
 10
64.007756392668739
 20
207.51636996869999
 30
0.0
  0
VERTEX
  5
1EF77
  8
0
 10
63.218956556368759
 20
207.27625638250001
 30
0.0
  0
VERTEX
  5
1EF78
  8
0
 10
62.350214202168729
 20
207.1412183345
 30
0.0
  0
VERTEX
  5
1EF79
  8
0
 10
61.700750700484662
 20
207.1017325318924
 30
0.0
  0
SEQEND
  5
1EF7A
  8
0
  0
ARC
  5
1E26E
  8
0
 10
62.096249894768732
 20
206.1719135246
 30
0.0
 40
4.7543394854862404
 50
265.22822218626408
 51
349.69376731816578
  0
ARC
  5
1E26F
  8
0
 10
61.818522605468729
 20
200.9889443221
 30
0.0
 40
5.1191047583062801
 50
268.679926217804
 51
359.29561052119323
  0
ARC
  5
1E270
  8
0
 10
61.66899939316874
 20
194.9325491914
 30
0.0
 40
5.331048586396693
 50
270.33953197409579
 51
3.3581570220996571
  0
ARC
  5
1E271
  8
0
 10
61.76795970576876
 20
188.57363022640001
 30
0.0
 40
6.5672613247934368
 50
269.4122009134993
 51
296.91347847049963
  0
ARC
  5
1E272
  8
0
 10
66.047763301436305
 20
188.30353313076779
 30
0.0
 40
1.110481517721825
 50
357.59681436408857
 51
49.557089106157122
  0
LINE
  5
1E273
  8
0
 10
68.538989964168763
 20
214.95861336589999
 30
0.0
 11
67.591703589268718
 21
196.5740039945
 31
0.0
  0
LINE
  5
1E279
  8
1
 10
205.99999976149999
 20
310.74967859937402
 30
0.0
 11
205.99999976149999
 21
301.24967859937402
 31
0.0
  0
LINE
  5
1E27A
  8
1
 10
210.74999976149999
 20
305.99967859937402
 30
0.0
 11
201.24999976149999
 21
305.99967859937402
 31
0.0
  0
LINE
  5
1E27B
  8
1
 10
205.99999976149999
 20
282.74967859937408
 30
0.0
 11
205.99999976149999
 21
273.24967859937408
 31
0.0
  0
LINE
  5
1E27C
  8
1
 10
210.74999976149999
 20
277.99967859937408
 30
0.0
 11
201.24999976149999
 21
277.99967859937408
 31
0.0
  0
LINE
  5
1E27D
  8
1
 10
233.99999976149999
 20
310.74967859937402
 30
0.0
 11
233.99999976149999
 21
301.24967859937402
 31
0.0
  0
LINE
  5
1E27E
  8
1
 10
238.74999976149999
 20
305.99967859937402
 30
0.0
 11
229.24999976149999
 21
305.99967859937402
 31
0.0
  0
LINE
  5
1E27F
  8
1
 10
233.99999976149999
 20
282.74967859937408
 30
0.0
 11
233.99999976149999
 21
273.24967859937408
 31
0.0
  0
LINE
  5
1E280
  8
1
 10
238.74999976149999
 20
277.99967859937408
 30
0.0
 11
229.24999976149999
 21
277.99967859937408
 31
0.0
  0
LINE
  5
1E281
  8
1
 10
205.99999976149999
 20
98.750000447000005
 30
0.0
 11
205.99999976149999
 21
89.250000447000005
 31
0.0
  0
LINE
  5
1E282
  8
1
 10
210.74999976149999
 20
94.000000447000005
 30
0.0
 11
201.24999976149999
 21
94.000000447000005
 31
0.0
  0
LINE
  5
1E283
  8
1
 10
205.99999976149999
 20
70.750000446999977
 30
0.0
 11
205.99999976149999
 21
61.250000446999977
 31
0.0
  0
LINE
  5
1E284
  8
1
 10
210.74999976149999
 20
66.000000446999977
 30
0.0
 11
201.24999976149999
 21
66.000000446999977
 31
0.0
  0
LINE
  5
1E285
  8
1
 10
233.99999976149999
 20
70.750000446999977
 30
0.0
 11
233.99999976149999
 21
61.250000446999977
 31
0.0
  0
LINE
  5
1E286
  8
1
 10
238.74999976149999
 20
66.000000446999977
 30
0.0
 11
229.24999976149999
 21
66.000000446999977
 31
0.0
  0
LINE
  5
1E287
  8
1
 10
233.99999976149999
 20
98.750000447000005
 30
0.0
 11
233.99999976149999
 21
89.250000447000005
 31
0.0
  0
LINE
  5
1E288
  8
1
 10
238.74999976149999
 20
94.000000447000005
 30
0.0
 11
229.24999976149999
 21
94.000000447000005
 31
0.0
  0
LINE
  5
1E28B
  8
0
 10
151.3007512348143
 20
295.89969365460979
 30
0.0
 11
151.3007512348143
 21
288.09965966847687
 31
0.0
  0
LINE
  5
1E28C
  8
0
 10
147.60075154897601
 20
294.49967652650781
 30
0.0
 11
140.20075024369191
 21
294.49967554158962
 31
0.0
  0
LINE
  5
1E28D
  8
0
 10
140.20075029330621
 20
289.49967623086633
 30
0.0
 11
147.60075136813941
 21
289.49967535284372
 31
0.0
  0
ARC
  5
1E28E
  8
0
 10
137.64532289379559
 20
297.1076530697444
 30
0.0
 40
0.5000000000140883
 50
60.751173663458317
 51
107.5712587753372
  0
ARC
  5
1E28F
  8
0
 10
137.64532289379559
 20
286.89169832940621
 30
0.0
 40
0.5000000000140799
 50
252.42874122466279
 51
299.24882633654158
  0
LINE
  5
1E290
  8
0
 10
137.49437699160109
 20
297.58432277476601
 30
0.0
 11
132.049804179229
 21
295.86020899637668
 31
0.0
  0
LINE
  5
1E291
  8
0
 10
132.04980456425949
 20
288.13914181079781
 30
0.0
 11
137.49437698548931
 21
286.41502721770888
 31
0.0
  0
LINE
  5
1E292
  8
0
 10
137.88962461527879
 20
286.45544488665718
 30
0.0
 11
139.94505192271171
 21
287.60648522455767
 31
0.0
  0
LINE
  5
1E293
  8
0
 10
139.9450519275245
 20
296.39286709582251
 30
0.0
 11
137.8896246170255
 21
297.54390530357432
 31
0.0
  0
ARC
  5
1E294
  8
0
 10
139.70075025351881
 20
288.04273765085122
 30
0.0
 40
0.5
 50
299.24882633751218
 51
0.0
  0
ARC
  5
1E295
  8
0
 10
139.70075025351881
 20
295.95661374829962
 30
0.0
 40
0.4999999999999716
 50
0.0
 51
60.751173662487808
  0
ARC
  5
1E296
  8
0
 10
132.20075025351881
 20
288.61581299882738
 30
0.0
 40
0.5000000000181445
 50
180.0
 51
252.42874121859549
  0
ARC
  5
1E297
  8
0
 10
132.20075025351881
 20
295.38353840032352
 30
0.0
 40
0.5000000000181802
 50
107.5712587814045
 51
180.0
  0
LINE
  5
1E298
  8
0
 10
140.20075025351869
 20
295.95661374829962
 30
0.0
 11
140.20075025351869
 21
288.04273765085122
 31
0.0
  0
LINE
  5
1E299
  8
0
 10
137.8896246170255
 20
297.54390530357432
 30
0.0
 11
137.88962457826861
 21
286.45544532141912
 31
0.0
  0
LINE
  5
1E29A
  8
0
 10
137.49437704146919
 20
286.41502721670957
 30
0.0
 11
137.49437704146919
 21
297.58432418244109
 31
0.0
  0
LINE
  5
1E29B
  8
0
 10
131.70075025350059
 20
295.38353840032352
 30
0.0
 11
131.70075025350059
 21
288.61581299882738
 31
0.0
  0
LINE
  5
1E29C
  8
3
 10
140.20075025351869
 20
294.06667643344349
 30
0.0
 11
147.6007514650654
 21
294.06667643344349
 31
0.0
  0
LINE
  5
1E29D
  8
3
 10
140.20075025351869
 20
289.93267643344302
 30
0.0
 11
147.60075145442951
 21
289.93267643344302
 31
0.0
  0
LINE
  5
1E29E
  8
0
 10
148.0157621769068
 20
291.99967666154322
 30
0.0
 11
150.88576042893999
 21
291.99967666153589
 31
0.0
  0
LINE
  5
1E29F
  8
0
 10
147.6007615600812
 20
295.89967666154212
 30
0.0
 11
147.6007615600812
 21
288.09967666154421
 31
0.0
  0
LINE
  5
1E2A0
  8
0
 10
151.24302601884699
 20
295.99967666154322
 30
0.0
 11
151.30076104576651
 21
295.89967666154189
 31
0.0
  0
ARC
  5
1E2A1
  8
0
 10
145.4663170125192
 20
293.99967666154322
 30
0.0
 40
5.7767090063276196
 50
339.74384199966443
 51
20.256158000335532
  0
ARC
  5
1E2A2
  8
0
 10
153.43520559332831
 20
293.99967666154322
 30
0.0
 40
5.7767090063276196
 50
159.74384199966451
 51
200.25615800033549
  0
LINE
  5
1E2A3
  8
0
 10
147.65849658700071
 20
295.99967666154322
 30
0.0
 11
147.6007615600812
 21
295.89967666154189
 31
0.0
  0
LINE
  5
1E2A4
  8
0
 10
151.24302601884699
 20
295.99967666154339
 30
0.0
 11
147.65849658700071
 21
295.99967666154322
 31
0.0
  0
LINE
  5
1E2A5
  8
0
 10
151.24302601884699
 20
287.99967666154322
 30
0.0
 11
147.65849658700071
 21
287.99967666154322
 31
0.0
  0
LINE
  5
1E2A6
  8
0
 10
147.65849658700071
 20
287.99967666154322
 30
0.0
 11
147.6007615600812
 21
288.09967666154472
 31
0.0
  0
ARC
  5
1E2A7
  8
0
 10
153.43520559332831
 20
289.99967666154322
 30
0.0
 40
5.7767090063276196
 50
159.74384199966451
 51
200.25615800033549
  0
ARC
  5
1E2A8
  8
0
 10
145.4663170125192
 20
289.99967666154322
 30
0.0
 40
5.7767090063276196
 50
339.74384199966443
 51
20.256158000335532
  0
LINE
  5
1E2A9
  8
0
 10
151.24302601884699
 20
287.99967666154322
 30
0.0
 11
151.30076104576651
 21
288.09967666154472
 31
0.0
  0
LINE
  5
1E2AA
  8
0
 10
151.71575185163999
 20
291.99967859937402
 30
0.0
 11
154.58575010367329
 21
291.99967859936669
 31
0.0
  0
LINE
  5
1E2AB
  8
0
 10
154.94301569358009
 20
295.99967859937402
 30
0.0
 11
155.00075072049989
 21
295.89967859937269
 31
0.0
  0
ARC
  5
1E2AC
  8
0
 10
149.16630668725259
 20
293.99967859937402
 30
0.0
 40
5.7767090063276196
 50
339.74384199966443
 51
20.256158000335532
  0
ARC
  5
1E2AD
  8
0
 10
157.13519526806169
 20
293.99967859937402
 30
0.0
 40
5.7767090063276196
 50
159.74384199966451
 51
200.25615800033549
  0
LINE
  5
1E2AE
  8
0
 10
151.3584862617341
 20
295.99967859937402
 30
0.0
 11
151.3007512348143
 21
295.89967859937269
 31
0.0
  0
LINE
  5
1E2AF
  8
0
 10
154.94301569358009
 20
295.99967859937419
 30
0.0
 11
151.3584862617341
 21
295.99967859937402
 31
0.0
  0
LINE
  5
1E2B0
  8
0
 10
154.94301569358009
 20
287.99967859937368
 30
0.0
 11
151.3584862617341
 21
287.99967859937402
 31
0.0
  0
LINE
  5
1E2B1
  8
0
 10
151.3584862617341
 20
287.99967859937402
 30
0.0
 11
151.3007512348143
 21
288.09967859937518
 31
0.0
  0
ARC
  5
1E2B2
  8
0
 10
157.13519526806169
 20
289.99967859937402
 30
0.0
 40
5.7767090063276196
 50
159.74384199966451
 51
200.25615800033549
  0
ARC
  5
1E2B3
  8
0
 10
149.16630668725259
 20
289.99967859937402
 30
0.0
 40
5.7767090063276196
 50
339.74384199966443
 51
20.256158000335532
  0
LINE
  5
1E2B4
  8
0
 10
154.94301569358009
 20
287.99967859937402
 30
0.0
 11
155.00075072049989
 21
288.09967859937518
 31
0.0
  0
LINE
  5
1E2B5
  8
2
 10
164.50075095900621
 20
289.49967739973567
 30
0.0
 11
165.00075072049989
 21
289.99967861612868
 31
0.0
  0
LINE
  5
1E2B6
  8
2
 10
165.00075049359231
 20
293.99967880952681
 30
0.0
 11
164.50075113984289
 21
294.49967857339988
 31
0.0
  0
LINE
  5
1E2B7
  8
2
 10
165.00075072049989
 20
289.99967861612868
 30
0.0
 11
165.00075072049989
 21
293.99967858261903
 31
0.0
  0
LINE
  5
1E2B8
  8
2
 10
164.50075113984289
 20
294.49967857339988
 30
0.0
 11
164.50075184977189
 21
289.4996773997359
 31
0.0
  0
LINE
  5
1E2B9
  8
2
 10
155.00075072049981
 20
294.49967859937402
 30
0.0
 11
175.00075072049989
 21
294.49967859937402
 31
0.0
  0
LINE
  5
1E2BA
  8
2
 10
155.00075072049989
 20
294.0666785993742
 30
0.0
 11
178.00075072049989
 21
294.0666785993742
 31
0.0
  0
LINE
  5
1E2BB
  8
2
 10
155.00075072049989
 20
289.93267859937379
 30
0.0
 11
178.00075072049989
 21
289.93267859937379
 31
0.0
  0
LINE
  5
1E2BC
  8
2
 10
155.00075072049981
 20
289.49967859937402
 30
0.0
 11
175.00075072049989
 21
289.49967859937402
 31
0.0
  0
LINE
  5
1E2BD
  8
2
 10
178.00075072049989
 20
294.0666785993742
 30
0.0
 11
179.24272962002999
 21
291.99967859937402
 31
0.0
  0
LINE
  5
1E2BE
  8
2
 10
178.00075072049989
 20
289.93267859937379
 30
0.0
 11
179.2427296200301
 21
291.99967859937402
 31
0.0
  0
LINE
  5
1E2BF
  8
2
 10
175.00075072049989
 20
294.49967859937402
 30
0.0
 11
175.00075072049989
 21
289.49967859937402
 31
0.0
  0
LINE
  5
1E2C0
  8
2
 10
178.00075072049989
 20
294.0666785993742
 30
0.0
 11
178.00075072049989
 21
289.93267859937379
 31
0.0
  0
LINE
  5
1E2C1
  8
2
 10
175.00075072049989
 20
289.49967859937402
 30
0.0
 11
175.7507287201768
 21
289.93267859937379
 31
0.0
  0
LINE
  5
1E2C2
  8
2
 10
175.00075072049989
 20
294.49967859937391
 30
0.0
 11
175.7507287201768
 21
294.06667859937409
 31
0.0
  0
LINE
  5
1E2C3
  8
0
 10
151.3007512348143
 20
83.900015502235746
 30
0.0
 11
151.3007512348143
 21
76.099981516102829
 31
0.0
  0
LINE
  5
1E2C4
  8
0
 10
147.60075154897601
 20
82.49999837413371
 30
0.0
 11
140.20075024369191
 21
82.499997389215523
 31
0.0
  0
LINE
  5
1E2C5
  8
0
 10
140.20075029330621
 20
77.499998078492226
 30
0.0
 11
147.60075136813941
 21
77.499997200469679
 31
0.0
  0
ARC
  5
1E2C6
  8
0
 10
137.64532289379559
 20
85.107974917370356
 30
0.0
 40
0.5000000000140883
 50
60.75117366345836
 51
107.5712587753372
  0
ARC
  5
1E2C7
  8
0
 10
137.64532289379559
 20
74.892020177032109
 30
0.0
 40
0.5000000000140799
 50
252.42874122466279
 51
299.24882633654158
  0
LINE
  5
1E2C8
  8
0
 10
137.49437699160109
 20
85.584644622391906
 30
0.0
 11
132.049804179229
 21
83.860530844002696
 31
0.0
  0
LINE
  5
1E2C9
  8
0
 10
132.04980456425949
 20
76.139463658423765
 30
0.0
 11
137.49437698548931
 21
74.415349065334894
 31
0.0
  0
LINE
  5
1E2CA
  8
0
 10
137.88962461527879
 20
74.455766734283188
 30
0.0
 11
139.94505192271171
 21
75.606807072183628
 31
0.0
  0
LINE
  5
1E2CB
  8
0
 10
139.9450519275245
 20
84.393188943448521
 30
0.0
 11
137.8896246170255
 21
85.544227151200275
 31
0.0
  0
ARC
  5
1E2CC
  8
0
 10
139.70075025351881
 20
76.043059498477163
 30
0.0
 40
0.5
 50
299.24882633751218
 51
0.0
  0
ARC
  5
1E2CD
  8
0
 10
139.70075025351881
 20
83.956935595925515
 30
0.0
 40
0.4999999999999716
 50
0.0
 51
60.751173662487808
  0
ARC
  5
1E2CE
  8
0
 10
132.20075025351881
 20
76.616134846453278
 30
0.0
 40
0.5000000000181445
 50
180.0
 51
252.42874121859541
  0
ARC
  5
1E2CF
  8
0
 10
132.20075025351881
 20
83.383860247949414
 30
0.0
 40
0.5000000000181802
 50
107.5712587814045
 51
180.0
  0
LINE
  5
1E2D0
  8
0
 10
140.20075025351869
 20
83.956935595925515
 30
0.0
 11
140.20075025351869
 21
76.043059498477163
 31
0.0
  0
LINE
  5
1E2D1
  8
0
 10
137.8896246170255
 20
85.544227151200275
 30
0.0
 11
137.88962457826861
 21
74.455767169045075
 31
0.0
  0
LINE
  5
1E2D2
  8
0
 10
137.49437704146919
 20
74.415349064335587
 30
0.0
 11
137.49437704146919
 21
85.584646030067105
 31
0.0
  0
LINE
  5
1E2D3
  8
0
 10
131.70075025350059
 20
83.383860247949414
 30
0.0
 11
131.70075025350059
 21
76.616134846453278
 31
0.0
  0
LINE
  5
1E2D4
  8
3
 10
140.20075025351869
 20
82.066998281069445
 30
0.0
 11
147.6007514650654
 21
82.066998281069445
 31
0.0
  0
LINE
  5
1E2D5
  8
3
 10
140.20075025351869
 20
77.932998281068976
 30
0.0
 11
147.60075145442951
 21
77.932998281068976
 31
0.0
  0
LINE
  5
1E2D6
  8
0
 10
148.0157621769068
 20
79.999998509169103
 30
0.0
 11
150.88576042893999
 21
79.999998509161841
 31
0.0
  0
LINE
  5
1E2D7
  8
0
 10
147.6007615600812
 20
83.899998509168057
 30
0.0
 11
147.6007615600812
 21
76.099998509170163
 31
0.0
  0
LINE
  5
1E2D8
  8
0
 10
151.24302601884699
 20
83.999998509169103
 30
0.0
 11
151.30076104576651
 21
83.899998509167844
 31
0.0
  0
ARC
  5
1E2D9
  8
0
 10
145.4663170125192
 20
81.999998509169117
 30
0.0
 40
5.7767090063276196
 50
339.74384199966443
 51
20.256158000335532
  0
ARC
  5
1E2DA
  8
0
 10
153.43520559332831
 20
81.999998509169117
 30
0.0
 40
5.7767090063276196
 50
159.74384199966451
 51
200.25615800033549
  0
LINE
  5
1E2DB
  8
0
 10
147.65849658700071
 20
83.999998509169103
 30
0.0
 11
147.6007615600812
 21
83.899998509167844
 31
0.0
  0
LINE
  5
1E2DC
  8
0
 10
151.24302601884699
 20
83.999998509169345
 30
0.0
 11
147.65849658700071
 21
83.999998509169103
 31
0.0
  0
LINE
  5
1E2DD
  8
0
 10
151.24302601884699
 20
75.999998509169117
 30
0.0
 11
147.65849658700071
 21
75.999998509169117
 31
0.0
  0
LINE
  5
1E2DE
  8
0
 10
147.65849658700071
 20
75.999998509169117
 30
0.0
 11
147.6007615600812
 21
76.099998509170618
 31
0.0
  0
ARC
  5
1E2DF
  8
0
 10
153.43520559332831
 20
77.999998509169103
 30
0.0
 40
5.7767090063276196
 50
159.74384199966451
 51
200.25615800033549
  0
ARC
  5
1E2E0
  8
0
 10
145.4663170125192
 20
77.999998509169103
 30
0.0
 40
5.7767090063276196
 50
339.74384199966443
 51
20.256158000335532
  0
LINE
  5
1E2E1
  8
0
 10
151.24302601884699
 20
75.999998509169117
 30
0.0
 11
151.30076104576651
 21
76.099998509170618
 31
0.0
  0
LINE
  5
1E2E2
  8
0
 10
151.71575185163999
 20
80.000000446999934
 30
0.0
 11
154.58575010367329
 21
80.000000446992644
 31
0.0
  0
LINE
  5
1E2E3
  8
0
 10
154.94301569358009
 20
84.000000446999906
 30
0.0
 11
155.00075072049989
 21
83.900000446998646
 31
0.0
  0
ARC
  5
1E2E4
  8
0
 10
149.16630668725259
 20
82.00000044699992
 30
0.0
 40
5.7767090063276196
 50
339.74384199966443
 51
20.256158000335532
  0
ARC
  5
1E2E5
  8
0
 10
157.13519526806169
 20
82.00000044699992
 30
0.0
 40
5.7767090063276196
 50
159.74384199966451
 51
200.25615800033549
  0
LINE
  5
1E2E6
  8
0
 10
151.3584862617341
 20
84.000000446999906
 30
0.0
 11
151.3007512348143
 21
83.900000446998646
 31
0.0
  0
LINE
  5
1E2E7
  8
0
 10
154.94301569358009
 20
84.000000447000133
 30
0.0
 11
151.3584862617341
 21
84.000000446999906
 31
0.0
  0
LINE
  5
1E2E8
  8
0
 10
154.94301569358009
 20
76.000000446999692
 30
0.0
 11
151.3584862617341
 21
76.00000044699992
 31
0.0
  0
LINE
  5
1E2E9
  8
0
 10
151.3584862617341
 20
76.00000044699992
 30
0.0
 11
151.3007512348143
 21
76.100000447001193
 31
0.0
  0
ARC
  5
1E2EA
  8
0
 10
157.13519526806169
 20
78.000000446999906
 30
0.0
 40
5.7767090063276196
 50
159.74384199966451
 51
200.25615800033549
  0
ARC
  5
1E2EB
  8
0
 10
149.16630668725259
 20
78.000000446999906
 30
0.0
 40
5.7767090063276196
 50
339.74384199966443
 51
20.256158000335532
  0
LINE
  5
1E2EC
  8
0
 10
154.94301569358009
 20
76.00000044699992
 30
0.0
 11
155.00075072049989
 21
76.100000447001193
 31
0.0
  0
LINE
  5
1E2ED
  8
2
 10
164.50075095900621
 20
77.499999247361629
 30
0.0
 11
165.00075072049989
 21
78.000000463754631
 31
0.0
  0
LINE
  5
1E2EE
  8
2
 10
165.00075049359231
 20
82.000000657152768
 30
0.0
 11
164.50075113984289
 21
82.500000421025888
 31
0.0
  0
LINE
  5
1E2EF
  8
2
 10
165.00075072049989
 20
78.000000463754631
 30
0.0
 11
165.00075072049989
 21
82.000000430244981
 31
0.0
  0
LINE
  5
1E2F0
  8
2
 10
164.50075113984289
 20
82.500000421025888
 30
0.0
 11
164.50075184977189
 21
77.499999247361856
 31
0.0
  0
LINE
  5
1E2F1
  8
2
 10
155.00075072049981
 20
82.500000446999934
 30
0.0
 11
175.00075072049989
 21
82.500000446999934
 31
0.0
  0
LINE
  5
1E2F2
  8
2
 10
155.00075072049989
 20
82.067000447000154
 30
0.0
 11
178.00075072049989
 21
82.067000447000154
 31
0.0
  0
LINE
  5
1E2F3
  8
2
 10
155.00075072049989
 20
77.933000446999799
 30
0.0
 11
178.00075072049989
 21
77.933000446999799
 31
0.0
  0
LINE
  5
1E2F4
  8
2
 10
155.00075072049981
 20
77.50000044699992
 30
0.0
 11
175.00075072049989
 21
77.50000044699992
 31
0.0
  0
LINE
  5
1E2F5
  8
2
 10
178.00075072049989
 20
82.067000447000154
 30
0.0
 11
179.24272962002999
 21
80.000000446999934
 31
0.0
  0
LINE
  5
1E2F6
  8
2
 10
178.00075072049989
 20
77.933000446999799
 30
0.0
 11
179.2427296200301
 21
80.000000446999934
 31
0.0
  0
LINE
  5
1E2F7
  8
2
 10
175.00075072049989
 20
82.500000446999934
 30
0.0
 11
175.00075072049989
 21
77.50000044699992
 31
0.0
  0
LINE
  5
1E2F8
  8
2
 10
178.00075072049989
 20
82.067000447000154
 30
0.0
 11
178.00075072049989
 21
77.933000446999799
 31
0.0
  0
LINE
  5
1E2F9
  8
2
 10
175.00075072049989
 20
77.50000044699992
 30
0.0
 11
175.7507287201768
 21
77.933000446999799
 31
0.0
  0
LINE
  5
1E2FA
  8
2
 10
175.00075072049989
 20
82.500000446999806
 30
0.0
 11
175.7507287201768
 21
82.067000447000055
 31
0.0
  0
LINE
  5
1E2FB
  8
0
 10
151.3007512348145
 20
171.89999922520261
 30
0.0
 11
151.3007512348145
 21
164.09999922519711
 31
0.0
  0
LINE
  5
1E2FC
  8
0
 10
147.60075154897601
 20
170.49999715233369
 30
0.0
 11
140.20075024369191
 21
170.49999616741559
 31
0.0
  0
LINE
  5
1E2FD
  8
0
 10
140.20075029330621
 20
165.49999685669229
 30
0.0
 11
147.60075136813941
 21
165.49999597866969
 31
0.0
  0
LINE
  5
1E2FE
  8
2
 10
164.50075095900621
 20
165.49999802556169
 30
0.0
 11
165.00075072049989
 21
165.9999992419547
 31
0.0
  0
LINE
  5
1E2FF
  8
2
 10
165.00075049359231
 20
169.99999943535281
 30
0.0
 11
164.50075113984289
 21
170.49999919922601
 31
0.0
  0
ARC
  5
1E300
  8
0
 10
137.64532289379559
 20
173.10797369557039
 30
0.0
 40
0.5000000000140883
 50
60.751173663458317
 51
107.5712587753372
  0
ARC
  5
1E301
  8
0
 10
137.64532289379559
 20
162.8920189552322
 30
0.0
 40
0.5000000000140799
 50
252.42874122466279
 51
299.24882633654158
  0
LINE
  5
1E302
  8
0
 10
137.49437699160109
 20
173.584643400592
 30
0.0
 11
132.049804179229
 21
171.86052962220279
 31
0.0
  0
LINE
  5
1E303
  8
0
 10
132.04980456425949
 20
164.1394624366238
 30
0.0
 11
137.49437698548931
 21
162.41534784353499
 31
0.0
  0
LINE
  5
1E304
  8
0
 10
137.88962461527879
 20
162.45576551248331
 30
0.0
 11
139.94505192271171
 21
163.60680585038369
 31
0.0
  0
LINE
  5
1E305
  8
0
 10
139.9450519275245
 20
172.39318772164859
 30
0.0
 11
137.8896246170255
 21
173.54422592940031
 31
0.0
  0
ARC
  5
1E306
  8
0
 10
139.70075025351881
 20
164.04305827667719
 30
0.0
 40
0.5
 50
299.24882633751218
 51
0.0
  0
ARC
  5
1E307
  8
0
 10
139.70075025351881
 20
171.95693437412561
 30
0.0
 40
0.4999999999999716
 50
0.0
 51
60.751173662487808
  0
ARC
  5
1E308
  8
0
 10
132.20075025351881
 20
164.61613362465329
 30
0.0
 40
0.5000000000181445
 50
180.0
 51
252.42874121859549
  0
ARC
  5
1E309
  8
0
 10
132.20075025351881
 20
171.38385902614951
 30
0.0
 40
0.5000000000181802
 50
107.5712587814045
 51
180.0
  0
LINE
  5
1E30A
  8
2
 10
165.00075072049989
 20
165.9999992419547
 30
0.0
 11
165.00075072049989
 21
169.9999992084451
 31
0.0
  0
LINE
  5
1E30B
  8
2
 10
164.50075113984289
 20
170.49999919922601
 30
0.0
 11
164.50075184977189
 21
165.49999802556189
 31
0.0
  0
LINE
  5
1E30C
  8
0
 10
140.20075025351869
 20
171.95693437412561
 30
0.0
 11
140.20075025351869
 21
164.04305827667719
 31
0.0
  0
LINE
  5
1E30D
  8
0
 10
137.8896246170255
 20
173.54422592940031
 30
0.0
 11
137.88962457826861
 21
162.4557659472452
 31
0.0
  0
LINE
  5
1E30E
  8
0
 10
137.49437704146919
 20
162.41534784253571
 30
0.0
 11
137.49437704146919
 21
173.5846448082672
 31
0.0
  0
LINE
  5
1E30F
  8
0
 10
131.70075025350059
 20
171.38385902614951
 30
0.0
 11
131.70075025350059
 21
164.61613362465329
 31
0.0
  0
LINE
  5
1E310
  8
3
 10
140.20075025351869
 20
170.06699705926951
 30
0.0
 11
147.6007514650654
 21
170.06699705926951
 31
0.0
  0
LINE
  5
1E311
  8
3
 10
140.20075025351869
 20
165.93299705926901
 30
0.0
 11
147.60075145442951
 21
165.93299705926901
 31
0.0
  0
LINE
  5
1E312
  8
0
 10
154.58575010367321
 20
163.3811970716832
 30
0.0
 11
151.71575185164079
 21
163.38119707168281
 31
0.0
  0
LINE
  5
1E313
  8
0
 10
151.71575185165759
 20
165.69059814844141
 30
0.0
 11
154.5857501036653
 21
165.69059814844141
 31
0.0
  0
LINE
  5
1E314
  8
0
 10
154.5857501036632
 20
170.30940030195839
 30
0.0
 11
151.71575185164639
 21
170.3094003019504
 31
0.0
  0
LINE
  5
1E315
  8
0
 10
154.58575010367321
 20
172.61880137871671
 30
0.0
 11
151.71575185164079
 21
172.61880137871671
 31
0.0
  0
LINE
  5
1E316
  8
0
 10
154.58575010367321
 20
163.38119707168281
 30
0.0
 11
155.00075072049981
 21
164.09999922519719
 31
0.0
  0
ARC
  5
1E317
  8
0
 10
152.89835749483581
 20
164.53589761006231
 30
0.0
 40
2.044658198744437
 50
334.38424746668551
 51
34.38424746793018
  0
ARC
  5
1E318
  8
0
 10
153.40314446047839
 20
164.53589761006231
 30
0.0
 40
2.044658198744437
 50
145.61575253206979
 51
205.61575253331421
  0
LINE
  5
1E319
  8
0
 10
151.71575185164079
 20
163.38119707168281
 30
0.0
 11
151.30075123481419
 21
164.09999922519719
 31
0.0
  0
ARC
  5
1E31A
  8
0
 10
159.00122067176989
 20
167.99999922518731
 30
0.0
 40
7.6427344100359971
 50
162.412046225777
 51
197.5879537740164
  0
LINE
  5
1E31B
  8
0
 10
151.71575185164079
 20
172.61880137871671
 30
0.0
 11
151.30075123481419
 21
171.89999922520281
 31
0.0
  0
ARC
  5
1E31C
  8
0
 10
153.40314446047839
 20
171.46410084033769
 30
0.0
 40
2.044658198744437
 50
154.38424746667141
 51
214.38424746793021
  0
ARC
  5
1E31D
  8
0
 10
147.30028128354411
 20
167.99999922518731
 30
0.0
 40
7.6427344100359971
 50
342.41204622598337
 51
17.587953774235078
  0
ARC
  5
1E31E
  8
0
 10
152.89835749483581
 20
171.46410084033769
 30
0.0
 40
2.044658198744437
 50
325.61575253206979
 51
25.615752533314151
  0
LINE
  5
1E31F
  8
0
 10
154.58575010367321
 20
172.61880137871671
 30
0.0
 11
155.00075072049981
 21
171.89999922520281
 31
0.0
  0
LINE
  5
1E320
  8
0
 10
150.88575061798781
 20
163.3811970716832
 30
0.0
 11
148.01575236595531
 21
163.38119707168281
 31
0.0
  0
LINE
  5
1E321
  8
0
 10
148.01575236597211
 20
165.69059814844141
 30
0.0
 11
150.8857506179798
 21
165.69059814844141
 31
0.0
  0
LINE
  5
1E322
  8
0
 10
150.88575061797781
 20
170.30940030195839
 30
0.0
 11
148.01575236596099
 21
170.3094003019504
 31
0.0
  0
LINE
  5
1E323
  8
0
 10
147.60075174912899
 20
171.89999922520099
 30
0.0
 11
147.60075174912879
 21
164.09999922519719
 31
0.0
  0
LINE
  5
1E324
  8
0
 10
150.88575061798781
 20
172.61880137871671
 30
0.0
 11
148.01575236595531
 21
172.61880137871671
 31
0.0
  0
LINE
  5
1E325
  8
0
 10
150.88575061798781
 20
163.38119707168281
 30
0.0
 11
151.3007512348143
 21
164.09999922519719
 31
0.0
  0
ARC
  5
1E326
  8
0
 10
149.19835800915021
 20
164.53589761006231
 30
0.0
 40
2.044658198744437
 50
334.38424746668579
 51
34.38424746793018
  0
ARC
  5
1E327
  8
0
 10
149.70314497479291
 20
164.53589761006231
 30
0.0
 40
2.044658198744437
 50
145.61575253206979
 51
205.61575253331421
  0
LINE
  5
1E328
  8
0
 10
148.01575236595531
 20
163.38119707168281
 30
0.0
 11
147.60075174912879
 21
164.09999922519719
 31
0.0
  0
ARC
  5
1E329
  8
0
 10
155.30122118608449
 20
167.99999922518731
 30
0.0
 40
7.6427344100359971
 50
162.412046225777
 51
197.5879537740164
  0
LINE
  5
1E32A
  8
0
 10
148.01575236595531
 20
172.61880137871671
 30
0.0
 11
147.60075174912879
 21
171.89999922520281
 31
0.0
  0
ARC
  5
1E32B
  8
0
 10
149.70314497479291
 20
171.46410084033769
 30
0.0
 40
2.044658198744437
 50
154.38424746667141
 51
214.38424746793021
  0
ARC
  5
1E32C
  8
0
 10
143.6002817978586
 20
167.99999922518731
 30
0.0
 40
7.6427344100359971
 50
342.41204622598337
 51
17.587953774235078
  0
ARC
  5
1E32D
  8
0
 10
149.19835800915021
 20
171.46410084033769
 30
0.0
 40
2.044658198744437
 50
325.61575253206979
 51
25.615752533314151
  0
LINE
  5
1E32E
  8
0
 10
150.88575061798781
 20
172.61880137871671
 30
0.0
 11
151.3007512348143
 21
171.89999922520281
 31
0.0
  0
LINE
  5
1E32F
  8
2
 10
155.00075072049981
 20
170.49999922520001
 30
0.0
 11
175.00075072049989
 21
170.49999922520001
 31
0.0
  0
LINE
  5
1E330
  8
2
 10
155.00075072049989
 20
170.06699922520019
 30
0.0
 11
178.00075072049989
 21
170.06699922520019
 31
0.0
  0
LINE
  5
1E331
  8
2
 10
155.00075072049989
 20
165.93299922519981
 30
0.0
 11
178.00075072049989
 21
165.93299922519981
 31
0.0
  0
LINE
  5
1E332
  8
2
 10
155.00075072049981
 20
165.4999992251999
 30
0.0
 11
175.00075072049989
 21
165.49999922520001
 31
0.0
  0
LINE
  5
1E333
  8
2
 10
178.00075072049989
 20
170.06699922520019
 30
0.0
 11
179.24272962002999
 21
167.99999922520001
 31
0.0
  0
LINE
  5
1E334
  8
2
 10
178.00075072049989
 20
165.93299922519981
 30
0.0
 11
179.2427296200301
 21
167.99999922520001
 31
0.0
  0
LINE
  5
1E335
  8
2
 10
175.00075072049989
 20
170.49999922520001
 30
0.0
 11
175.00075072049989
 21
165.49999922520001
 31
0.0
  0
LINE
  5
1E336
  8
2
 10
178.00075072049989
 20
170.06699922520019
 30
0.0
 11
178.00075072049989
 21
165.93299922519981
 31
0.0
  0
LINE
  5
1E337
  8
2
 10
175.00075072049989
 20
165.49999922520001
 30
0.0
 11
175.7507287201768
 21
165.93299922519981
 31
0.0
  0
LINE
  5
1E338
  8
2
 10
175.00075072049989
 20
170.49999922519979
 30
0.0
 11
175.7507287201768
 21
170.06699922519999
 31
0.0
  0
LINE
  5
1E33B
  8
1
 10
126.7007502535006
 20
80.000000446999977
 30
0.0
 11
265.00000238410001
 21
80.000000446999977
 31
0.0
  0
LINE
  5
1E33E
  8
1
 10
205.99999976149999
 20
156.9999992251999
 30
0.0
 11
205.99999976149999
 21
147.99999926702449
 31
0.0
  0
LINE
  5
1E33F
  8
1
 10
233.99999976149999
 20
156.9999992251999
 30
0.0
 11
233.99999976149999
 21
147.99999926702449
 31
0.0
  0
LINE
  5
1E340
  8
1
 10
215.35075020150501
 20
167.99999632540141
 30
0.0
 11
126.7007502535006
 21
167.99999632540141
 31
0.0
  0
CIRCLE
  5
1E344
  8
0
 10
61.700750700484662
 20
167.99999922520479
 30
0.0
 40
3.3838598009446339
  0
CIRCLE
  5
1E345
  8
0
 10
61.700750700484662
 20
167.99999922520479
 30
0.0
 40
3.8605309136292192
  0
CIRCLE
  5
1E346
  8
0
 10
61.700750700484662
 20
167.99999922520479
 30
0.0
 40
5.6079744703796726
  0
LINE
  5
1E349
  8
1
 10
75.700750700484662
 20
156.99999957077549
 30
0.0
 11
75.700750700484662
 21
147.99999961259999
 31
0.0
  0
LINE
  5
1E34A
  8
1
 10
47.700750700484647
 20
156.99999957077549
 30
0.0
 11
47.700750700484647
 21
147.99999961259999
 31
0.0
  0
LINE
  5
1E34B
  8
1
 10
344.00000062579983
 20
156.99999957077549
 30
0.0
 11
344.00000062579983
 21
147.99999961259999
 31
0.0
  0
LINE
  5
1E34C
  8
1
 10
316.00000062579983
 20
156.99999957077549
 30
0.0
 11
316.00000062579983
 21
147.99999961259999
 31
0.0
  0
LINE
  5
1E3F4
  8
1
 10
49.700751088000573
 20
167.99999922520479
 30
0.0
 11
73.700750313100571
 21
167.99999922520479
 31
0.0
  0
ENDSEC
  0
EOF
