  0
SECTION
  2
HEADER
  9
$ACADVER
  1
AC1009
  9
$INSBASE
 10
0.0
 20
0.0
 30
0.0
  9
$EXTMIN
 10
0.0
 20
-2.960436562073669
 30
0.0
  9
$EXTMAX
 10
130.154707907035
 20
96.152283360233071
 30
0.0
  9
$LIMMIN
 10
0.0
 20
0.0
  9
$LIMMAX
 10
375.0
 20
270.0
  9
$ORTHOMODE
 70
     0
  9
$REGENMODE
 70
     1
  9
$FILLMODE
 70
     1
  9
$QTEXTMODE
 70
     0
  9
$MIRRTEXT
 70
     0
  9
$DRAGMODE
 70
     2
  9
$LTSCALE
 40
10.0
  9
$OSMODE
 70
    55
  9
$ATTMODE
 70
     1
  9
$TEXTSIZE
 40
0.2
  9
$TRACEWID
 40
0.05
  9
$TEXTSTYLE
  7
STANDARD
  9
$CLAYER
  8
0
  9
$CELTYPE
  6
BYLAYER
  9
$CECOLOR
 62
   256
  9
$DIMSCALE
 40
1.0
  9
$DIMASZ
 40
3.0
  9
$DIMEXO
 40
2.0
  9
$DIMDLI
 40
0.38
  9
$DIMRND
 40
0.0
  9
$DIMDLE
 40
0.0
  9
$DIMEXE
 40
2.0
  9
$DIMTP
 40
0.0
  9
$DIMTM
 40
0.0
  9
$DIMTXT
 40
3.2000000000000002
  9
$DIMCEN
 40
0.0
  9
$DIMTSZ
 40
0.0
  9
$DIMTOL
 70
     0
  9
$DIMLIM
 70
     0
  9
$DIMTIH
 70
     0
  9
$DIMTOH
 70
     0
  9
$DIMSE1
 70
     0
  9
$DIMSE2
 70
     0
  9
$DIMTAD
 70
     1
  9
$DIMZIN
 70
     0
  9
$DIMBLK
  1

  9
$DIMASO
 70
     1
  9
$DIMSHO
 70
     0
  9
$DIMPOST
  1

  9
$DIMAPOST
  1

  9
$DIMALT
 70
     0
  9
$DIMALTD
 70
     2
  9
$DIMALTF
 40
25.399999999999999
  9
$DIMLFAC
 40
1.0
  9
$DIMTOFL
 70
     0
  9
$DIMTVP
 40
1.6000000000000001
  9
$DIMTIX
 70
     1
  9
$DIMSOXD
 70
     0
  9
$DIMSAH
 70
     0
  9
$DIMBLK1
  1

  9
$DIMBLK2
  1

  9
$DIMSTYLE
  2
STANDARD
  9
$DIMCLRD
 70
     0
  9
$DIMCLRE
 70
     0
  9
$DIMCLRT
 70
     0
  9
$DIMTFAC
 40
1.0
  9
$DIMGAP
 40
0.09
  9
$LUNITS
 70
     2
  9
$LUPREC
 70
     1
  9
$SKETCHINC
 40
0.1
  9
$FILLETRAD
 40
0.0
  9
$AUNITS
 70
     0
  9
$AUPREC
 70
     0
  9
$MENU
  1
E:\r13\win\SUPPORT\ACAD
  9
$ELEVATION
 40
0.0
  9
$PELEVATION
 40
0.0
  9
$THICKNESS
 40
0.0
  9
$LIMCHECK
 70
     0
  9
$BLIPMODE
 70
     0
  9
$CHAMFERA
 40
0.0
  9
$CHAMFERB
 40
0.0
  9
$SKPOLY
 70
     0
  9
$TDCREATE
 40
2449840.6036574072
  9
$TDUPDATE
 40
2456598.5560680092
  9
$TDINDWG
 40
0.0027822569
  9
$TDUSRTIMER
 40
0.0027822569
  9
$USRTIMER
 70
     1
  9
$ANGBASE
 50
0.0
  9
$ANGDIR
 70
     0
  9
$PDMODE
 70
     0
  9
$PDSIZE
 40
0.0
  9
$PLINEWID
 40
0.0
  9
$COORDS
 70
     1
  9
$SPLFRAME
 70
     0
  9
$SPLINETYPE
 70
     6
  9
$SPLINESEGS
 70
     8
  9
$ATTDIA
 70
     0
  9
$ATTREQ
 70
     1
  9
$HANDLING
 70
     1
  9
$HANDSEED
  5
627
  9
$SURFTAB1
 70
     6
  9
$SURFTAB2
 70
     6
  9
$SURFTYPE
 70
     6
  9
$SURFU
 70
     6
  9
$SURFV
 70
     6
  9
$UCSNAME
  2

  9
$UCSORG
 10
0.0
 20
0.0
 30
0.0
  9
$UCSXDIR
 10
1.0
 20
0.0
 30
0.0
  9
$UCSYDIR
 10
0.0
 20
1.0
 30
0.0
  9
$PUCSNAME
  2

  9
$PUCSORG
 10
0.0
 20
0.0
 30
0.0
  9
$PUCSXDIR
 10
1.0
 20
0.0
 30
0.0
  9
$PUCSYDIR
 10
0.0
 20
1.0
 30
0.0
  9
$USERI1
 70
     0
  9
$USERI2
 70
     1
  9
$USERI3
 70
     1
  9
$USERI4
 70
     0
  9
$USERI5
 70
     0
  9
$USERR1
 40
0.0
  9
$USERR2
 40
0.0
  9
$USERR3
 40
0.0
  9
$USERR4
 40
0.0
  9
$USERR5
 40
0.0
  9
$WORLDVIEW
 70
     1
  9
$SHADEDGE
 70
     3
  9
$SHADEDIF
 70
    70
  9
$TILEMODE
 70
     1
  9
$MAXACTVP
 70
    16
  9
$PLIMCHECK
 70
     0
  9
$PEXTMIN
 10
1.0000000000000000E+020
 20
1.0000000000000000E+020
 30
1.0000000000000000E+020
  9
$PEXTMAX
 10
-1.0000000000000000E+020
 20
-1.0000000000000000E+020
 30
-1.0000000000000000E+020
  9
$PLIMMIN
 10
0.0
 20
0.0
  9
$PLIMMAX
 10
12.0
 20
9.0
  9
$UNITMODE
 70
     0
  9
$VISRETAIN
 70
     0
  9
$PLINEGEN
 70
     0
  9
$PSLTSCALE
 70
     0
  0
ENDSEC
  0
SECTION
  2
TABLES
  0
TABLE
  2
VPORT
 70
     1
  0
VPORT
  2
*ACTIVE
 70
     0
 10
0.0
 20
0.0
 11
1.0
 21
1.0
 12
187.4942783906524
 22
197.0509055860143
 13
0.0
 23
0.0
 14
10.0
 24
10.0
 15
10.0
 25
10.0
 16
0.0
 26
0.0
 36
1.0
 17
0.0
 27
0.0
 37
0.0
 40
403.57315882993248
 41
1.7807262569832401
 42
50.0
 43
0.0
 44
0.0
 50
0.0
 51
0.0
 71
     0
 72
   100
 73
     1
 74
     0
 75
     0
 76
     0
 77
     0
 78
     2
  0
ENDTAB
  0
TABLE
  2
LTYPE
 70
     3
  0
LTYPE
  2
CONTINUOUS
 70
     0
  3
Solid Line
 72
    65
 73
     0
 40
0.0
  0
LTYPE
  2
CENTER
 70
     0
  3
____ _ ____ _ ____ _ ____ _ ____ _ ____ _ ____
 72
    65
 73
     4
 40
2.0
 49
1.25
 49
-0.25
 49
0.25
 49
-0.25
  0
LTYPE
  2
PHANTOM2
 70
     0
  3
___ _ _ ___ _ _ ___ _ _ ___ _ _
 72
    65
 73
     6
 40
1.25
 49
0.625
 49
-0.125
 49
0.125
 49
-0.125
 49
0.125
 49
-0.125
  0
ENDTAB
  0
TABLE
  2
LAYER
 70
     3
  0
LAYER
  2
0
 70
     0
 62
     7
  6
CONTINUOUS
  0
LAYER
  2
1
 70
     0
 62
     1
  6
CENTER
  0
LAYER
  2
3
 70
     0
 62
     3
  6
CONTINUOUS
  0
ENDTAB
  0
TABLE
  2
STYLE
 70
     2
  0
STYLE
  2
STANDARD
 70
     0
 40
0.0
 41
1.0
 50
0.0
 71
     0
 42
0.2
  3
txt.shx
  4
BIGFONT.shx
  0
STYLE
  2
STANDARD1
 70
     0
 40
0.0
 41
1.0
 50
0.0
 71
     0
 42
3.0
  3
txt
  4

  0
ENDTAB
  0
TABLE
  2
VIEW
 70
     1
  0
VIEW
  2
ALL
 70
     0
 40
270.0
 10
220.99159700000001
 20
135.0
 41
0.0
 11
0.0
 21
0.0
 31
1.0
 12
0.0
 22
0.0
 32
0.0
 42
0.0
 43
0.0
 44
0.0
 50
0.0
 71
     0
  0
ENDTAB
  0
TABLE
  2
UCS
 70
     0
  0
ENDTAB
  0
TABLE
  2
APPID
 70
     3
  0
APPID
  2
ACAD
 70
     0
  0
APPID
  2
ACAD_MLEADERVER
 70
     0
  0
APPID
  2
ACAD_NAV_VCDISPLAY
 70
     0
  0
ENDTAB
  0
TABLE
  2
DIMSTYLE
 70
     1
  0
DIMSTYLE
  2
STANDARD
 70
     0
  3

  4

  5

  6

  7

 40
1.0
 41
0.18
 42
0.0625
 43
0.38
 44
0.18
 45
0.0
 46
0.0
 47
0.0
 48
0.0
140
0.18
141
0.09
142
0.0
143
25.399999999999999
144
1.0
145
0.0
146
1.0
147
0.09
 71
     0
 72
     0
 73
     1
 74
     1
 75
     0
 76
     0
 77
     0
 78
     0
170
     0
171
     2
172
     0
173
     0
174
     0
175
     0
176
     0
177
     0
178
     0
  0
ENDTAB
  0
ENDSEC
  0
SECTION
  2
BLOCKS
  0
BLOCK
  8
0
  2
$MODEL_SPACE
 70
     0
 10
0.0
 20
0.0
 30
0.0
  3
$MODEL_SPACE
  1

  0
ENDBLK
  5
FC
  8
0
  0
BLOCK
 67
     1
  8
0
  2
$PAPER_SPACE
 70
     0
 10
0.0
 20
0.0
 30
0.0
  3
$PAPER_SPACE
  1

  0
ENDBLK
  5
FA
 67
     1
  8
0
  0
ENDSEC
  0
SECTION
  2
ENTITIES
  0
LINE
  5
389
  8
0
 10
80.256685034091049
 20
57.48520479209634
 30
0.0
 11
74.654707907035061
 21
58.652283360233071
 31
0.0
  0
ARC
  5
38A
  8
0
 10
80.154707907035061
 20
56.995714582227578
 30
0.0
 40
0.5
 50
0.0
 51
78.231711067979475
  0
LINE
  5
38B
  8
0
 10
80.256685034091049
 20
46.81936192836983
 30
0.0
 11
74.654707907035061
 21
45.652283360233092
 31
0.0
  0
ARC
  5
38C
  8
0
 10
80.154707907035061
 20
47.308852138238592
 30
0.0
 40
0.5
 50
281.7682889320206
 51
0.0
  0
ARC
  5
38D
  8
0
 10
80.154707907035061
 20
82.308852138238578
 30
0.0
 40
0.5
 50
281.7682889320206
 51
0.0
  0
LINE
  5
38E
  8
0
 10
80.256685034091049
 20
81.819361928369844
 30
0.0
 11
74.654707907035061
 21
80.652283360233085
 31
0.0
  0
ARC
  5
38F
  8
0
 10
80.154707907035061
 20
91.995714582227578
 30
0.0
 40
0.5
 50
0.0
 51
78.231711067979475
  0
LINE
  5
390
  8
0
 10
80.256685034091049
 20
92.48520479209634
 30
0.0
 11
74.654707907035061
 21
93.652283360233071
 31
0.0
  0
LINE
  5
448
  8
0
 10
82.654707907035004
 20
47.352283360233059
 30
0.0
 11
82.454707907035015
 21
47.152283360233042
 31
0.0
  0
LINE
  5
449
  8
0
 10
82.454707907035072
 20
57.152283360233042
 30
0.0
 11
82.654707907035061
 21
56.952283360233018
 31
0.0
  0
LINE
  5
44A
  8
0
 10
87.454707907035115
 20
56.152283360233127
 30
0.0
 11
87.454707907035015
 21
48.152283360233007
 31
0.0
  0
LINE
  5
44B
  8
0
 10
87.654707907035004
 20
48.352283360233031
 30
0.0
 11
87.454707907035015
 21
48.152283360233007
 31
0.0
  0
LINE
  5
44C
  8
0
 10
87.454707907035115
 20
56.152283360233127
 30
0.0
 11
87.654707907035117
 21
55.952283360233139
 31
0.0
  0
LINE
  5
44D
  8
0
 10
82.654707907035004
 20
48.152283360233007
 30
0.0
 11
82.654707907035004
 21
47.352283360233059
 31
0.0
  0
LINE
  5
44E
  8
0
 10
87.454707907035015
 20
48.152283360233007
 30
0.0
 11
82.654707907035061
 21
48.152283360233007
 31
0.0
  0
LINE
  5
44F
  8
0
 10
87.454707907035115
 20
56.152283360233127
 30
0.0
 11
82.654707907035061
 21
56.152283360233127
 31
0.0
  0
ARC
  5
450
  8
0
 10
87.654707907035061
 20
52.152283360233071
 30
0.0
 40
30.0
 50
172.5518094389586
 51
187.448190561041
  0
LINE
  5
451
  8
0
 10
60.882520846579951
 20
58.652283360233071
 30
0.0
 11
74.654707907035061
 21
58.652283360233071
 31
0.0
  0
LINE
  5
452
  8
0
 10
60.882520846579951
 20
45.652283360233071
 30
0.0
 11
74.654707907035061
 21
45.652283360233071
 31
0.0
  0
ARC
  5
453
  8
0
 10
60.882520846579951
 20
55.652283360233071
 30
0.0
 40
3.0
 50
90.0
 51
172.5518094389586
  0
ARC
  5
454
  8
0
 10
60.882520846579951
 20
48.652283360233071
 30
0.0
 40
3.0
 50
187.448190561041
 51
270.0
  0
LINE
  5
455
  8
1
 10
55.154707907035061
 20
52.152283360233071
 30
0.0
 11
97.154707907035061
 21
52.152283360233071
 31
0.0
  0
LINE
  5
456
  8
0
 10
74.654707907035061
 20
45.652283360233071
 30
0.0
 11
74.654707907035061
 21
58.652283360233071
 31
0.0
  0
LINE
  5
457
  8
0
 10
80.654707907035046
 20
47.308852138238592
 30
0.0
 11
80.654707907035046
 21
56.995714582227578
 31
0.0
  0
LINE
  5
458
  8
0
 10
60.882520846579951
 20
58.652283360233071
 30
0.0
 11
60.882520846579951
 21
45.652283360233071
 31
0.0
  0
LINE
  5
459
  8
0
 10
93.654707907035061
 20
49.152283360233071
 30
0.0
 11
93.654707907035103
 21
55.152283360233071
 31
0.0
  0
LINE
  5
45A
  8
0
 10
94.654707907035061
 20
50.152283360233071
 30
0.0
 11
93.654707907035061
 21
49.152283360233071
 31
0.0
  0
LINE
  5
45B
  8
0
 10
93.654707907035103
 20
55.152283360233071
 30
0.0
 11
94.654707907035103
 21
54.152283360233071
 31
0.0
  0
LINE
  5
45C
  8
0
 10
87.654707907035117
 20
55.152283360233071
 30
0.0
 11
93.654707907035103
 21
55.152283360233071
 31
0.0
  0
LINE
  5
45D
  8
3
 10
88.654707907035103
 20
54.610783360233143
 30
0.0
 11
94.196207907034989
 21
54.610783360233143
 31
0.0
  0
LINE
  5
45E
  8
3
 10
88.654707907035061
 20
49.693783360232999
 30
0.0
 11
94.196207907034989
 21
49.693783360232999
 31
0.0
  0
LINE
  5
45F
  8
0
 10
87.654707907035004
 20
49.152283360233071
 30
0.0
 11
93.654707907035061
 21
49.152283360233071
 31
0.0
  0
LINE
  5
460
  8
0
 10
94.654707907035103
 20
54.152283360233071
 30
0.0
 11
94.654707907035061
 21
50.152283360233071
 31
0.0
  0
LINE
  5
461
  8
0
 10
88.654707907035103
 20
55.152283360233071
 30
0.0
 11
88.654707907035061
 21
49.152283360233071
 31
0.0
  0
LINE
  5
462
  8
0
 10
87.654707907035117
 20
55.952283360233139
 30
0.0
 11
87.654707907035004
 21
48.352283360233031
 31
0.0
  0
LINE
  5
463
  8
0
 10
80.654707907035117
 20
56.652283360233007
 30
0.0
 11
80.654707907035004
 21
47.652283360233071
 31
0.0
  0
LINE
  5
464
  8
0
 10
82.454707907035015
 20
47.152283360233042
 30
0.0
 11
81.154707907035004
 21
47.152283360233071
 31
0.0
  0
LINE
  5
465
  8
0
 10
82.454707907035072
 20
57.152283360233042
 30
0.0
 11
81.154707907035103
 21
57.152283360233007
 31
0.0
  0
LINE
  5
466
  8
0
 10
82.654707907035061
 20
56.952283360233018
 30
0.0
 11
82.654707907035004
 21
56.152283360233099
 31
0.0
  0
LINE
  5
467
  8
0
 10
81.154707907035103
 20
57.152283360233007
 30
0.0
 11
80.654707907035117
 21
56.652283360233007
 31
0.0
  0
LINE
  5
468
  8
0
 10
80.654707907035004
 20
47.652283360233071
 30
0.0
 11
81.154707907035004
 21
47.152283360233071
 31
0.0
  0
LINE
  5
469
  8
0
 10
81.154707907035004
 20
47.152283360233071
 30
0.0
 11
81.154707907035103
 21
57.152283360233007
 31
0.0
  0
CIRCLE
  5
46A
  8
0
 10
121.154707907035
 20
87.152283360233056
 30
0.0
 40
6.5
  0
LINE
  5
46B
  8
0
 10
87.154707907035004
 20
90.152283360232687
 30
0.0
 11
87.154707907034947
 21
92.152283360233056
 31
0.0
  0
LINE
  5
46C
  8
3
 10
82.654707907035004
 20
90.152283360232644
 30
0.0
 11
87.154707907035004
 21
84.152283360233454
 31
0.0
  0
LINE
  5
46D
  8
3
 10
82.654707907035004
 20
84.152283360233497
 30
0.0
 11
87.154707907035004
 21
90.152283360232687
 31
0.0
  0
LINE
  5
46E
  8
0
 10
87.154707907035004
 20
90.152283360232687
 30
0.0
 11
87.654707907035061
 21
89.213836173041855
 31
0.0
  0
LINE
  5
46F
  8
0
 10
87.154707907035004
 20
90.152283360232687
 30
0.0
 11
82.654707907035004
 21
90.152283360232644
 31
0.0
  0
LINE
  5
470
  8
0
 10
87.154707907035004
 20
84.152283360233454
 30
0.0
 11
87.654707907035061
 21
85.090730547424286
 31
0.0
  0
LINE
  5
471
  8
0
 10
87.154707907035004
 20
84.152283360233454
 30
0.0
 11
82.654707907035004
 21
84.152283360233497
 31
0.0
  0
ARC
  5
472
  8
0
 10
121.154707907035
 20
87.152283360233056
 30
0.0
 40
4.5
 50
207.26604445073241
 51
332.73395554926702
  0
ARC
  5
473
  8
0
 10
121.154707907035
 20
87.152283360233056
 30
0.0
 40
4.5
 50
27.26604445073276
 51
152.73395554926759
  0
LINE
  5
474
  8
0
 10
125.154707907035
 20
90.152283360232957
 30
0.0
 11
125.154707907035
 21
84.152283360233156
 31
0.0
  0
LINE
  5
475
  8
0
 10
117.154707907035
 20
90.152283360232957
 30
0.0
 11
117.154707907035
 21
84.152283360233184
 31
0.0
  0
CIRCLE
  5
476
  8
0
 10
121.154707907035
 20
87.152283360233056
 30
0.0
 40
2.9999999999999849
  0
CIRCLE
  5
477
  8
3
 10
121.154707907035
 20
87.152283360233056
 30
0.0
 40
2.458500000000071
  0
LINE
  5
478
  8
1
 10
121.154707907035
 20
96.152283360233071
 30
0.0
 11
121.154707907035
 21
78.152283360233071
 31
0.0
  0
LINE
  5
479
  8
1
 10
130.154707907035
 20
87.152283360233056
 30
0.0
 11
112.154707907035
 21
87.152283360233056
 31
0.0
  0
CIRCLE
  5
47A
  8
0
 10
121.154707907035
 20
87.152283360233056
 30
0.0
 40
4.9999999999999432
  0
LINE
  5
47B
  8
0
 10
81.154707907035004
 20
82.152283360233056
 30
0.0
 11
81.154707907035103
 21
92.152283360233014
 31
0.0
  0
LINE
  5
47C
  8
0
 10
87.154707907035004
 20
82.152283360233056
 30
0.0
 11
87.154707907035004
 21
84.152283360233454
 31
0.0
  0
LINE
  5
47D
  8
0
 10
80.654707907035004
 20
82.652283360233071
 30
0.0
 11
81.154707907035004
 21
82.152283360233056
 31
0.0
  0
LINE
  5
47E
  8
0
 10
81.154707907035103
 20
92.152283360233014
 30
0.0
 11
80.654707907035117
 21
91.652283360233014
 31
0.0
  0
LINE
  5
47F
  8
0
 10
87.654707907035117
 20
91.652283360233071
 30
0.0
 11
87.154707907035103
 21
92.152283360233056
 31
0.0
  0
LINE
  5
480
  8
0
 10
87.154707907035004
 20
82.152283360233056
 30
0.0
 11
87.654707907035004
 21
82.652283360233071
 31
0.0
  0
LINE
  5
481
  8
0
 10
82.654707907035061
 20
90.152283360232687
 30
0.0
 11
82.654707907035004
 21
84.152283360233497
 31
0.0
  0
LINE
  5
482
  8
0
 10
87.154707907035103
 20
92.152283360233056
 30
0.0
 11
81.154707907035103
 21
92.152283360233014
 31
0.0
  0
LINE
  5
483
  8
0
 10
87.154707907035004
 20
82.152283360233056
 30
0.0
 11
81.154707907035004
 21
82.152283360233056
 31
0.0
  0
LINE
  5
484
  8
0
 10
80.654707907035117
 20
91.995714582227578
 30
0.0
 11
80.654707907035004
 21
82.652283360233071
 31
0.0
  0
LINE
  5
48B
  8
0
 10
87.654707907035117
 20
91.652283360233071
 30
0.0
 11
87.654707907035004
 21
82.652283360233071
 31
0.0
  0
LINE
  5
48C
  8
0
 10
88.654707907035103
 20
90.152283360233071
 30
0.0
 11
88.654707907035061
 21
84.152283360233071
 31
0.0
  0
LINE
  5
48D
  8
0
 10
94.654707907035103
 20
89.152283360233071
 30
0.0
 11
94.654707907035061
 21
85.152283360233071
 31
0.0
  0
LINE
  5
48E
  8
0
 10
87.654707907035004
 20
84.152283360233071
 30
0.0
 11
93.654707907035061
 21
84.152283360233071
 31
0.0
  0
LINE
  5
48F
  8
3
 10
88.654707907035061
 20
84.693783360232999
 30
0.0
 11
94.196207907034989
 21
84.693783360232999
 31
0.0
  0
LINE
  5
490
  8
3
 10
88.654707907035103
 20
89.610783360233143
 30
0.0
 11
94.196207907034989
 21
89.610783360233143
 31
0.0
  0
LINE
  5
491
  8
0
 10
87.654707907035117
 20
90.152283360233071
 30
0.0
 11
93.654707907035103
 21
90.152283360233071
 31
0.0
  0
LINE
  5
492
  8
0
 10
93.654707907035103
 20
90.152283360233071
 30
0.0
 11
94.654707907035103
 21
89.152283360233071
 31
0.0
  0
LINE
  5
493
  8
0
 10
94.654707907035061
 20
85.152283360233071
 30
0.0
 11
93.654707907035061
 21
84.152283360233071
 31
0.0
  0
LINE
  5
494
  8
0
 10
93.654707907035061
 20
84.152283360233071
 30
0.0
 11
93.654707907035103
 21
90.152283360233071
 31
0.0
  0
LINE
  5
495
  8
0
 10
60.882520846579951
 20
93.652283360233071
 30
0.0
 11
60.882520846579951
 21
80.652283360233085
 31
0.0
  0
LINE
  5
496
  8
0
 10
80.654707907035046
 20
82.308852138238578
 30
0.0
 11
80.654707907035046
 21
91.995714582227578
 31
0.0
  0
LINE
  5
497
  8
0
 10
74.654707907035061
 20
80.652283360233085
 30
0.0
 11
74.654707907035061
 21
93.652283360233071
 31
0.0
  0
LINE
  5
498
  8
1
 10
55.154707907035061
 20
87.152283360233056
 30
0.0
 11
97.154707907035061
 21
87.152283360233056
 31
0.0
  0
ARC
  5
499
  8
0
 10
60.882520846579951
 20
83.652283360233071
 30
0.0
 40
3.0
 50
187.448190561041
 51
270.0
  0
ARC
  5
49A
  8
0
 10
60.882520846579951
 20
90.652283360233085
 30
0.0
 40
3.0
 50
90.0
 51
172.5518094389586
  0
LINE
  5
49B
  8
0
 10
60.882520846579951
 20
80.652283360233085
 30
0.0
 11
74.654707907035061
 21
80.652283360233085
 31
0.0
  0
LINE
  5
49C
  8
0
 10
60.882520846579951
 20
93.652283360233071
 30
0.0
 11
74.654707907035061
 21
93.652283360233071
 31
0.0
  0
ARC
  5
49D
  8
0
 10
87.654707907035061
 20
87.152283360233056
 30
0.0
 40
30.0
 50
172.5518094389586
 51
187.448190561041
  0
LINE
  5
49E
  8
1
 10
31.154707907035061
 20
78.152283360233071
 30
0.0
 11
31.154707907035061
 21
96.152283360233071
 31
0.0
  0
LINE
  5
49F
  8
1
 10
22.154707907035061
 20
87.152283360233056
 30
0.0
 11
40.154707907035053
 21
87.152283360233056
 31
0.0
  0
CIRCLE
  5
4A0
  8
0
 10
31.154707907035061
 20
87.152283360233056
 30
0.0
 40
6.5
  0
TEXT
  5
592
  8
0
 62
     3
 10
0.0
 20
0.0
 30
0.0
 40
10.0
  1
SRG13S
  7
STANDARD1
  0
ENDSEC
  0
EOF
