  0
SECTION
  2
HEADER
  9
$ACADVER
  1
AC1009
  9
$INSBASE
 10
0.0
 20
0.0
 30
0.0
  9
$EXTMIN
 10
-0.0005
 20
-2.960436562073669
 30
0.0
  9
$EXTMAX
 10
167.40162025267659
 20
111.8766194191019
 30
0.0
  9
$LIMMIN
 10
0.0
 20
0.0
  9
$LIMMAX
 10
375.0
 20
270.0
  9
$ORTHOMODE
 70
     0
  9
$REGENMODE
 70
     1
  9
$FILLMODE
 70
     1
  9
$QTEXTMODE
 70
     0
  9
$MIRRTEXT
 70
     0
  9
$DRAGMODE
 70
     2
  9
$LTSCALE
 40
5.0
  9
$OSMODE
 70
    55
  9
$ATTMODE
 70
     1
  9
$TEXTSIZE
 40
5.0
  9
$TRACEWID
 40
0.05
  9
$TEXTSTYLE
  7
STANDARD
  9
$CLAYER
  8
0
  9
$CELTYPE
  6
BYLAYER
  9
$CECOLOR
 62
   256
  9
$DIMSCALE
 40
1.0
  9
$DIMASZ
 40
3.0
  9
$DIMEXO
 40
2.0
  9
$DIMDLI
 40
0.38
  9
$DIMRND
 40
0.0
  9
$DIMDLE
 40
0.0
  9
$DIMEXE
 40
2.0
  9
$DIMTP
 40
0.0
  9
$DIMTM
 40
0.0
  9
$DIMTXT
 40
3.0
  9
$DIMCEN
 40
0.09
  9
$DIMTSZ
 40
0.0
  9
$DIMTOL
 70
     0
  9
$DIMLIM
 70
     0
  9
$DIMTIH
 70
     0
  9
$DIMTOH
 70
     0
  9
$DIMSE1
 70
     0
  9
$DIMSE2
 70
     0
  9
$DIMTAD
 70
     1
  9
$DIMZIN
 70
     0
  9
$DIMBLK
  1

  9
$DIMASO
 70
     0
  9
$DIMSHO
 70
     0
  9
$DIMPOST
  1

  9
$DIMAPOST
  1

  9
$DIMALT
 70
     0
  9
$DIMALTD
 70
     2
  9
$DIMALTF
 40
25.399999999999999
  9
$DIMLFAC
 40
1.0
  9
$DIMTOFL
 70
     0
  9
$DIMTVP
 40
1.6000000000000001
  9
$DIMTIX
 70
     1
  9
$DIMSOXD
 70
     0
  9
$DIMSAH
 70
     0
  9
$DIMBLK1
  1

  9
$DIMBLK2
  1

  9
$DIMSTYLE
  2
STANDARD
  9
$DIMCLRD
 70
     0
  9
$DIMCLRE
 70
     0
  9
$DIMCLRT
 70
     0
  9
$DIMTFAC
 40
1.0
  9
$DIMGAP
 40
0.09
  9
$LUNITS
 70
     2
  9
$LUPREC
 70
     4
  9
$SKETCHINC
 40
0.1
  9
$FILLETRAD
 40
16.0
  9
$AUNITS
 70
     0
  9
$AUPREC
 70
     0
  9
$MENU
  1
E:\r13\win\SUPPORT\ACAD
  9
$ELEVATION
 40
0.0
  9
$PELEVATION
 40
0.0
  9
$THICKNESS
 40
0.0
  9
$LIMCHECK
 70
     0
  9
$BLIPMODE
 70
     0
  9
$CHAMFERA
 40
0.0
  9
$CHAMFERB
 40
0.0
  9
$SKPOLY
 70
     0
  9
$TDCREATE
 40
2449839.7831712961
  9
$TDUPDATE
 40
2456598.5559732178
  9
$TDINDWG
 40
0.049453831
  9
$TDUSRTIMER
 40
0.049453831
  9
$USRTIMER
 70
     1
  9
$ANGBASE
 50
0.0
  9
$ANGDIR
 70
     0
  9
$PDMODE
 70
     0
  9
$PDSIZE
 40
0.0
  9
$PLINEWID
 40
0.0
  9
$COORDS
 70
     1
  9
$SPLFRAME
 70
     0
  9
$SPLINETYPE
 70
     6
  9
$SPLINESEGS
 70
     8
  9
$ATTDIA
 70
     0
  9
$ATTREQ
 70
     1
  9
$HANDLING
 70
     1
  9
$HANDSEED
  5
1F7
  9
$SURFTAB1
 70
     6
  9
$SURFTAB2
 70
     6
  9
$SURFTYPE
 70
     6
  9
$SURFU
 70
     6
  9
$SURFV
 70
     6
  9
$UCSNAME
  2

  9
$UCSORG
 10
0.0
 20
0.0
 30
0.0
  9
$UCSXDIR
 10
1.0
 20
0.0
 30
0.0
  9
$UCSYDIR
 10
0.0
 20
1.0
 30
0.0
  9
$PUCSNAME
  2

  9
$PUCSORG
 10
0.0
 20
0.0
 30
0.0
  9
$PUCSXDIR
 10
1.0
 20
0.0
 30
0.0
  9
$PUCSYDIR
 10
0.0
 20
1.0
 30
0.0
  9
$USERI1
 70
     0
  9
$USERI2
 70
     1
  9
$USERI3
 70
     1
  9
$USERI4
 70
     0
  9
$USERI5
 70
     0
  9
$USERR1
 40
0.0
  9
$USERR2
 40
0.0
  9
$USERR3
 40
0.0
  9
$USERR4
 40
0.0
  9
$USERR5
 40
0.0
  9
$WORLDVIEW
 70
     1
  9
$SHADEDGE
 70
     3
  9
$SHADEDIF
 70
    70
  9
$TILEMODE
 70
     1
  9
$MAXACTVP
 70
    16
  9
$PLIMCHECK
 70
     0
  9
$PEXTMIN
 10
1.0000000000000000E+020
 20
1.0000000000000000E+020
 30
1.0000000000000000E+020
  9
$PEXTMAX
 10
-1.0000000000000000E+020
 20
-1.0000000000000000E+020
 30
-1.0000000000000000E+020
  9
$PLIMMIN
 10
0.0
 20
0.0
  9
$PLIMMAX
 10
12.0
 20
9.0
  9
$UNITMODE
 70
     0
  9
$VISRETAIN
 70
     0
  9
$PLINEGEN
 70
     0
  9
$PSLTSCALE
 70
     0
  0
ENDSEC
  0
SECTION
  2
TABLES
  0
TABLE
  2
VPORT
 70
     1
  0
VPORT
  2
*ACTIVE
 70
     0
 10
0.0
 20
0.0
 11
1.0
 21
1.0
 12
187.4940283830235
 22
197.0507704950987
 13
0.0
 23
0.0
 14
10.0
 24
10.0
 15
10.0
 25
10.0
 16
0.0
 26
0.0
 36
1.0
 17
0.0
 27
0.0
 37
0.0
 40
403.57390618763401
 41
1.7807262569832401
 42
50.0
 43
0.0
 44
0.0
 50
0.0
 51
0.0
 71
     0
 72
   500
 73
     1
 74
     0
 75
     0
 76
     0
 77
     0
 78
     2
  0
ENDTAB
  0
TABLE
  2
LTYPE
 70
     3
  0
LTYPE
  2
CONTINUOUS
 70
     0
  3
Solid Line
 72
    65
 73
     0
 40
0.0
  0
LTYPE
  2
CENTER
 70
     0
  3
____ _ ____ _ ____ _ ____ _ ____ _ ____ _ ____
 72
    65
 73
     4
 40
2.0
 49
1.25
 49
-0.25
 49
0.25
 49
-0.25
  0
LTYPE
  2
PHANTOM2
 70
     0
  3
___ _ _ ___ _ _ ___ _ _ ___ _ _
 72
    65
 73
     6
 40
1.25
 49
0.625
 49
-0.125
 49
0.125
 49
-0.125
 49
0.125
 49
-0.125
  0
ENDTAB
  0
TABLE
  2
LAYER
 70
     4
  0
LAYER
  2
0
 70
     0
 62
     7
  6
CONTINUOUS
  0
LAYER
  2
1
 70
     0
 62
     1
  6
CENTER
  0
LAYER
  2
ITTEN
 70
     0
 62
     1
  6
CENTER
  0
LAYER
  2
3
 70
     0
 62
     3
  6
CONTINUOUS
  0
ENDTAB
  0
TABLE
  2
STYLE
 70
     2
  0
STYLE
  2
STANDARD
 70
     0
 40
0.0
 41
1.0
 50
0.0
 71
     0
 42
5.0
  3
TXT
  4
BIGFONT
  0
STYLE
  2
STANDARD1
 70
     0
 40
0.0
 41
1.0
 50
0.0
 71
     0
 42
3.0
  3
txt
  4

  0
ENDTAB
  0
TABLE
  2
VIEW
 70
     0
  0
ENDTAB
  0
TABLE
  2
UCS
 70
     0
  0
ENDTAB
  0
TABLE
  2
APPID
 70
     3
  0
APPID
  2
ACAD
 70
     0
  0
APPID
  2
ACAD_MLEADERVER
 70
     0
  0
APPID
  2
ACAD_NAV_VCDISPLAY
 70
     0
  0
ENDTAB
  0
TABLE
  2
DIMSTYLE
 70
     1
  0
DIMSTYLE
  2
STANDARD
 70
     0
  3

  4

  5

  6

  7

 40
1.0
 41
0.18
 42
0.0625
 43
0.38
 44
0.18
 45
0.0
 46
0.0
 47
0.0
 48
0.0
140
0.18
141
0.09
142
0.0
143
25.399999999999999
144
1.0
145
0.0
146
1.0
147
0.09
 71
     0
 72
     0
 73
     1
 74
     1
 75
     0
 76
     0
 77
     0
 78
     0
170
     0
171
     2
172
     0
173
     0
174
     0
175
     0
176
     0
177
     0
178
     0
  0
ENDTAB
  0
ENDSEC
  0
SECTION
  2
BLOCKS
  0
BLOCK
  8
0
  2
$MODEL_SPACE
 70
     0
 10
0.0
 20
0.0
 30
0.0
  3
$MODEL_SPACE
  1

  0
ENDBLK
  5
12
  8
0
  0
BLOCK
 67
     1
  8
0
  2
$PAPER_SPACE
 70
     0
 10
0.0
 20
0.0
 30
0.0
  3
$PAPER_SPACE
  1

  0
ENDBLK
  5
19
 67
     1
  8
0
  0
BLOCK
  8
0
  2
BATU
 70
     0
 10
0.0
 20
0.0
 30
0.0
  3
BATU
  1

  0
LINE
  5
70
  8
ITTEN
 10
0.5
 20
0.0
 30
0.0
 11
-0.5
 21
0.0
 31
0.0
  0
LINE
  5
73
  8
ITTEN
 10
0.0
 20
0.5
 30
0.0
 11
0.0
 21
-0.5
 31
0.0
  0
ENDBLK
  5
74
  8
0
  0
ENDSEC
  0
SECTION
  2
ENTITIES
  0
INSERT
  5
6D
  8
0
  2
BATU
 10
0.0
 20
0.0
 30
0.0
 41
0.001
 42
0.001
 43
0.001
  0
ARC
  5
75
  8
0
 10
126.7655362682198
 20
104.3766194191019
 30
0.0
 40
2.5
 50
270.0
 51
351.78678929826123
  0
ARC
  5
76
  8
0
 10
126.7655362682198
 20
109.3766194191019
 30
0.0
 40
2.5
 50
8.2132107017396478
 51
90.0
  0
LINE
  5
77
  8
0
 10
101.445028192531
 20
101.8766194191019
 30
0.0
 11
126.7655362682198
 21
101.8766194191019
 31
0.0
  0
LINE
  5
78
  8
0
 10
126.7655362682198
 20
111.8766194191019
 30
0.0
 11
101.445028192531
 21
111.8766194191019
 31
0.0
  0
LINE
  5
79
  8
0
 10
101.445028192531
 20
111.8766194191019
 30
0.0
 11
89.913839049453415
 21
111.1559200976595
 31
0.0
  0
LINE
  5
7A
  8
0
 10
89.913839049453415
 20
102.5973187405442
 30
0.0
 11
101.445028192531
 21
101.8766194191019
 31
0.0
  0
ARC
  5
7B
  8
0
 10
89.945028192531026
 20
103.0963450297857
 30
0.0
 40
0.5000000000000107
 50
180.0
 51
266.42366562500672
  0
ARC
  5
7C
  8
0
 10
89.945028192531026
 20
110.6568938084181
 30
0.0
 40
0.5
 50
93.57633437499652
 51
180.0
  0
ARC
  5
7D
  8
0
 10
109.445028192531
 20
106.8766194191019
 30
0.0
 40
20.000000000000011
 50
351.78678929826282
 51
8.2132107017380331
  0
LINE
  5
7E
  8
0
 10
88.445028192531026
 20
102.8766194191018
 30
0.0
 11
89.445028192531026
 21
102.8766194191018
 31
0.0
  0
LINE
  5
7F
  8
0
 10
89.445028192531026
 20
110.8766194191019
 30
0.0
 11
88.445028192531026
 21
110.8766194191019
 31
0.0
  0
LINE
  5
80
  8
0
 10
79.245028192531024
 20
104.3766194191019
 30
0.0
 11
84.445028304289735
 21
104.3766194749812
 31
0.0
  0
LINE
  5
81
  8
0
 10
84.445028304289735
 20
109.3766193632225
 30
0.0
 11
79.245028192531024
 21
109.3766194191019
 31
0.0
  0
LINE
  5
82
  8
0
 10
79.245028192531024
 20
109.3766194191019
 30
0.0
 11
78.445028192531026
 21
108.5766194191019
 31
0.0
  0
LINE
  5
83
  8
0
 10
78.445028192531026
 20
105.1766194191019
 30
0.0
 11
79.245028192531024
 21
104.3766194191019
 31
0.0
  0
LINE
  5
84
  8
0
 10
101.445028192531
 20
101.8766194191019
 30
0.0
 11
101.445028192531
 21
111.8766194191019
 31
0.0
  0
LINE
  5
85
  8
0
 10
88.445028192531026
 20
102.8766194191018
 30
0.0
 11
88.445028192531026
 21
103.3766194191019
 31
0.0
  0
LINE
  5
86
  8
0
 10
88.445028192531026
 20
103.3766194191019
 30
0.0
 11
84.445028192531026
 21
103.3766194191019
 31
0.0
  0
LINE
  5
87
  8
0
 10
84.445028192531026
 20
103.3766194191019
 30
0.0
 11
84.445028192531026
 21
110.3766194191019
 31
0.0
  0
LINE
  5
88
  8
0
 10
84.445028192531026
 20
110.3766194191019
 30
0.0
 11
88.445028192531026
 21
110.3766194191019
 31
0.0
  0
LINE
  5
89
  8
0
 10
88.445028192531026
 20
110.3766194191019
 30
0.0
 11
88.445028192531026
 21
110.8766194191019
 31
0.0
  0
LINE
  5
8A
  8
0
 10
89.445028192531026
 20
102.8766194191018
 30
0.0
 11
89.445028192531026
 21
110.8766194191019
 31
0.0
  0
LINE
  5
8B
  8
0
 10
79.245028192531024
 20
104.3766194191019
 30
0.0
 11
79.245028192531024
 21
109.3766194191019
 31
0.0
  0
LINE
  5
8C
  8
0
 10
78.445028192531026
 20
105.1766194191019
 30
0.0
 11
78.445028192531026
 21
108.5766194191019
 31
0.0
  0
LINE
  5
8D
  8
0
 10
129.23989456474669
 20
104.019476561959
 30
0.0
 11
129.23989456474669
 21
109.7337622762447
 31
0.0
  0
LINE
  5
8E
  8
0
 10
126.7655362682198
 20
101.8766194191019
 30
0.0
 11
126.7655362682198
 21
111.8766194191019
 31
0.0
  0
LINE
  5
8F
  8
0
 10
89.913839049453415
 20
102.5973187405442
 30
0.0
 11
89.913839049453415
 21
111.1559200976595
 31
0.0
  0
LINE
  5
90
  8
1
 10
75.945028192531026
 20
106.8766194191018
 30
0.0
 11
131.945028192531
 21
106.8766194191018
 31
0.0
  0
LINE
  5
92
  8
3
 10
78.845028192531004
 20
104.77661941910191
 30
0.0
 11
83.645028192531015
 21
104.77661941910191
 31
0.0
  0
LINE
  5
94
  8
0
 10
83.645028192531015
 20
104.77661941910191
 30
0.0
 11
83.645028192531015
 21
104.3766194191019
 31
0.0
  0
LINE
  5
95
  8
3
 10
78.845028192531004
 20
108.97661941910189
 30
0.0
 11
83.645028192531015
 21
108.97661941910189
 31
0.0
  0
LINE
  5
96
  8
0
 10
83.645028192531015
 20
108.97661941910189
 30
0.0
 11
83.645028192531015
 21
109.3766194191019
 31
0.0
  0
LINE
  5
97
  8
0
 10
83.645028192531015
 20
104.3766194191019
 30
0.0
 11
83.645028192531015
 21
109.3766194191019
 31
0.0
  0
LINE
  5
98
  8
0
 10
83.645028192531015
 20
104.3766194191019
 30
0.0
 11
83.645028192531015
 21
104.3766194191019
 31
0.0
  0
CIRCLE
  5
99
  8
0
 10
159.90162025267659
 20
64.476101945756398
 30
0.0
 40
2.8571428571428439
  0
CIRCLE
  5
9A
  8
0
 10
159.90162025267659
 20
64.476101945756398
 30
0.0
 40
4.9999999999999911
  0
CIRCLE
  5
9B
  8
0
 10
44.37558624599842
 20
64.476101945756398
 30
0.0
 40
4.2793006785576369
  0
CIRCLE
  5
9C
  8
0
 10
44.37558624599842
 20
64.476101945756426
 30
0.0
 40
4.9999999999999947
  0
CIRCLE
  5
9D
  8
0
 10
44.37558624599842
 20
64.476101945756398
 30
0.0
 40
1.699999999999988
  0
CIRCLE
  5
9E
  8
0
 10
44.37558624599842
 20
64.476101945756398
 30
0.0
 40
2.4999999999999849
  0
ARC
  5
9F
  8
0
 10
44.37558624599842
 20
64.476101945756398
 30
0.0
 40
4.0000000000000107
 50
28.95502437186067
 51
151.04497562814001
  0
LINE
  5
A0
  8
0
 10
47.875586245998448
 20
62.539610272652681
 30
0.0
 11
47.875586245998448
 21
66.412593618860086
 31
0.0
  0
ARC
  5
A1
  8
0
 10
44.37558624599842
 20
64.476101945756398
 30
0.0
 40
4.0000000000000133
 50
208.95502437185991
 51
331.04497562814072
  0
LINE
  5
A2
  8
0
 10
40.87558624599842
 20
66.412593618860086
 30
0.0
 11
40.875586245998448
 21
62.539610272652681
 31
0.0
  0
ARC
  5
A3
  8
0
 10
44.37558624599842
 20
64.476101945756398
 30
0.0
 40
4.0000000000000133
 50
331.04497562814072
 51
28.95502437186067
  0
ARC
  5
A4
  8
0
 10
44.37558624599842
 20
64.476101945756398
 30
0.0
 40
3.9999999999999978
 50
151.04497562814001
 51
208.95502437185991
  0
CIRCLE
  5
A5
  8
3
 10
44.37558624599842
 20
64.476101945756398
 30
0.0
 40
2.0999999999999939
  0
LINE
  5
A6
  8
3
 10
84.445028192531026
 20
62.539610272652681
 30
0.0
 11
88.445028192531026
 21
66.412593618860114
 31
0.0
  0
LINE
  5
A7
  8
3
 10
88.445028192531026
 20
62.539610272652681
 30
0.0
 11
84.44502819253097
 21
66.412593618860114
 31
0.0
  0
LINE
  5
A8
  8
0
 10
84.445028192531026
 20
60.47610194575639
 30
0.0
 11
89.445028192531026
 21
60.47610194575639
 31
0.0
  0
LINE
  5
A9
  8
0
 10
89.445028192531026
 20
68.476101945756398
 30
0.0
 11
84.445028192531026
 21
68.476101945756398
 31
0.0
  0
LINE
  5
AA
  8
0
 10
79.245028192530981
 20
61.976101945756398
 30
0.0
 11
84.445028304289735
 21
61.976102001635752
 31
0.0
  0
LINE
  5
AB
  8
0
 10
84.445028304289735
 20
66.976101889877043
 30
0.0
 11
79.245028192530981
 21
66.976101945756398
 31
0.0
  0
LINE
  5
AC
  8
0
 10
79.245028192530981
 20
66.976101945756398
 30
0.0
 11
78.445028192531026
 21
66.176101945756386
 31
0.0
  0
LINE
  5
AD
  8
0
 10
78.445028192531026
 20
62.77610194575638
 30
0.0
 11
79.245028192530981
 21
61.976101945756398
 31
0.0
  0
LINE
  5
AE
  8
0
 10
84.445028192531026
 20
60.47610194575639
 30
0.0
 11
84.445028192531026
 21
62.539610272652681
 31
0.0
  0
LINE
  5
AF
  8
0
 10
84.445028192531026
 20
62.539610272652681
 30
0.0
 11
88.445028192531026
 21
62.539610272652681
 31
0.0
  0
LINE
  5
B0
  8
0
 10
88.445028192531026
 20
62.539610272652681
 30
0.0
 11
88.445028192531026
 21
66.412593618860114
 31
0.0
  0
LINE
  5
B1
  8
0
 10
88.445028192531026
 20
66.412593618860114
 30
0.0
 11
84.445028192531026
 21
66.412593618860114
 31
0.0
  0
LINE
  5
B2
  8
0
 10
84.445028192531026
 20
66.412593618860114
 30
0.0
 11
84.445028192531026
 21
68.476101945756398
 31
0.0
  0
LINE
  5
B3
  8
0
 10
89.445028192531026
 20
60.47610194575639
 30
0.0
 11
89.445028192531026
 21
68.476101945756398
 31
0.0
  0
LINE
  5
B4
  8
0
 10
84.445028192531026
 20
62.539610272652681
 30
0.0
 11
84.445028192531026
 21
66.412593618860114
 31
0.0
  0
LINE
  5
B5
  8
0
 10
79.245028192530981
 20
61.976101945756398
 30
0.0
 11
79.245028192530981
 21
66.976101945756398
 31
0.0
  0
LINE
  5
B6
  8
0
 10
78.445028192531026
 20
62.77610194575638
 30
0.0
 11
78.445028192531026
 21
66.176101945756386
 31
0.0
  0
ARC
  5
B7
  8
0
 10
126.7655362682198
 20
61.976101945756447
 30
0.0
 40
2.5000000000000062
 50
270.0
 51
351.78678929826202
  0
LINE
  5
B8
  8
0
 10
126.7655362682198
 20
59.476101945756447
 30
0.0
 11
101.4450282968391
 21
59.476102057515106
 31
0.0
  0
LINE
  5
B9
  8
0
 10
101.4450282968391
 20
59.476102057515106
 30
0.0
 11
89.913839049453415
 21
60.19680126719873
 31
0.0
  0
ARC
  5
BA
  8
0
 10
89.945028192531026
 20
60.695827556440179
 30
0.0
 40
0.5
 50
180.0
 51
266.42366562500348
  0
ARC
  5
BB
  8
0
 10
89.945028192531026
 20
68.256376335072616
 30
0.0
 40
0.5
 50
93.57633437499652
 51
180.0
  0
LINE
  5
BC
  8
0
 10
89.913839049453415
 20
68.755402624314058
 30
0.0
 11
101.4450282968391
 21
69.476101833997689
 31
0.0
  0
LINE
  5
BD
  8
0
 10
101.4450282968391
 20
69.476101833997689
 30
0.0
 11
126.7655362682198
 21
69.476101945756454
 31
0.0
  0
ARC
  5
BE
  8
0
 10
126.76553626821971
 20
66.976101945756454
 30
0.0
 40
2.500000000000004
 50
8.2132107017380331
 51
90.0
  0
ARC
  5
BF
  8
0
 10
109.445028192531
 20
64.476101945756426
 30
0.0
 40
20.000000000000021
 50
351.78678929826282
 51
8.2132107017388432
  0
LINE
  5
C0
  8
3
 10
78.845028192531004
 20
62.37610194575641
 30
0.0
 11
83.645028192531015
 21
62.37610194575641
 31
0.0
  0
LINE
  5
C1
  8
0
 10
83.645028192531015
 20
62.37610194575641
 30
0.0
 11
83.645028192531015
 21
61.976101945756398
 31
0.0
  0
LINE
  5
C2
  8
3
 10
78.845028192531004
 20
66.576101945756392
 30
0.0
 11
83.645028192531015
 21
66.576101945756392
 31
0.0
  0
LINE
  5
C3
  8
0
 10
83.645028192531015
 20
66.576101945756392
 30
0.0
 11
83.645028192531015
 21
66.976101945756398
 31
0.0
  0
LINE
  5
C4
  8
0
 10
83.645028192531015
 20
61.976101945756398
 30
0.0
 11
83.645028192531015
 21
66.976101945756398
 31
0.0
  0
LINE
  5
C5
  8
0
 10
83.645028192531015
 20
61.976101945756398
 30
0.0
 11
83.645028192531015
 21
61.976101945756398
 31
0.0
  0
LINE
  5
C6
  8
1
 10
75.945028192531026
 20
64.476101945756398
 30
0.0
 11
131.945028192531
 21
64.476101945756398
 31
0.0
  0
LINE
  5
C7
  8
1
 10
44.37558624599842
 20
71.976101945756426
 30
0.0
 11
44.37558624599842
 21
56.976101945756419
 31
0.0
  0
LINE
  5
C8
  8
1
 10
51.87558624599842
 20
64.476101945756426
 30
0.0
 11
36.87558624599842
 21
64.476101945756426
 31
0.0
  0
LINE
  5
C9
  8
1
 10
159.90162025267659
 20
71.976101945756398
 30
0.0
 11
159.90162025267659
 21
56.976101945756398
 31
0.0
  0
LINE
  5
CA
  8
1
 10
167.40162025267659
 20
64.476101945756398
 30
0.0
 11
152.40162025267659
 21
64.476101945756398
 31
0.0
  0
LINE
  5
CB
  8
0
 10
129.23989456474669
 20
61.618959088613529
 30
0.0
 11
129.23989456474669
 21
67.333244802899259
 31
0.0
  0
LINE
  5
CC
  8
0
 10
126.7655362682198
 20
59.476101945756419
 30
0.0
 11
126.7655362682198
 21
69.476101945756426
 31
0.0
  0
LINE
  5
CD
  8
0
 10
89.913839049453415
 20
60.19680126719873
 30
0.0
 11
89.913839049453415
 21
68.75540262431403
 31
0.0
  0
LINE
  5
CE
  8
0
 10
89.445028192531026
 20
60.476101945756369
 30
0.0
 11
89.445028192531026
 21
68.476101945756398
 31
0.0
  0
LINE
  5
CF
  8
0
 10
101.445028192531
 20
59.476101945756398
 30
0.0
 11
101.445028192531
 21
69.476101945756398
 31
0.0
  0
TEXT
  5
162
  8
0
 62
     3
 10
0.0
 20
0.0
 30
0.0
 40
10.0
  1
SRG10
  7
STANDARD1
  0
ENDSEC
  0
EOF
