  0
SECTION
  2
HEADER
  9
$ACADVER
  1
AC1009
  9
$INSBASE
 10
0.0
 20
0.0
 30
0.0
  9
$EXTMIN
 10
0.0
 20
-2.960436562073669
 30
0.0
  9
$EXTMAX
 10
229.3785101070749
 20
128.49540130730821
 30
0.0
  9
$LIMMIN
 10
0.0
 20
0.0
  9
$LIMMAX
 10
385.0
 20
270.0
  9
$ORTHOMODE
 70
     1
  9
$REGENMODE
 70
     1
  9
$FILLMODE
 70
     1
  9
$QTEXTMODE
 70
     0
  9
$MIRRTEXT
 70
     0
  9
$DRAGMODE
 70
     2
  9
$LTSCALE
 40
10.0
  9
$OSMODE
 70
    55
  9
$ATTMODE
 70
     1
  9
$TEXTSIZE
 40
4.0
  9
$TRACEWID
 40
0.05
  9
$TEXTSTYLE
  7
STANDARD
  9
$CLAYER
  8
0
  9
$CELTYPE
  6
BYLAYER
  9
$CECOLOR
 62
   256
  9
$DIMSCALE
 40
1.0
  9
$DIMASZ
 40
3.0
  9
$DIMEXO
 40
1.0
  9
$DIMDLI
 40
6.0
  9
$DIMRND
 40
0.0
  9
$DIMDLE
 40
0.0
  9
$DIMEXE
 40
1.0
  9
$DIMTP
 40
495.0
  9
$DIMTM
 40
0.0
  9
$DIMTXT
 40
3.0
  9
$DIMCEN
 40
0.0
  9
$DIMTSZ
 40
0.0
  9
$DIMTOL
 70
     0
  9
$DIMLIM
 70
     0
  9
$DIMTIH
 70
     0
  9
$DIMTOH
 70
     0
  9
$DIMSE1
 70
     0
  9
$DIMSE2
 70
     0
  9
$DIMTAD
 70
     1
  9
$DIMZIN
 70
     0
  9
$DIMBLK
  1

  9
$DIMASO
 70
     0
  9
$DIMSHO
 70
     0
  9
$DIMPOST
  1

  9
$DIMAPOST
  1

  9
$DIMALT
 70
     0
  9
$DIMALTD
 70
     2
  9
$DIMALTF
 40
25.399999999999999
  9
$DIMLFAC
 40
1.0
  9
$DIMTOFL
 70
     1
  9
$DIMTVP
 40
0.0
  9
$DIMTIX
 70
     1
  9
$DIMSOXD
 70
     0
  9
$DIMSAH
 70
     0
  9
$DIMBLK1
  1

  9
$DIMBLK2
  1

  9
$DIMSTYLE
  2
STANDARD
  9
$DIMCLRD
 70
     0
  9
$DIMCLRE
 70
     0
  9
$DIMCLRT
 70
     0
  9
$DIMTFAC
 40
1.0
  9
$DIMGAP
 40
0.09
  9
$LUNITS
 70
     2
  9
$LUPREC
 70
     4
  9
$SKETCHINC
 40
0.1
  9
$FILLETRAD
 40
0.8
  9
$AUNITS
 70
     0
  9
$AUPREC
 70
     0
  9
$MENU
  1
E:\r13\win\SUPPORT\ACAD
  9
$ELEVATION
 40
0.0
  9
$PELEVATION
 40
0.0
  9
$THICKNESS
 40
0.0
  9
$LIMCHECK
 70
     0
  9
$BLIPMODE
 70
     0
  9
$CHAMFERA
 40
0.5
  9
$CHAMFERB
 40
0.5
  9
$SKPOLY
 70
     0
  9
$TDCREATE
 40
2449920.4263670142
  9
$TDUPDATE
 40
2456598.5013615279
  9
$TDINDWG
 40
0.0486838773
  9
$TDUSRTIMER
 40
0.0486838773
  9
$USRTIMER
 70
     1
  9
$ANGBASE
 50
0.0
  9
$ANGDIR
 70
     0
  9
$PDMODE
 70
     0
  9
$PDSIZE
 40
0.0
  9
$PLINEWID
 40
0.0
  9
$COORDS
 70
     1
  9
$SPLFRAME
 70
     0
  9
$SPLINETYPE
 70
     6
  9
$SPLINESEGS
 70
     8
  9
$ATTDIA
 70
     0
  9
$ATTREQ
 70
     1
  9
$HANDLING
 70
     1
  9
$HANDSEED
  5
950
  9
$SURFTAB1
 70
     6
  9
$SURFTAB2
 70
     6
  9
$SURFTYPE
 70
     6
  9
$SURFU
 70
     6
  9
$SURFV
 70
     6
  9
$UCSNAME
  2

  9
$UCSORG
 10
0.0
 20
0.0
 30
0.0
  9
$UCSXDIR
 10
1.0
 20
0.0
 30
0.0
  9
$UCSYDIR
 10
0.0
 20
1.0
 30
0.0
  9
$PUCSNAME
  2

  9
$PUCSORG
 10
0.0
 20
0.0
 30
0.0
  9
$PUCSXDIR
 10
1.0
 20
0.0
 30
0.0
  9
$PUCSYDIR
 10
0.0
 20
1.0
 30
0.0
  9
$USERI1
 70
     3
  9
$USERI2
 70
     1
  9
$USERI3
 70
     0
  9
$USERI4
 70
     0
  9
$USERI5
 70
     0
  9
$USERR1
 40
1.0
  9
$USERR2
 40
3.0
  9
$USERR3
 40
3.0
  9
$USERR4
 40
3.0
  9
$USERR5
 40
10.0
  9
$WORLDVIEW
 70
     1
  9
$SHADEDGE
 70
     3
  9
$SHADEDIF
 70
    70
  9
$TILEMODE
 70
     1
  9
$MAXACTVP
 70
    16
  9
$PLIMCHECK
 70
     0
  9
$PEXTMIN
 10
1.0000000000000000E+020
 20
1.0000000000000000E+020
 30
1.0000000000000000E+020
  9
$PEXTMAX
 10
-1.0000000000000000E+020
 20
-1.0000000000000000E+020
 30
-1.0000000000000000E+020
  9
$PLIMMIN
 10
0.0
 20
0.0
  9
$PLIMMAX
 10
12.0
 20
9.0
  9
$UNITMODE
 70
     0
  9
$VISRETAIN
 70
     0
  9
$PLINEGEN
 70
     0
  9
$PSLTSCALE
 70
     0
  0
ENDSEC
  0
SECTION
  2
TABLES
  0
TABLE
  2
VPORT
 70
     1
  0
VPORT
  2
*ACTIVE
 70
     0
 10
0.0
 20
0.0
 11
1.0
 21
1.0
 12
192.49412581440311
 22
174.91677254346851
 13
0.0
 23
0.0
 14
10.0
 24
10.0
 15
10.0
 25
10.0
 16
0.0
 26
0.0
 36
1.0
 17
0.0
 27
0.0
 37
0.0
 40
358.92027899574339
 41
1.7807262569832401
 42
50.0
 43
0.0
 44
0.0
 50
0.0
 51
0.0
 71
     0
 72
   100
 73
     1
 74
     0
 75
     0
 76
     0
 77
     0
 78
     0
  0
ENDTAB
  0
TABLE
  2
LTYPE
 70
     5
  0
LTYPE
  2
CONTINUOUS
 70
     0
  3
Solid Line
 72
    65
 73
     0
 40
0.0
  0
LTYPE
  2
CENTER
 70
     0
  3
____ _ ____ _ ____ _ ____ _ ____ _ ____ _ ____
 72
    65
 73
     4
 40
2.0
 49
1.25
 49
-0.25
 49
0.25
 49
-0.25
  0
LTYPE
  2
HIDDEN
 70
     0
  3
_ _ _ _ _ _ _ _ _ _ _ _ _ _ _ _ _ _ _ _ _ _ _
 72
    65
 73
     2
 40
0.375
 49
0.25
 49
-0.125
  0
LTYPE
  2
PHANTOM
 70
     0
  3
_____ _ _ _____ _ _ _____ _ _ _____ _ _ ____
 72
    65
 73
     6
 40
2.5
 49
1.25
 49
-0.25
 49
0.25
 49
-0.25
 49
0.25
 49
-0.25
  0
LTYPE
  2
PHANTOM2
 70
     0
  3
___ _ _ ___ _ _ ___ _ _ ___ _ _
 72
    65
 73
     6
 40
1.25
 49
0.625
 49
-0.125
 49
0.125
 49
-0.125
 49
0.125
 49
-0.125
  0
ENDTAB
  0
TABLE
  2
LAYER
 70
     4
  0
LAYER
  2
0
 70
     0
 62
     7
  6
CONTINUOUS
  0
LAYER
  2
1
 70
     0
 62
     1
  6
CENTER
  0
LAYER
  2
2
 70
     0
 62
     2
  6
HIDDEN
  0
LAYER
  2
5
 70
     0
 62
     3
  6
PHANTOM
  0
ENDTAB
  0
TABLE
  2
STYLE
 70
     2
  0
STYLE
  2
STANDARD
 70
     0
 40
0.0
 41
1.0
 50
0.0
 71
     0
 42
4.0
  3
simplex
  4
bigfont
  0
STYLE
  2
STANDARD1
 70
     0
 40
0.0
 41
1.0
 50
0.0
 71
     0
 42
3.0
  3
txt
  4

  0
ENDTAB
  0
TABLE
  2
VIEW
 70
     0
  0
ENDTAB
  0
TABLE
  2
UCS
 70
     0
  0
ENDTAB
  0
TABLE
  2
APPID
 70
     4
  0
APPID
  2
ACAD
 70
     0
  0
APPID
  2
ACAD_EXEMPT_FROM_CAD_STANDARDS
 70
     0
  0
APPID
  2
ACAD_MLEADERVER
 70
     0
  0
APPID
  2
ACAD_NAV_VCDISPLAY
 70
     0
  0
ENDTAB
  0
TABLE
  2
DIMSTYLE
 70
     1
  0
DIMSTYLE
  2
STANDARD
 70
     0
  3

  4

  5

  6

  7

 40
1.0
 41
0.18
 42
0.0625
 43
0.38
 44
0.18
 45
0.0
 46
0.0
 47
0.0
 48
0.0
140
0.18
141
0.09
142
0.0
143
25.399999999999999
144
1.0
145
0.0
146
1.0
147
0.09
 71
     0
 72
     0
 73
     1
 74
     1
 75
     0
 76
     0
 77
     0
 78
     0
170
     0
171
     2
172
     0
173
     0
174
     0
175
     0
176
     0
177
     0
178
     0
  0
ENDTAB
  0
ENDSEC
  0
SECTION
  2
BLOCKS
  0
BLOCK
  8
0
  2
$MODEL_SPACE
 70
     0
 10
0.0
 20
0.0
 30
0.0
  3
$MODEL_SPACE
  1

  0
ENDBLK
  5
7AE
  8
0
  0
BLOCK
 67
     1
  8
0
  2
$PAPER_SPACE
 70
     0
 10
0.0
 20
0.0
 30
0.0
  3
$PAPER_SPACE
  1

  0
ENDBLK
  5
7AC
 67
     1
  8
0
  0
ENDSEC
  0
SECTION
  2
ENTITIES
  0
LINE
  5
70A
  8
1
 10
211.87851010707541
 20
23.495399430163339
 30
0.0
 11
211.8785101070755
 21
128.4953994301633
 31
0.0
  0
LINE
  5
70B
  8
0
 10
204.3785101070749
 20
105.7953994301633
 30
0.0
 11
204.3785101070749
 21
46.19539106170518
 31
0.0
  0
LINE
  5
70C
  8
0
 10
219.3785101070749
 20
46.195406373017128
 30
0.0
 11
219.3785101070749
 21
105.7954070595578
 31
0.0
  0
LINE
  5
70D
  8
0
 10
216.2051758410808
 20
118.4953994301633
 30
0.0
 11
207.55184437307011
 21
118.4953994301633
 31
0.0
  0
ARC
  5
70E
  8
0
 10
192.3785101070759
 20
105.7953994301633
 30
0.0
 40
27.0
 50
0.0
 51
28.058340761030681
  0
ARC
  5
70F
  8
0
 10
231.3785101070749
 20
105.7953994301633
 30
0.0
 40
27.0
 50
151.94165923896929
 51
180.0
  0
ARC
  5
710
  8
0
 10
231.3785101070749
 20
46.19539943016332
 30
0.0
 40
27.0
 50
180.0
 51
208.05834076103071
  0
ARC
  5
711
  8
0
 10
192.3785101070759
 20
46.19539943016332
 30
0.0
 40
27.0
 50
331.94165923896941
 51
0.0
  0
LINE
  5
712
  8
0
 10
216.2051758410808
 20
33.495399430163332
 30
0.0
 11
207.55184437307011
 21
33.495399430163353
 31
0.0
  0
LINE
  5
713
  8
1
 10
197.89951620224369
 20
113.1253994301633
 30
0.0
 11
225.85750401190711
 21
113.1253994301633
 31
0.0
  0
LINE
  5
714
  8
1
 10
197.89951620224369
 20
38.865399430163343
 30
0.0
 11
225.85750401190711
 21
38.865399430163343
 31
0.0
  0
ARC
  5
715
  8
0
 10
74.226263593245989
 20
75.995397182406293
 30
0.0
 40
42.5
 50
347.5929399219778
 51
352.4070600780222
  0
CIRCLE
  5
716
  8
5
 10
74.226263593245989
 20
75.995397182406293
 30
0.0
 40
37.130000000000003
  0
ARC
  5
717
  8
0
 10
74.226263593245989
 20
113.1253971824063
 30
0.0
 40
7.9839999999999991
 50
213.68247504961781
 51
326.31752495038211
  0
ARC
  5
718
  8
0
 10
95.117263593245966
 20
105.5213971824063
 30
0.0
 40
13.617000000000001
 50
126.2156136829344
 51
146.31752495038211
  0
LINE
  5
719
  8
0
 10
80.869939951877058
 20
108.6975511550735
 30
0.0
 11
83.786233911948486
 21
113.07324830392309
 31
0.0
  0
ARC
  5
71A
  8
0
 10
77.20177609565215
 20
112.04210136389869
 30
0.0
 40
13.617000000000001
 50
353.68247504961801
 51
13.7843863170657
  0
LINE
  5
71B
  8
0
 10
90.157451620527638
 20
105.3171733572846
 30
0.0
 11
90.736084748934729
 21
110.54370946666999
 31
0.0
  0
ARC
  5
71C
  8
0
 10
98.092967540907182
 20
104.4386273554138
 30
0.0
 40
7.9839999999999991
 50
173.68247504961721
 51
286.3175249503816
  0
ARC
  5
71D
  8
0
 10
50.359559645584767
 20
104.4386273554139
 30
0.0
 40
7.9839999999999991
 50
253.68247504961781
 51
6.3175249503821798
  0
LINE
  5
71E
  8
0
 10
67.582587234614891
 20
108.6975511550735
 30
0.0
 11
64.666293274543477
 21
113.07324830392309
 31
0.0
  0
ARC
  5
71F
  8
0
 10
53.335263593245969
 20
105.5213971824062
 30
0.0
 40
13.617000000000001
 50
33.682475049617999
 51
53.78438631706571
  0
ARC
  5
720
  8
0
 10
71.250751090839785
 20
112.04210136389869
 30
0.0
 40
13.617000000000001
 50
166.2156136829343
 51
186.31752495038211
  0
LINE
  5
721
  8
0
 10
58.295075565964311
 20
105.3171733572846
 30
0.0
 11
57.716442437557198
 21
110.54370946666999
 31
0.0
  0
ARC
  5
722
  8
0
 10
50.359559645584952
 20
104.4386273554139
 30
0.0
 40
7.9839999999999991
 50
253.6824750496173
 51
6.3175249503816211
  0
ARC
  5
723
  8
0
 10
37.660351723902721
 20
82.44295401917941
 30
0.0
 40
7.9839999999999991
 50
293.68247504961778
 51
46.317524950382108
  0
LINE
  5
724
  8
0
 10
48.116372853143801
 20
96.776227665093785
 30
0.0
 11
43.069718159508398
 21
98.253648527003975
 31
0.0
  0
ARC
  5
725
  8
0
 10
39.243882168442703
 20
85.185149455975704
 30
0.0
 40
13.617000000000001
 50
73.68247504961802
 51
93.784386317065696
  0
ARC
  5
726
  8
0
 10
48.776513957447392
 20
101.6961520443781
 30
0.0
 40
13.617000000000001
 50
206.21561368293439
 51
226.31752495038211
  0
LINE
  5
727
  8
0
 10
43.174591113449473
 20
88.216810612027132
 30
0.0
 11
39.371779768136449
 21
91.848631349888251
 31
0.0
  0
ARC
  5
728
  8
0
 10
37.660351723902863
 20
82.442954019179524
 30
0.0
 40
7.9839999999999991
 50
293.68247504961732
 51
46.317524950381546
  0
ARC
  5
729
  8
0
 10
42.070740350729771
 20
57.430397182406317
 30
0.0
 40
7.9839999999999991
 50
333.68247504961778
 51
86.317524950382136
  0
LINE
  5
72A
  8
0
 10
40.867266528079199
 20
75.131322639059562
 30
0.0
 11
36.051636919351211
 21
73.019165573038663
 31
0.0
  0
ARC
  5
72B
  8
0
 10
41.521145798167723
 20
60.548914508022051
 30
0.0
 40
13.617000000000001
 50
113.68247504961791
 51
133.7843863170657
  0
ARC
  5
72C
  8
0
 10
38.21049752110666
 20
79.324533892867024
 30
0.0
 40
13.617000000000001
 50
246.21561368293439
 51
266.31752495038211
  0
LINE
  5
72D
  8
0
 10
42.583529315130441
 20
65.397912697169318
 30
0.0
 11
37.335917444923837
 21
65.735648777069486
 31
0.0
  0
ARC
  5
72E
  8
0
 10
42.07074035072992
 20
57.430397182406459
 30
0.0
 40
7.9839999999999991
 50
333.68247504961732
 51
86.317524950381582
  0
ARC
  5
72F
  8
0
 10
61.527055671563971
 20
41.10461017262557
 30
0.0
 40
7.9839999999999991
 50
13.68247504961783
 51
126.31752495038209
  0
LINE
  5
730
  8
0
 10
49.227205673761539
 20
53.890727694976107
 30
0.0
 11
46.895887763626362
 21
49.177294466226328
 31
0.0
  0
ARC
  5
731
  8
0
 10
59.101497521106751
 20
43.140260471945652
 30
0.0
 40
13.617000000000001
 50
153.68247504961801
 51
173.7843863170657
  0
ARC
  5
732
  8
0
 10
44.496658300573948
 20
55.395175675298162
 30
0.0
 40
13.617000000000001
 50
286.21561368293442
 51
306.31752495038211
  0
LINE
  5
733
  8
0
 10
56.798454555360877
 20
47.53769555087473
 30
0.0
 11
52.561458075039972
 21
44.423316507510208
 31
0.0
  0
ARC
  5
734
  8
0
 10
61.527055671563922
 20
41.10461017262574
 30
0.0
 40
7.9839999999999991
 50
13.68247504961724
 51
126.3175249503815
  0
ARC
  5
735
  8
0
 10
86.925471514928105
 20
41.104610172625598
 30
0.0
 40
7.9839999999999991
 50
53.682475049617793
 51
166.31752495038211
  0
LINE
  5
736
  8
0
 10
69.284481853551696
 20
42.99315327009802
 30
0.0
 11
70.528325201874054
 21
37.883911670326682
 31
0.0
  0
ARC
  5
737
  8
0
 10
83.75889538225077
 20
41.104890046865108
 30
0.0
 40
13.617000000000001
 50
193.68247504961801
 51
213.7843863170657
  0
ARC
  5
738
  8
0
 10
64.693631804241321
 20
41.10489004686508
 30
0.0
 40
13.617000000000001
 50
326.21561368293442
 51
346.31752495038199
  0
LINE
  5
739
  8
0
 10
79.168045332940324
 20
42.99315327009802
 30
0.0
 11
77.924201984617952
 21
37.883911670326682
 31
0.0
  0
ARC
  5
73A
  8
0
 10
86.925471514927892
 20
41.10461017262562
 30
0.0
 40
7.9839999999999991
 50
53.682475049617253
 51
166.31752495038151
  0
ARC
  5
73B
  8
0
 10
106.3817868357622
 20
57.430397182406303
 30
0.0
 40
7.9839999999999991
 50
93.682475049617793
 51
206.31752495038211
  0
LINE
  5
73C
  8
0
 10
91.654072631131129
 20
47.53769555087473
 30
0.0
 11
95.891069111451984
 21
44.423316507510208
 31
0.0
  0
ARC
  5
73D
  8
0
 10
103.95586888591799
 20
55.395175675298127
 30
0.0
 40
13.617000000000001
 50
233.68247504961801
 51
253.7843863170657
  0
ARC
  5
73E
  8
0
 10
89.351029665385269
 20
43.140260471945588
 30
0.0
 40
13.617000000000001
 50
6.2156136829343751
 51
26.317524950382079
  0
LINE
  5
73F
  8
0
 10
99.225321512730446
 20
53.890727694976079
 30
0.0
 11
101.5566394228656
 21
49.177294466226328
 31
0.0
  0
ARC
  5
740
  8
0
 10
106.381786835762
 20
57.430397182406352
 30
0.0
 40
7.9839999999999991
 50
93.682475049617238
 51
206.3175249503816
  0
ARC
  5
741
  8
0
 10
110.7921754625893
 20
82.442954019179467
 30
0.0
 40
7.9839999999999991
 50
133.68247504961781
 51
246.31752495038211
  0
LINE
  5
742
  8
0
 10
105.8689978713615
 20
65.397912697169318
 30
0.0
 11
111.1166097415681
 21
65.735648777069486
 31
0.0
  0
ARC
  5
743
  8
0
 10
110.2420296653853
 20
79.324533892867066
 30
0.0
 40
13.617000000000001
 50
273.68247504961801
 51
293.7843863170657
  0
ARC
  5
744
  8
0
 10
106.9313813883242
 20
60.548914508022108
 30
0.0
 40
13.617000000000001
 50
46.215613682934382
 51
66.317524950382079
  0
LINE
  5
745
  8
0
 10
107.58526065841281
 20
75.131322639059533
 30
0.0
 11
112.4008902671408
 21
73.019165573038663
 31
0.0
  0
ARC
  5
746
  8
0
 10
110.7921754625891
 20
82.442954019179325
 30
0.0
 40
7.9839999999999991
 50
133.68247504961721
 51
246.3175249503816
  0
LINE
  5
747
  8
0
 10
105.2779360730424
 20
88.216810612027132
 30
0.0
 11
109.0807474183555
 21
91.848631349888251
 31
0.0
  0
ARC
  5
748
  8
0
 10
99.676013229044599
 20
101.6961520443781
 30
0.0
 40
13.617000000000001
 50
313.68247504961801
 51
333.7843863170657
  0
ARC
  5
749
  8
0
 10
109.2086450180493
 20
85.185149455975761
 30
0.0
 40
13.617000000000001
 50
86.215613682934389
 51
106.31752495038209
  0
LINE
  5
74A
  8
0
 10
100.3361543333482
 20
96.776227665093813
 30
0.0
 11
105.38280902698359
 21
98.253648527004003
 31
0.0
  0
ARC
  5
74B
  8
0
 10
74.226263593245989
 20
75.995397182406293
 30
0.0
 40
42.5
 50
27.592939921977781
 51
32.407060078022248
  0
ARC
  5
74C
  8
0
 10
74.226263593245989
 20
75.995397182406293
 30
0.0
 40
42.5
 50
67.592939921977788
 51
72.407060078022283
  0
ARC
  5
74D
  8
0
 10
74.226263593245989
 20
75.995397182406293
 30
0.0
 40
42.5
 50
107.5929399219778
 51
112.4070600780223
  0
ARC
  5
74E
  8
0
 10
74.226263593245989
 20
75.995397182406293
 30
0.0
 40
42.5
 50
147.5929399219778
 51
152.4070600780222
  0
ARC
  5
74F
  8
0
 10
74.226263593245989
 20
75.995397182406293
 30
0.0
 40
42.5
 50
187.5929399219778
 51
192.4070600780222
  0
ARC
  5
750
  8
0
 10
74.226263593245989
 20
75.995397182406293
 30
0.0
 40
42.5
 50
227.59293992197789
 51
232.4070600780222
  0
ARC
  5
751
  8
0
 10
74.226263593245989
 20
75.995397182406293
 30
0.0
 40
42.5
 50
267.59293992197792
 51
272.40706007802231
  0
ARC
  5
752
  8
0
 10
74.226263593245989
 20
75.995397182406293
 30
0.0
 40
42.5
 50
307.5929399219778
 51
312.4070600780222
  0
CIRCLE
  5
753
  8
0
 10
74.226263593245989
 20
75.995397182406293
 30
0.0
 40
7.5
  0
CIRCLE
  5
754
  8
0
 10
74.226263593245989
 20
75.995397182406293
 30
0.0
 40
17.5
  0
LINE
  5
757
  8
1
 10
229.3785101070749
 20
75.995399430163346
 30
0.0
 11
194.3785101070749
 21
75.995399430163303
 31
0.0
  0
LINE
  5
758
  8
2
 10
206.3785101070749
 20
59.495399430162941
 30
0.0
 11
206.3785101070749
 21
92.495399430163673
 31
0.0
  0
LINE
  5
759
  8
2
 10
217.3785101070749
 20
92.495399430163673
 30
0.0
 11
217.3785101070749
 21
59.495399430162941
 31
0.0
  0
ARC
  5
75A
  8
2
 10
216.3785101070749
 20
67.495399430162536
 30
0.0
 40
1.0
 50
0.0
 51
90.000000000000028
  0
ARC
  5
75B
  8
2
 10
216.3785101070749
 20
59.495399430162941
 30
0.0
 40
1.0
 50
270.0
 51
0.0
  0
LINE
  5
75C
  8
1
 10
216.40870828852661
 20
63.495399430162713
 30
0.0
 11
207.34831192562319
 21
63.495399430162713
 31
0.0
  0
LINE
  5
75D
  8
2
 10
207.3785101070749
 20
68.495399430162564
 30
0.0
 11
216.3785101070749
 21
68.495399430162564
 31
0.0
  0
ARC
  5
75E
  8
2
 10
207.3785101070749
 20
67.495399430162536
 30
0.0
 40
1.0
 50
90.000000000000028
 51
179.99999999999989
  0
ARC
  5
75F
  8
2
 10
207.3785101070749
 20
59.495399430162941
 30
0.0
 40
1.0
 50
180.00000000000011
 51
270.0
  0
ARC
  5
760
  8
2
 10
216.3785101070749
 20
84.495399430164071
 30
0.0
 40
1.0
 50
270.0
 51
0.0
  0
ARC
  5
761
  8
2
 10
207.3785101070749
 20
84.495399430164071
 30
0.0
 40
1.0
 50
180.00000000000011
 51
270.0
  0
LINE
  5
762
  8
2
 10
207.3785101070749
 20
83.495399430164127
 30
0.0
 11
216.3785101070749
 21
83.495399430164127
 31
0.0
  0
LINE
  5
763
  8
1
 10
216.40870828852661
 20
88.4953994301639
 30
0.0
 11
207.34831192562319
 21
88.4953994301639
 31
0.0
  0
ARC
  5
764
  8
2
 10
207.3785101070749
 20
92.495399430163673
 30
0.0
 40
1.0
 50
90.0
 51
179.99999999999989
  0
ARC
  5
765
  8
2
 10
216.3785101070749
 20
92.495399430163673
 30
0.0
 40
1.0
 50
0.0
 51
90.0
  0
LINE
  5
766
  8
2
 10
204.3785101070749
 20
93.495399430163332
 30
0.0
 11
219.3785101070749
 21
93.495399430163374
 31
0.0
  0
LINE
  5
767
  8
2
 10
204.3785101070749
 20
58.495399430163303
 30
0.0
 11
219.3785101070749
 21
58.495399430163332
 31
0.0
  0
LINE
  5
768
  8
1
 10
74.226263593245989
 20
128.49540130730821
 30
0.0
 11
74.226263593245974
 21
23.495393057504341
 31
0.0
  0
LINE
  5
769
  8
1
 10
126.72626771814789
 20
75.995397182406293
 30
0.0
 11
21.72625946834404
 21
75.995397182406293
 31
0.0
  0
TEXT
  5
8EE
  8
0
 62
     3
 10
0.0
 20
0.0
 30
0.0
 40
10.0
  1
SIS809
  7
STANDARD1
  0
ENDSEC
  0
EOF
