  0
SECTION
  2
HEADER
  9
$ACADVER
  1
AC1009
  9
$INSBASE
 10
0.0
 20
0.0
 30
0.0
  9
$EXTMIN
 10
0.0
 20
-2.960436562073669
 30
0.0
  9
$EXTMAX
 10
176.6813037428966
 20
99.869093115340604
 30
0.0
  9
$LIMMIN
 10
0.0
 20
0.0
  9
$LIMMAX
 10
385.0
 20
270.0
  9
$ORTHOMODE
 70
     1
  9
$REGENMODE
 70
     1
  9
$FILLMODE
 70
     1
  9
$QTEXTMODE
 70
     0
  9
$MIRRTEXT
 70
     0
  9
$DRAGMODE
 70
     2
  9
$LTSCALE
 40
10.0
  9
$OSMODE
 70
    55
  9
$ATTMODE
 70
     1
  9
$TEXTSIZE
 40
4.0
  9
$TRACEWID
 40
0.05
  9
$TEXTSTYLE
  7
STANDARD
  9
$CLAYER
  8
0
  9
$CELTYPE
  6
BYLAYER
  9
$CECOLOR
 62
   256
  9
$DIMSCALE
 40
1.0
  9
$DIMASZ
 40
3.0
  9
$DIMEXO
 40
1.0
  9
$DIMDLI
 40
6.0
  9
$DIMRND
 40
0.0
  9
$DIMDLE
 40
0.0
  9
$DIMEXE
 40
1.0
  9
$DIMTP
 40
495.0
  9
$DIMTM
 40
0.0
  9
$DIMTXT
 40
3.0
  9
$DIMCEN
 40
0.0
  9
$DIMTSZ
 40
0.0
  9
$DIMTOL
 70
     0
  9
$DIMLIM
 70
     0
  9
$DIMTIH
 70
     0
  9
$DIMTOH
 70
     0
  9
$DIMSE1
 70
     0
  9
$DIMSE2
 70
     0
  9
$DIMTAD
 70
     1
  9
$DIMZIN
 70
     0
  9
$DIMBLK
  1

  9
$DIMASO
 70
     0
  9
$DIMSHO
 70
     0
  9
$DIMPOST
  1

  9
$DIMAPOST
  1

  9
$DIMALT
 70
     0
  9
$DIMALTD
 70
     2
  9
$DIMALTF
 40
25.399999999999999
  9
$DIMLFAC
 40
1.0
  9
$DIMTOFL
 70
     1
  9
$DIMTVP
 40
0.0
  9
$DIMTIX
 70
     1
  9
$DIMSOXD
 70
     0
  9
$DIMSAH
 70
     0
  9
$DIMBLK1
  1

  9
$DIMBLK2
  1

  9
$DIMSTYLE
  2
STANDARD
  9
$DIMCLRD
 70
     0
  9
$DIMCLRE
 70
     0
  9
$DIMCLRT
 70
     0
  9
$DIMTFAC
 40
1.0
  9
$DIMGAP
 40
0.09
  9
$LUNITS
 70
     2
  9
$LUPREC
 70
     4
  9
$SKETCHINC
 40
0.1
  9
$FILLETRAD
 40
0.8
  9
$AUNITS
 70
     0
  9
$AUPREC
 70
     0
  9
$MENU
  1
E:\r13\win\SUPPORT\ACAD
  9
$ELEVATION
 40
0.0
  9
$PELEVATION
 40
0.0
  9
$THICKNESS
 40
0.0
  9
$LIMCHECK
 70
     0
  9
$BLIPMODE
 70
     0
  9
$CHAMFERA
 40
0.5
  9
$CHAMFERB
 40
0.5
  9
$SKPOLY
 70
     0
  9
$TDCREATE
 40
2449920.4263670142
  9
$TDUPDATE
 40
2456598.5004769792
  9
$TDINDWG
 40
0.0223950347
  9
$TDUSRTIMER
 40
0.0223950347
  9
$USRTIMER
 70
     1
  9
$ANGBASE
 50
0.0
  9
$ANGDIR
 70
     0
  9
$PDMODE
 70
     0
  9
$PDSIZE
 40
0.0
  9
$PLINEWID
 40
0.0
  9
$COORDS
 70
     1
  9
$SPLFRAME
 70
     0
  9
$SPLINETYPE
 70
     6
  9
$SPLINESEGS
 70
     8
  9
$ATTDIA
 70
     0
  9
$ATTREQ
 70
     1
  9
$HANDLING
 70
     1
  9
$HANDSEED
  5
393
  9
$SURFTAB1
 70
     6
  9
$SURFTAB2
 70
     6
  9
$SURFTYPE
 70
     6
  9
$SURFU
 70
     6
  9
$SURFV
 70
     6
  9
$UCSNAME
  2

  9
$UCSORG
 10
0.0
 20
0.0
 30
0.0
  9
$UCSXDIR
 10
1.0
 20
0.0
 30
0.0
  9
$UCSYDIR
 10
0.0
 20
1.0
 30
0.0
  9
$PUCSNAME
  2

  9
$PUCSORG
 10
0.0
 20
0.0
 30
0.0
  9
$PUCSXDIR
 10
1.0
 20
0.0
 30
0.0
  9
$PUCSYDIR
 10
0.0
 20
1.0
 30
0.0
  9
$USERI1
 70
     3
  9
$USERI2
 70
     1
  9
$USERI3
 70
     0
  9
$USERI4
 70
     0
  9
$USERI5
 70
     0
  9
$USERR1
 40
1.0
  9
$USERR2
 40
3.0
  9
$USERR3
 40
3.0
  9
$USERR4
 40
3.0
  9
$USERR5
 40
10.0
  9
$WORLDVIEW
 70
     1
  9
$SHADEDGE
 70
     3
  9
$SHADEDIF
 70
    70
  9
$TILEMODE
 70
     1
  9
$MAXACTVP
 70
    16
  9
$PLIMCHECK
 70
     0
  9
$PEXTMIN
 10
1.0000000000000000E+020
 20
1.0000000000000000E+020
 30
1.0000000000000000E+020
  9
$PEXTMAX
 10
-1.0000000000000000E+020
 20
-1.0000000000000000E+020
 30
-1.0000000000000000E+020
  9
$PLIMMIN
 10
0.0
 20
0.0
  9
$PLIMMAX
 10
12.0
 20
9.0
  9
$UNITMODE
 70
     0
  9
$VISRETAIN
 70
     0
  9
$PLINEGEN
 70
     0
  9
$PSLTSCALE
 70
     0
  0
ENDSEC
  0
SECTION
  2
TABLES
  0
TABLE
  2
VPORT
 70
     1
  0
VPORT
  2
*ACTIVE
 70
     0
 10
0.0
 20
0.0
 11
1.0
 21
1.0
 12
192.49412581440311
 22
174.91677254346851
 13
0.0
 23
0.0
 14
10.0
 24
10.0
 15
10.0
 25
10.0
 16
0.0
 26
0.0
 36
1.0
 17
0.0
 27
0.0
 37
0.0
 40
358.92027899574339
 41
1.7807262569832401
 42
50.0
 43
0.0
 44
0.0
 50
0.0
 51
0.0
 71
     0
 72
   100
 73
     1
 74
     0
 75
     0
 76
     0
 77
     0
 78
     0
  0
ENDTAB
  0
TABLE
  2
LTYPE
 70
     5
  0
LTYPE
  2
CONTINUOUS
 70
     0
  3
Solid Line
 72
    65
 73
     0
 40
0.0
  0
LTYPE
  2
CENTER
 70
     0
  3
____ _ ____ _ ____ _ ____ _ ____ _ ____ _ ____
 72
    65
 73
     4
 40
2.0
 49
1.25
 49
-0.25
 49
0.25
 49
-0.25
  0
LTYPE
  2
HIDDEN
 70
     0
  3
_ _ _ _ _ _ _ _ _ _ _ _ _ _ _ _ _ _ _ _ _ _ _
 72
    65
 73
     2
 40
0.375
 49
0.25
 49
-0.125
  0
LTYPE
  2
PHANTOM
 70
     0
  3
_____ _ _ _____ _ _ _____ _ _ _____ _ _ ____
 72
    65
 73
     6
 40
2.5
 49
1.25
 49
-0.25
 49
0.25
 49
-0.25
 49
0.25
 49
-0.25
  0
LTYPE
  2
PHANTOM2
 70
     0
  3
___ _ _ ___ _ _ ___ _ _ ___ _ _
 72
    65
 73
     6
 40
1.25
 49
0.625
 49
-0.125
 49
0.125
 49
-0.125
 49
0.125
 49
-0.125
  0
ENDTAB
  0
TABLE
  2
LAYER
 70
     4
  0
LAYER
  2
0
 70
     0
 62
     7
  6
CONTINUOUS
  0
LAYER
  2
1
 70
     0
 62
     1
  6
CENTER
  0
LAYER
  2
2
 70
     0
 62
     2
  6
HIDDEN
  0
LAYER
  2
5
 70
     0
 62
     3
  6
PHANTOM
  0
ENDTAB
  0
TABLE
  2
STYLE
 70
     2
  0
STYLE
  2
STANDARD
 70
     0
 40
0.0
 41
1.0
 50
0.0
 71
     0
 42
4.0
  3
simplex
  4
bigfont
  0
STYLE
  2
STANDARD1
 70
     0
 40
0.0
 41
1.0
 50
0.0
 71
     0
 42
3.0
  3
txt
  4

  0
ENDTAB
  0
TABLE
  2
VIEW
 70
     0
  0
ENDTAB
  0
TABLE
  2
UCS
 70
     0
  0
ENDTAB
  0
TABLE
  2
APPID
 70
     4
  0
APPID
  2
ACAD
 70
     0
  0
APPID
  2
ACAD_EXEMPT_FROM_CAD_STANDARDS
 70
     0
  0
APPID
  2
ACAD_MLEADERVER
 70
     0
  0
APPID
  2
ACAD_NAV_VCDISPLAY
 70
     0
  0
ENDTAB
  0
TABLE
  2
DIMSTYLE
 70
     1
  0
DIMSTYLE
  2
STANDARD
 70
     0
  3

  4

  5

  6

  7

 40
1.0
 41
0.18
 42
0.0625
 43
0.38
 44
0.18
 45
0.0
 46
0.0
 47
0.0
 48
0.0
140
0.18
141
0.09
142
0.0
143
25.399999999999999
144
1.0
145
0.0
146
1.0
147
0.09
 71
     0
 72
     0
 73
     1
 74
     1
 75
     0
 76
     0
 77
     0
 78
     0
170
     0
171
     2
172
     0
173
     0
174
     0
175
     0
176
     0
177
     0
178
     0
  0
ENDTAB
  0
ENDSEC
  0
SECTION
  2
BLOCKS
  0
BLOCK
  8
0
  2
$MODEL_SPACE
 70
     0
 10
0.0
 20
0.0
 30
0.0
  3
$MODEL_SPACE
  1

  0
ENDBLK
  5
165
  8
0
  0
BLOCK
 67
     1
  8
0
  2
$PAPER_SPACE
 70
     0
 10
0.0
 20
0.0
 30
0.0
  3
$PAPER_SPACE
  1

  0
ENDBLK
  5
163
 67
     1
  8
0
  0
ENDSEC
  0
SECTION
  2
ENTITIES
  0
LINE
  5
1D
  8
1
 10
176.6813037428966
 20
56.869093115340597
 30
0.0
 11
145.6813037428966
 21
56.869093115340597
 31
0.0
  0
CIRCLE
  5
20
  8
5
 10
60.504491172946892
 20
56.869093115340597
 30
0.0
 40
30.444999999999979
  0
CIRCLE
  5
23
  8
0
 10
60.504491172946892
 20
56.869093115340597
 30
0.0
 40
17.499999999999979
  0
CIRCLE
  5
24
  8
0
 10
60.504491172946892
 20
56.869093115340597
 30
0.0
 40
7.4999999999999849
  0
ARC
  5
25
  8
0
 10
90.624738501235186
 20
52.098514599815587
 30
0.0
 40
2.5907
 50
118.9992481295707
 51
223.0007467814593
  0
ARC
  5
26
  8
0
 10
30.38424384465938
 20
52.098514599810642
 30
0.0
 40
2.5907
 50
316.99924812957067
 51
61.000746781459341
  0
LINE
  5
27
  8
1
 10
60.504491172946913
 20
99.869093115340604
 30
0.0
 11
60.504491172946913
 21
13.869093115340601
 31
0.0
  0
ARC
  5
28
  8
0
 10
31.134946505697741
 20
49.788231090952372
 30
0.0
 40
4.1921910586649354
 50
244.75584469826561
 51
277.53452934991878
  0
ARC
  5
29
  8
0
 10
32.582004148634979
 20
45.334645605940828
 30
0.0
 40
4.1921910586649354
 50
118.46541521263779
 51
151.24415530173439
  0
ARC
  5
2A
  8
0
 10
60.504491172946892
 20
56.869093115340597
 30
0.0
 40
33.0
 50
196.7630533015998
 51
199.2369466984058
  0
ARC
  5
2B
  8
0
 10
93.596916103694696
 20
54.870187479038172
 30
0.0
 40
6.6546894500342191
 50
223.00074678144739
 51
241.5345341171024
  0
ARC
  5
2C
  8
0
 10
89.874035840196015
 20
49.788231090952301
 30
0.0
 40
4.1921910586649354
 50
262.46541521263788
 51
295.24415530173451
  0
ARC
  5
2D
  8
0
 10
60.504491172946871
 20
56.869093115340597
 30
0.0
 40
33.0
 50
268.76305330159983
 51
271.23694669840592
  0
ARC
  5
2E
  8
0
 10
46.659733090041478
 20
29.697225455647558
 30
0.0
 40
2.5907
 50
10.999248129570701
 51
115.0007467814593
  0
ARC
  5
2F
  8
0
 10
44.694502784431421
 20
31.125102979291899
 30
0.0
 40
4.1921910586649354
 50
154.46541521263779
 51
187.24415530173439
  0
ARC
  5
30
  8
0
 10
48.377297253404109
 20
26.014022556714039
 30
0.0
 40
6.6546894500342191
 50
115.0007467814474
 51
133.53453411710231
  0
ARC
  5
31
  8
0
 10
60.504491172946871
 20
56.869093115340597
 30
0.0
 40
33.0
 50
232.7630533015998
 51
235.2369466984058
  0
ARC
  5
32
  8
0
 10
40.90605669154143
 20
33.87757018083223
 30
0.0
 40
4.1921910586649354
 50
280.75584469826561
 51
313.53452934991878
  0
ARC
  5
33
  8
0
 10
48.970043663547038
 20
28.946606091028691
 30
0.0
 40
4.1921910586649354
 50
298.75584469826561
 51
331.53452934991878
  0
ARC
  5
34
  8
0
 10
53.423629148558611
 20
27.499548448091481
 30
0.0
 40
4.1921910586649354
 50
172.46541521263779
 51
205.24415530173451
  0
ARC
  5
35
  8
0
 10
60.504491172946892
 20
56.869093115340597
 30
0.0
 40
33.0
 50
250.76305330159991
 51
253.23694669840589
  0
ARC
  5
36
  8
0
 10
42.670400465977728
 20
28.92183170754554
 30
0.0
 40
6.6546894500373446
 50
352.46550080629447
 51
10.99924980643714
  0
ARC
  5
37
  8
0
 10
52.17944171513281
 20
24.77863093317524
 30
0.0
 40
6.6546894500373446
 50
10.465500806294539
 51
28.999249806437138
  0
ARC
  5
38
  8
0
 10
58.50558553664446
 20
23.776668184592811
 30
0.0
 40
6.6546894500342191
 50
133.00074678144739
 51
151.5345341171024
  0
ARC
  5
39
  8
0
 10
62.845879622899602
 20
26.748889578571561
 30
0.0
 40
4.1921910586649354
 50
190.46541521263779
 51
223.24415530173451
  0
ARC
  5
3A
  8
0
 10
55.733912657421868
 20
26.748845787052289
 30
0.0
 40
2.5907
 50
28.999248129570699
 51
133.0007467814593
  0
ARC
  5
3B
  8
0
 10
33.332623513256152
 20
43.024335032430713
 30
0.0
 40
2.5907
 50
334.99924812957079
 51
79.000746781459341
  0
ARC
  5
3C
  8
0
 10
39.436103206137041
 20
31.271686215031309
 30
0.0
 40
6.6546894500342191
 50
97.000746781447447
 51
115.5345341171024
  0
ARC
  5
3D
  8
0
 10
60.504491172946892
 20
56.869093115340597
 30
0.0
 40
33.0
 50
214.7630533015998
 51
217.23694669840589
  0
ARC
  5
3E
  8
0
 10
34.760501036898148
 20
41.059104726825183
 30
0.0
 40
4.1921910586649354
 50
262.75584469826561
 51
295.53452934991878
  0
ARC
  5
3F
  8
0
 10
37.512968238438503
 20
37.270658633935199
 30
0.0
 40
4.1921910586649354
 50
136.46541521263779
 51
169.24415530173439
  0
ARC
  5
40
  8
0
 10
29.649420614320011
 20
44.741899195797977
 30
0.0
 40
6.6546894500373446
 50
316.46550080629447
 51
334.99924980643709
  0
ARC
  5
41
  8
0
 10
38.940774905917522
 20
35.305376848307667
 30
0.0
 40
2.5907
 50
352.99924812957067
 51
97.000746781459341
  0
ARC
  5
42
  8
0
 10
34.907084272637242
 20
35.800705148530817
 30
0.0
 40
6.6546894500373446
 50
334.46550080629447
 51
352.99924980643709
  0
ARC
  5
43
  8
0
 10
32.557229765151888
 20
39.03500240837181
 30
0.0
 40
6.6546894500342191
 50
79.000746781447432
 51
97.53453411710241
  0
ARC
  5
44
  8
0
 10
27.412066242198851
 20
54.870187479038457
 30
0.0
 40
6.6546894500373446
 50
298.46550080629447
 51
316.99924980643721
  0
ARC
  5
45
  8
0
 10
76.314479561462306
 20
31.125102979291871
 30
0.0
 40
4.1921910586649354
 50
352.75584469826561
 51
25.53452934991877
  0
ARC
  5
46
  8
0
 10
74.34924925585679
 20
29.697225455649829
 30
0.0
 40
2.5907
 50
64.999248129570702
 51
169.0007467814593
  0
ARC
  5
47
  8
0
 10
62.503396809249061
 20
23.776668184592548
 30
0.0
 40
6.6546894500373446
 50
28.465500806294539
 51
46.999249806437142
  0
ARC
  5
48
  8
0
 10
68.829540630760633
 20
24.77863093317541
 30
0.0
 40
6.6546894500342191
 50
151.00074678144739
 51
169.53453411710231
  0
ARC
  5
49
  8
0
 10
58.163102722994111
 20
26.74888957857155
 30
0.0
 40
4.1921910586649354
 50
316.75584469826561
 51
349.53452934991878
  0
ARC
  5
4A
  8
0
 10
65.275069688476876
 20
26.748845787053089
 30
0.0
 40
2.5907
 50
46.999248129570702
 51
151.0007467814593
  0
ARC
  5
4B
  8
0
 10
67.585353197335124
 20
27.499548448091421
 30
0.0
 40
4.1921910586649354
 50
334.75584469826561
 51
7.5345293499187687
  0
ARC
  5
4C
  8
0
 10
60.504491172946892
 20
56.869093115340597
 30
0.0
 40
33.0
 50
286.76305330159983
 51
289.2369466984058
  0
ARC
  5
4D
  8
0
 10
72.038938682346682
 20
28.946606091028691
 30
0.0
 40
4.1921910586649354
 50
208.46541521263791
 51
241.24415530173451
  0
ARC
  5
4E
  8
0
 10
78.338581879915694
 20
28.921831707545561
 30
0.0
 40
6.6546894500342191
 50
169.00074678144739
 51
187.5345341171024
  0
ARC
  5
4F
  8
0
 10
80.102925654352305
 20
33.87757018083218
 30
0.0
 40
4.1921910586649354
 50
226.46541521263791
 51
259.24415530173439
  0
ARC
  5
50
  8
0
 10
72.631685092489519
 20
26.014022556713691
 30
0.0
 40
6.6546894500373446
 50
46.46550080629455
 51
64.999249806437149
  0
ARC
  5
51
  8
0
 10
60.504491172946892
 20
56.869093115340597
 30
0.0
 40
33.0
 50
304.76305330159983
 51
307.23694669840592
  0
ARC
  5
52
  8
0
 10
87.676358832639949
 20
43.024335032435189
 30
0.0
 40
2.5907
 50
100.9992481295707
 51
205.00074678145941
  0
ARC
  5
53
  8
0
 10
81.572879139756679
 20
31.27168621503094
 30
0.0
 40
6.6546894500373446
 50
64.465500806294543
 51
82.999249806437135
  0
ARC
  5
54
  8
0
 10
82.06820743997983
 20
35.305376848311241
 30
0.0
 40
2.5907
 50
82.999248129570717
 51
187.0007467814593
  0
ARC
  5
55
  8
0
 10
86.101898073256166
 20
35.800705148530767
 30
0.0
 40
6.6546894500342191
 50
187.00074678144739
 51
205.53453411710231
  0
ARC
  5
56
  8
0
 10
60.504491172946892
 20
56.869093115340597
 30
0.0
 40
33.0
 50
322.76305330159983
 51
325.23694669840592
  0
ARC
  5
57
  8
0
 10
86.248481308995594
 20
41.05910472682514
 30
0.0
 40
4.1921910586649354
 50
244.46541521263779
 51
277.24415530173439
  0
ARC
  5
58
  8
0
 10
91.359561731573478
 20
44.741899195797806
 30
0.0
 40
6.6546894500342191
 50
205.00074678144739
 51
223.5345341171024
  0
ARC
  5
59
  8
0
 10
83.496014107455281
 20
37.270658633935142
 30
0.0
 40
4.1921910586649354
 50
10.75584469826557
 51
43.53452934991877
  0
ARC
  5
5A
  8
0
 10
88.451752580741967
 20
39.03500240837144
 30
0.0
 40
6.6546894500373446
 50
82.465500806294543
 51
100.99924980643711
  0
ARC
  5
5B
  8
0
 10
88.426978197258791
 20
45.334645605940757
 30
0.0
 40
4.1921910586649354
 50
28.75584469826558
 51
61.53452934991877
  0
ARC
  5
5C
  8
0
 10
60.504491172946892
 20
56.869093115340597
 30
0.0
 40
33.0
 50
340.76305330159983
 51
343.2369466984058
  0
ARC
  5
5D
  8
0
 10
28.414028990781699
 20
48.544043657526892
 30
0.0
 40
6.6546894500342191
 50
61.000746781447432
 51
79.53453411710241
  0
ARC
  5
5E
  8
0
 10
28.414028990781532
 20
65.194142573154664
 30
0.0
 40
6.6546894500373446
 50
280.46550080629447
 51
298.99924980643709
  0
ARC
  5
5F
  8
0
 10
32.582004148634979
 20
68.403540624740444
 30
0.0
 40
4.1921910586649354
 50
208.75584469826561
 51
241.53452934991881
  0
ARC
  5
60
  8
0
 10
31.134946505697769
 20
63.9499551397289
 30
0.0
 40
4.1921910586649354
 50
82.465415212637865
 51
115.24415530173439
  0
LINE
  5
61
  8
1
 10
17.50449117294691
 20
56.869093115340597
 30
0.0
 11
103.5044911729469
 21
56.869093115340597
 31
0.0
  0
ARC
  5
62
  8
0
 10
30.384287636177849
 20
54.527704665387887
 30
0.0
 40
4.1921910586649354
 50
100.46541521263779
 51
133.24415530173439
  0
ARC
  5
63
  8
0
 10
30.384287636177849
 20
59.210481565293406
 30
0.0
 40
4.1921910586649354
 50
226.75584469826561
 51
259.53452934991878
  0
ARC
  5
64
  8
0
 10
60.504491172946892
 20
56.869093115340597
 30
0.0
 40
33.0
 50
178.7630533015998
 51
181.2369466984058
  0
ARC
  5
65
  8
0
 10
60.504491172946913
 20
56.869093115340597
 30
0.0
 40
33.0
 50
160.7630533015998
 51
163.2369466984058
  0
ARC
  5
66
  8
0
 10
89.874035840196086
 20
63.949955139728807
 30
0.0
 40
4.1921910586649354
 50
64.755844698265577
 51
97.53452934991877
  0
ARC
  5
67
  8
0
 10
93.596916103694952
 20
58.867998751642752
 30
0.0
 40
6.6546894500373446
 50
118.4655008062945
 51
136.99924980643709
  0
ARC
  5
68
  8
0
 10
92.594953355112096
 20
65.194142573154352
 30
0.0
 40
6.6546894500342191
 50
241.00074678144739
 51
259.53453411710251
  0
ARC
  5
69
  8
0
 10
92.594953355112267
 20
48.544043657526537
 30
0.0
 40
6.6546894500373446
 50
100.4655008062945
 51
118.99924980643721
  0
ARC
  5
6A
  8
0
 10
60.504491172946913
 20
56.869093115340597
 30
0.0
 40
33.0
 50
88.763053301599854
 51
91.236946698405831
  0
ARC
  5
6B
  8
0
 10
37.512968238438532
 20
76.467527596746066
 30
0.0
 40
4.1921910586649354
 50
190.75584469826549
 51
223.53452934991881
  0
ARC
  5
6C
  8
0
 10
27.412066242199099
 20
58.867998751643029
 30
0.0
 40
6.6546894500342191
 50
43.000746781447432
 51
61.53453411710241
  0
ARC
  5
6D
  8
0
 10
30.384243844658592
 20
61.639671630865621
 30
0.0
 40
2.5907
 50
298.99924812957067
 51
43.000746781459341
  0
ARC
  5
6E
  8
0
 10
33.332623513253857
 20
70.713851198246005
 30
0.0
 40
2.5907
 50
280.99924812957079
 51
25.000746781459341
  0
ARC
  5
6F
  8
0
 10
32.557229765151831
 20
74.703183822309768
 30
0.0
 40
6.6546894500373446
 50
262.46550080629447
 51
280.99924980643709
  0
ARC
  5
70
  8
0
 10
29.649420614320348
 20
68.99628703488338
 30
0.0
 40
6.6546894500342191
 50
25.000746781447429
 51
43.53453411710241
  0
ARC
  5
71
  8
0
 10
48.377297253404294
 20
87.724163673967496
 30
0.0
 40
6.6546894500373446
 50
226.4655008062945
 51
244.99924980643709
  0
ARC
  5
72
  8
0
 10
39.436103206137119
 20
82.46650001565024
 30
0.0
 40
6.6546894500373446
 50
244.4655008062945
 51
262.99924980643721
  0
ARC
  5
73
  8
0
 10
60.504491172946913
 20
56.869093115340597
 30
0.0
 40
33.0
 50
142.7630533015998
 51
145.2369466984058
  0
ARC
  5
74
  8
0
 10
34.760501036898212
 20
72.679081503856054
 30
0.0
 40
4.1921910586649354
 50
64.465415212637865
 51
97.244155301734466
  0
ARC
  5
75
  8
0
 10
34.907084272637597
 20
77.937481082150441
 30
0.0
 40
6.6546894500342191
 50
7.0007467814474316
 51
25.534534117102421
  0
ARC
  5
76
  8
0
 10
38.940774905913969
 20
78.432809382369953
 30
0.0
 40
2.5907
 50
262.99924812957067
 51
7.0007467814593403
  0
ARC
  5
77
  8
0
 10
60.504491172946913
 20
56.869093115340597
 30
0.0
 40
33.0
 50
124.7630533015998
 51
127.2369466984058
  0
ARC
  5
78
  8
0
 10
44.694502784431471
 20
82.613083251389355
 30
0.0
 40
4.1921910586649354
 50
172.75584469826549
 51
205.53452934991881
  0
ARC
  5
79
  8
0
 10
40.906056691541487
 20
79.860616049849
 30
0.0
 40
4.1921910586649354
 50
46.465415212637872
 51
79.244155301734466
  0
ARC
  5
7A
  8
0
 10
42.670400465978098
 20
84.816354523135587
 30
0.0
 40
6.6546894500342191
 50
349.0007467814475
 51
7.5345341171024147
  0
ARC
  5
7B
  8
0
 10
55.733912657416923
 20
86.989340443628123
 30
0.0
 40
2.5907
 50
226.9992481295707
 51
331.00074678145933
  0
ARC
  5
7C
  8
0
 10
46.659733090037001
 20
84.040960775031351
 30
0.0
 40
2.5907
 50
244.9992481295707
 51
349.00074678145933
  0
ARC
  5
7D
  8
0
 10
48.970043663547109
 20
84.791580139652524
 30
0.0
 40
4.1921910586649354
 50
28.465415212637868
 51
61.244155301734473
  0
ARC
  5
7E
  8
0
 10
53.423629148558682
 20
86.238637782589777
 30
0.0
 40
4.1921910586649354
 50
154.75584469826549
 51
187.53452934991881
  0
ARC
  5
7F
  8
0
 10
60.504491172946913
 20
56.869093115340597
 30
0.0
 40
33.0
 50
106.7630533015998
 51
109.2369466984058
  0
ARC
  5
80
  8
0
 10
58.505585536644737
 20
89.961518046088656
 30
0.0
 40
6.6546894500373446
 50
208.4655008062945
 51
226.99924980643721
  0
ARC
  5
81
  8
0
 10
52.179441715133159
 20
88.959555297505801
 30
0.0
 40
6.6546894500342191
 50
331.00074678144739
 51
349.53453411710251
  0
ARC
  5
82
  8
0
 10
62.84587962289968
 20
86.989296652109658
 30
0.0
 40
4.1921910586649354
 50
136.75584469826561
 51
169.53452934991881
  0
ARC
  5
83
  8
0
 10
83.496014107455309
 20
76.46752759674601
 30
0.0
 40
4.1921910586649354
 50
316.46541521263788
 51
349.24415530173451
  0
ARC
  5
84
  8
0
 10
90.624738501234418
 20
61.639671630870573
 30
0.0
 40
2.5907
 50
136.9992481295707
 51
241.0007467814593
  0
ARC
  5
85
  8
0
 10
87.676358832637675
 20
70.713851198250495
 30
0.0
 40
2.5907
 50
154.9992481295707
 51
259.00074678145933
  0
ARC
  5
86
  8
0
 10
88.451752580741925
 20
74.70318382230937
 30
0.0
 40
6.6546894500342191
 50
259.0007467814475
 51
277.5345341171024
  0
ARC
  5
87
  8
0
 10
91.359561731573805
 20
68.99628703488321
 30
0.0
 40
6.6546894500373446
 50
136.4655008062945
 51
154.99924980643721
  0
ARC
  5
88
  8
0
 10
74.349249255852314
 20
84.040960775033653
 30
0.0
 40
2.5907
 50
190.9992481295707
 51
295.00074678145933
  0
ARC
  5
89
  8
0
 10
65.275069688471916
 20
86.989340443628905
 30
0.0
 40
2.5907
 50
208.9992481295707
 51
313.00074678145933
  0
ARC
  5
8A
  8
0
 10
78.338581879916063
 20
84.816354523135658
 30
0.0
 40
6.6546894500373446
 50
172.4655008062945
 51
190.99924980643721
  0
ARC
  5
8B
  8
0
 10
62.503396809249317
 20
89.961518046088415
 30
0.0
 40
6.6546894500342191
 50
313.0007467814475
 51
331.5345341171024
  0
ARC
  5
8C
  8
0
 10
68.829540630760974
 20
88.959555297505972
 30
0.0
 40
6.6546894500373446
 50
190.4655008062945
 51
208.99924980643709
  0
ARC
  5
8D
  8
0
 10
58.163102722994182
 20
86.98929665210963
 30
0.0
 40
4.1921910586649354
 50
10.465415212637851
 51
43.244155301734452
  0
ARC
  5
8E
  8
0
 10
60.504491172946913
 20
56.869093115340597
 30
0.0
 40
33.0
 50
70.76305330159984
 51
73.236946698405831
  0
ARC
  5
8F
  8
0
 10
72.038938682346753
 20
84.791580139652524
 30
0.0
 40
4.1921910586649354
 50
118.75584469826551
 51
151.5345293499187
  0
ARC
  5
90
  8
0
 10
67.585353197335181
 20
86.238637782589777
 30
0.0
 40
4.1921910586649354
 50
352.46541521263788
 51
25.244155301734459
  0
ARC
  5
91
  8
0
 10
81.572879139756751
 20
82.466500015649899
 30
0.0
 40
6.6546894500342191
 50
277.00074678144739
 51
295.53453411710251
  0
ARC
  5
92
  8
0
 10
86.101898073256564
 20
77.937481082150384
 30
0.0
 40
6.6546894500373446
 50
154.4655008062945
 51
172.99924980643709
  0
ARC
  5
93
  8
0
 10
82.068207439976277
 20
78.432809382373534
 30
0.0
 40
2.5907
 50
172.9992481295707
 51
277.00074678145933
  0
ARC
  5
94
  8
0
 10
80.102925654352362
 20
79.860616049848971
 30
0.0
 40
4.1921910586649354
 50
100.75584469826551
 51
133.5345293499187
  0
ARC
  5
95
  8
0
 10
72.63168509248969
 20
87.724163673967155
 30
0.0
 40
6.6546894500342191
 50
295.00074678144739
 51
313.5345341171024
  0
ARC
  5
96
  8
0
 10
60.504491172946913
 20
56.869093115340597
 30
0.0
 40
33.0
 50
52.763053301599847
 51
55.236946698405831
  0
ARC
  5
97
  8
0
 10
76.314479561462363
 20
82.613083251389298
 30
0.0
 40
4.1921910586649354
 50
334.46541521263788
 51
7.2441553017344491
  0
ARC
  5
98
  8
0
 10
86.24848130899565
 20
72.679081503856025
 30
0.0
 40
4.1921910586649354
 50
82.755844698265577
 51
115.5345293499187
  0
ARC
  5
99
  8
0
 10
60.504491172946892
 20
56.869093115340597
 30
0.0
 40
33.0
 50
34.76305330159984
 51
37.236946698405838
  0
ARC
  5
9A
  8
0
 10
90.624694709715953
 20
54.52770466538783
 30
0.0
 40
4.1921910586649354
 50
46.755844698265562
 51
79.53452934991877
  0
ARC
  5
9B
  8
0
 10
60.504491172946892
 20
56.869093115340597
 30
0.0
 40
33.0
 50
358.76305330159983
 51
1.236946698405835
  0
ARC
  5
9C
  8
0
 10
90.624694709715925
 20
59.210481565293321
 30
0.0
 40
4.1921910586649354
 50
280.46541521263788
 51
313.24415530173439
  0
ARC
  5
9D
  8
0
 10
60.504491172946892
 20
56.869093115340597
 30
0.0
 40
33.0
 50
16.763053301599829
 51
19.236946698405841
  0
ARC
  5
9E
  8
0
 10
88.426978197258819
 20
68.403540624740401
 30
0.0
 40
4.1921910586649354
 50
298.46541521263788
 51
331.24415530173439
  0
LINE
  5
9F
  8
0
 10
166.6813037428966
 20
40.369093115340263
 30
0.0
 11
166.6813037428966
 21
73.369093115340945
 31
0.0
  0
LINE
  5
A2
  8
0
 10
155.6813037428966
 20
40.369093115340263
 30
0.0
 11
155.6813037428966
 21
73.369093115340945
 31
0.0
  0
LINE
  5
A3
  8
1
 10
161.1813037428966
 20
13.869093115340601
 30
0.0
 11
161.1813037428966
 21
99.869093115340604
 31
0.0
  0
LINE
  5
B1
  8
1
 10
167.36461835745729
 20
26.424093115340611
 30
0.0
 11
154.99798912833589
 21
26.424093115340611
 31
0.0
  0
LINE
  5
B6
  8
2
 10
156.6813037428966
 20
49.369093115339837
 30
0.0
 11
165.6813037428966
 21
49.369093115339837
 31
0.0
  0
LINE
  5
B9
  8
0
 10
163.3813037428971
 20
39.369093115340277
 30
0.0
 11
165.6813037428966
 21
39.36909311534027
 31
0.0
  0
LINE
  5
BA
  8
1
 10
165.71150192434831
 20
44.369093115340029
 30
0.0
 11
156.65110556144489
 21
44.369093115340029
 31
0.0
  0
LINE
  5
BB
  8
0
 10
156.6813037428966
 20
39.36909311534027
 30
0.0
 11
158.98130374289701
 21
39.369093115340249
 31
0.0
  0
ARC
  5
BC
  8
0
 10
156.6813037428966
 20
40.369093115340263
 30
0.0
 40
1.0
 50
180.0
 51
270.0
  0
ARC
  5
BD
  8
2
 10
156.6813037428966
 20
48.36909311533983
 30
0.0
 40
1.0
 50
90.0
 51
179.99999999999989
  0
ARC
  5
BE
  8
0
 10
165.6813037428966
 20
40.369093115340263
 30
0.0
 40
1.0
 50
270.0
 51
0.0
  0
ARC
  5
BF
  8
2
 10
165.6813037428966
 20
48.36909311533983
 30
0.0
 40
1.0
 50
0.0
 51
90.0
  0
ARC
  5
C0
  8
0
 10
165.6813037428966
 20
73.369093115340945
 30
0.0
 40
1.0
 50
0.0
 51
90.0
  0
ARC
  5
C1
  8
0
 10
156.6813037428966
 20
73.369093115340945
 30
0.0
 40
1.0
 50
90.0
 51
179.99999999999989
  0
LINE
  5
C2
  8
2
 10
156.6813037428966
 20
64.369093115341371
 30
0.0
 11
165.6813037428966
 21
64.369093115341371
 31
0.0
  0
LINE
  5
C3
  8
0
 10
163.38130374289719
 20
74.369093115340945
 30
0.0
 11
165.6813037428966
 21
74.369093115340945
 31
0.0
  0
LINE
  5
C4
  8
1
 10
165.71150192434831
 20
69.369093115341173
 30
0.0
 11
156.65110556144489
 21
69.369093115341173
 31
0.0
  0
LINE
  5
C5
  8
0
 10
156.6813037428966
 20
74.369093115340945
 30
0.0
 11
158.98130374289721
 21
74.369093115340974
 31
0.0
  0
ARC
  5
C6
  8
2
 10
156.6813037428966
 20
65.369093115341371
 30
0.0
 40
1.0
 50
180.00000000000011
 51
270.0
  0
ARC
  5
C7
  8
2
 10
165.6813037428966
 20
65.369093115341371
 30
0.0
 40
1.0
 50
270.0
 51
0.0
  0
LINE
  5
C8
  8
1
 10
167.36461835745729
 20
87.314093115340597
 30
0.0
 11
154.99798912833589
 21
87.314093115340597
 31
0.0
  0
LINE
  5
205
  8
0
 10
163.38130374289719
 20
85.069093115340564
 30
0.0
 11
163.3813037428971
 21
28.669093115340591
 31
0.0
  0
LINE
  5
206
  8
0
 10
158.98130374289701
 20
28.66909311534064
 30
0.0
 11
158.98130374289721
 21
85.069093115340564
 31
0.0
  0
LINE
  5
207
  8
0
 10
160.1947971176813
 20
89.869093115340604
 30
0.0
 11
162.1678103681119
 21
89.869093115340604
 31
0.0
  0
ARC
  5
208
  8
0
 10
153.28130374289631
 20
85.069093115340593
 30
0.0
 40
10.1
 50
0.0
 51
28.375467561771629
  0
ARC
  5
209
  8
0
 10
169.08130374289689
 20
85.069093115340593
 30
0.0
 40
10.1
 50
151.6245324382283
 51
180.0
  0
ARC
  5
20A
  8
0
 10
169.08130374289689
 20
28.669093115340619
 30
0.0
 40
10.1
 50
180.0
 51
208.37546756177159
  0
ARC
  5
20B
  8
0
 10
153.28130374289631
 20
28.669093115340619
 30
0.0
 40
10.1
 50
331.62453243822841
 51
0.0
  0
LINE
  5
20C
  8
0
 10
160.1947971176813
 20
23.869093115340601
 30
0.0
 11
162.1678103681119
 21
23.869093115340601
 31
0.0
  0
TEXT
  5
330
  8
0
 62
     3
 10
0.0
 20
0.0
 30
0.0
 40
10.0
  1
SIS320
  7
STANDARD1
  0
ENDSEC
  0
EOF
