  0
SECTION
  2
HEADER
  9
$ACADVER
  1
AC1009
  9
$INSBASE
 10
0.0
 20
0.0
 30
0.0
  9
$EXTMIN
 10
0.0
 20
-2.960436562073669
 30
0.0
  9
$EXTMAX
 10
154.44518283490979
 20
59.316852485545851
 30
0.0
  9
$LIMMIN
 10
0.0
 20
0.0
  9
$LIMMAX
 10
375.0
 20
270.0
  9
$ORTHOMODE
 70
     1
  9
$REGENMODE
 70
     1
  9
$FILLMODE
 70
     1
  9
$QTEXTMODE
 70
     0
  9
$MIRRTEXT
 70
     0
  9
$DRAGMODE
 70
     2
  9
$LTSCALE
 40
10.0
  9
$OSMODE
 70
    55
  9
$ATTMODE
 70
     1
  9
$TEXTSIZE
 40
5.0
  9
$TRACEWID
 40
0.05
  9
$TEXTSTYLE
  7
STANDARD
  9
$CLAYER
  8
0
  9
$CELTYPE
  6
BYLAYER
  9
$CECOLOR
 62
   256
  9
$DIMSCALE
 40
1.0
  9
$DIMASZ
 40
3.0
  9
$DIMEXO
 40
2.0
  9
$DIMDLI
 40
0.3799999999999999
  9
$DIMRND
 40
0.0
  9
$DIMDLE
 40
0.0
  9
$DIMEXE
 40
2.0
  9
$DIMTP
 40
0.0
  9
$DIMTM
 40
0.0
  9
$DIMTXT
 40
3.2000000000000002
  9
$DIMCEN
 40
0.09
  9
$DIMTSZ
 40
0.0
  9
$DIMTOL
 70
     0
  9
$DIMLIM
 70
     0
  9
$DIMTIH
 70
     0
  9
$DIMTOH
 70
     0
  9
$DIMSE1
 70
     0
  9
$DIMSE2
 70
     0
  9
$DIMTAD
 70
     1
  9
$DIMZIN
 70
     0
  9
$DIMBLK
  1

  9
$DIMASO
 70
     1
  9
$DIMSHO
 70
     0
  9
$DIMPOST
  1

  9
$DIMAPOST
  1

  9
$DIMALT
 70
     0
  9
$DIMALTD
 70
     2
  9
$DIMALTF
 40
25.399999999999999
  9
$DIMLFAC
 40
1.0
  9
$DIMTOFL
 70
     0
  9
$DIMTVP
 40
1.6000000000000001
  9
$DIMTIX
 70
     1
  9
$DIMSOXD
 70
     0
  9
$DIMSAH
 70
     0
  9
$DIMBLK1
  1

  9
$DIMBLK2
  1

  9
$DIMSTYLE
  2
STANDARD
  9
$DIMCLRD
 70
     0
  9
$DIMCLRE
 70
     0
  9
$DIMCLRT
 70
     0
  9
$DIMTFAC
 40
1.0
  9
$DIMGAP
 40
0.09
  9
$LUNITS
 70
     2
  9
$LUPREC
 70
     4
  9
$SKETCHINC
 40
0.1
  9
$FILLETRAD
 40
0.5
  9
$AUNITS
 70
     0
  9
$AUPREC
 70
     0
  9
$MENU
  1
E:\r13\win\SUPPORT\ACAD
  9
$ELEVATION
 40
0.0
  9
$PELEVATION
 40
0.0
  9
$THICKNESS
 40
0.0
  9
$LIMCHECK
 70
     0
  9
$BLIPMODE
 70
     0
  9
$CHAMFERA
 40
0.0
  9
$CHAMFERB
 40
0.0
  9
$SKPOLY
 70
     0
  9
$TDCREATE
 40
2449840.6274652779
  9
$TDUPDATE
 40
2456598.4911560188
  9
$TDINDWG
 40
0.0289602662
  9
$TDUSRTIMER
 40
0.0289602662
  9
$USRTIMER
 70
     1
  9
$ANGBASE
 50
0.0
  9
$ANGDIR
 70
     0
  9
$PDMODE
 70
     0
  9
$PDSIZE
 40
0.0
  9
$PLINEWID
 40
0.0
  9
$COORDS
 70
     1
  9
$SPLFRAME
 70
     0
  9
$SPLINETYPE
 70
     6
  9
$SPLINESEGS
 70
     8
  9
$ATTDIA
 70
     0
  9
$ATTREQ
 70
     1
  9
$HANDLING
 70
     1
  9
$HANDSEED
  5
BC6
  9
$SURFTAB1
 70
     6
  9
$SURFTAB2
 70
     6
  9
$SURFTYPE
 70
     6
  9
$SURFU
 70
     6
  9
$SURFV
 70
     6
  9
$UCSNAME
  2

  9
$UCSORG
 10
0.0
 20
0.0
 30
0.0
  9
$UCSXDIR
 10
1.0
 20
0.0
 30
0.0
  9
$UCSYDIR
 10
0.0
 20
1.0
 30
0.0
  9
$PUCSNAME
  2

  9
$PUCSORG
 10
0.0
 20
0.0
 30
0.0
  9
$PUCSXDIR
 10
1.0
 20
0.0
 30
0.0
  9
$PUCSYDIR
 10
0.0
 20
1.0
 30
0.0
  9
$USERI1
 70
     0
  9
$USERI2
 70
     1
  9
$USERI3
 70
     1
  9
$USERI4
 70
     0
  9
$USERI5
 70
     0
  9
$USERR1
 40
0.0
  9
$USERR2
 40
0.0
  9
$USERR3
 40
0.0
  9
$USERR4
 40
0.0
  9
$USERR5
 40
0.0
  9
$WORLDVIEW
 70
     1
  9
$SHADEDGE
 70
     3
  9
$SHADEDIF
 70
    70
  9
$TILEMODE
 70
     1
  9
$MAXACTVP
 70
    16
  9
$PLIMCHECK
 70
     0
  9
$PEXTMIN
 10
1.0000000000000000E+020
 20
1.0000000000000000E+020
 30
1.0000000000000000E+020
  9
$PEXTMAX
 10
-1.0000000000000000E+020
 20
-1.0000000000000000E+020
 30
-1.0000000000000000E+020
  9
$PLIMMIN
 10
0.0
 20
0.0
  9
$PLIMMAX
 10
12.0
 20
9.0
  9
$UNITMODE
 70
     0
  9
$VISRETAIN
 70
     0
  9
$PLINEGEN
 70
     0
  9
$PSLTSCALE
 70
     0
  0
ENDSEC
  0
SECTION
  2
TABLES
  0
TABLE
  2
VPORT
 70
     1
  0
VPORT
  2
*ACTIVE
 70
     0
 10
0.0
 20
0.0
 11
1.0
 21
1.0
 12
187.49427839065231
 22
174.91677254346851
 13
0.0
 23
0.0
 14
10.0
 24
10.0
 15
10.0
 25
10.0
 16
0.0
 26
0.0
 36
1.0
 17
0.0
 27
0.0
 37
0.0
 40
358.92027899574339
 41
1.7807262569832401
 42
50.0
 43
0.0
 44
0.0
 50
0.0
 51
0.0
 71
     0
 72
   500
 73
     1
 74
     0
 75
     0
 76
     0
 77
     0
 78
     2
  0
ENDTAB
  0
TABLE
  2
LTYPE
 70
     3
  0
LTYPE
  2
CONTINUOUS
 70
     0
  3
Solid Line
 72
    65
 73
     0
 40
0.0
  0
LTYPE
  2
CENTER
 70
     0
  3
____ _ ____ _ ____ _ ____ _ ____ _ ____ _ ____
 72
    65
 73
     4
 40
2.0
 49
1.25
 49
-0.25
 49
0.25
 49
-0.25
  0
LTYPE
  2
PHANTOM2
 70
     0
  3
___ _ _ ___ _ _ ___ _ _ ___ _ _
 72
    65
 73
     6
 40
1.25
 49
0.625
 49
-0.125
 49
0.125
 49
-0.125
 49
0.125
 49
-0.125
  0
ENDTAB
  0
TABLE
  2
LAYER
 70
     3
  0
LAYER
  2
0
 70
     0
 62
     7
  6
CONTINUOUS
  0
LAYER
  2
1
 70
     0
 62
     1
  6
CENTER
  0
LAYER
  2
3
 70
     0
 62
     3
  6
CONTINUOUS
  0
ENDTAB
  0
TABLE
  2
STYLE
 70
     2
  0
STYLE
  2
STANDARD
 70
     0
 40
0.0
 41
1.0
 50
0.0
 71
     0
 42
5.0
  3
TXT
  4
BIGFONT
  0
STYLE
  2
STANDARD1
 70
     0
 40
0.0
 41
1.0
 50
0.0
 71
     0
 42
3.0
  3
txt
  4

  0
ENDTAB
  0
TABLE
  2
VIEW
 70
     2
  0
VIEW
  2
ALL
 70
     0
 40
270.0
 10
213.25689075630251
 20
135.0
 41
0.0
 11
0.0
 21
0.0
 31
1.0
 12
0.0
 22
0.0
 32
0.0
 42
0.0
 43
0.0
 44
0.0
 50
0.0
 71
     0
  0
VIEW
  2
1
 70
     0
 40
190.0
 10
140.0
 20
85.0
 41
280.0
 11
0.0
 21
0.0
 31
1.0
 12
0.0
 22
0.0
 32
0.0
 42
0.0
 43
0.0
 44
0.0
 50
0.0
 71
     0
  0
ENDTAB
  0
TABLE
  2
UCS
 70
     0
  0
ENDTAB
  0
TABLE
  2
APPID
 70
    16
  0
APPID
  2
ACAD
 70
     0
  0
APPID
  2
GENIUS_GENODEF_13
 70
     0
  0
APPID
  2
GENIUS_GENOBJ-N-FIL_13
 70
     0
  0
APPID
  2
ASM_BASE
 70
     0
  0
APPID
  2
ASM_EXPLO_VER_2_00
 70
     0
  0
APPID
  2
ASM_CADM_VER_12_00
 70
     0
  0
APPID
  2
ASM_BASEFORO
 70
     0
  0
APPID
  2
ASM_BASETRAVI
 70
     0
  0
APPID
  2
ASM_BASETRAVI1
 70
     0
  0
APPID
  2
ASM_GRUPPI
 70
     0
  0
APPID
  2
ASM_CADM_ALBERO
 70
     0
  0
APPID
  2
ASM_GOLE
 70
     0
  0
APPID
  2
_CALL_MAC$
 70
     0
  0
APPID
  2
ACAD_EXEMPT_FROM_CAD_STANDARDS
 70
     0
  0
APPID
  2
ACAD_MLEADERVER
 70
     0
  0
APPID
  2
ACAD_NAV_VCDISPLAY
 70
     0
  0
ENDTAB
  0
TABLE
  2
DIMSTYLE
 70
     1
  0
DIMSTYLE
  2
STANDARD
 70
     0
  3

  4

  5

  6

  7

 40
1.0
 41
0.18
 42
0.0625
 43
0.38
 44
0.18
 45
0.0
 46
0.0
 47
0.0
 48
0.0
140
0.18
141
0.09
142
0.0
143
25.399999999999999
144
1.0
145
0.0
146
1.0
147
0.09
 71
     0
 72
     0
 73
     1
 74
     1
 75
     0
 76
     0
 77
     0
 78
     0
170
     0
171
     2
172
     0
173
     0
174
     0
175
     0
176
     0
177
     0
178
     0
  0
ENDTAB
  0
ENDSEC
  0
SECTION
  2
BLOCKS
  0
BLOCK
  8
0
  2
$MODEL_SPACE
 70
     0
 10
0.0
 20
0.0
 30
0.0
  3
$MODEL_SPACE
  1

  0
ENDBLK
  5
976
  8
0
  0
BLOCK
 67
     1
  8
0
  2
$PAPER_SPACE
 70
     0
 10
0.0
 20
0.0
 30
0.0
  3
$PAPER_SPACE
  1

  0
ENDBLK
  5
974
 67
     1
  8
0
  0
ENDSEC
  0
SECTION
  2
ENTITIES
  0
LINE
  5
858
  8
3
 10
70.745182834909727
 20
56.716852485546063
 30
0.0
 11
87.14518283490969
 21
56.716852485546063
 31
0.0
  0
LINE
  5
859
  8
3
 10
70.745182834909727
 20
57.316852485545972
 30
0.0
 11
87.14518283490969
 21
57.316852485545972
 31
0.0
  0
LINE
  5
85A
  8
0
 10
87.445182834909744
 20
56.316852485545851
 30
0.0
 11
70.445182834909716
 21
56.316852485545851
 31
0.0
  0
LINE
  5
85B
  8
3
 10
70.745182834909727
 20
51.316852485545958
 30
0.0
 11
87.14518283490969
 21
51.316852485545958
 31
0.0
  0
LINE
  5
85C
  8
3
 10
70.745182834909727
 20
51.916852485545881
 30
0.0
 11
87.14518283490969
 21
51.916852485545881
 31
0.0
  0
LINE
  5
85D
  8
0
 10
87.445182834909744
 20
52.316852485545851
 30
0.0
 11
70.445182834909716
 21
52.316852485545823
 31
0.0
  0
LINE
  5
85E
  8
1
 10
54.445182834909659
 20
54.316852485545851
 30
0.0
 11
119.4451828349097
 21
54.316852485545908
 31
0.0
  0
LINE
  5
85F
  8
1
 10
54.445182834909637
 20
24.316852485545851
 30
0.0
 11
119.4451828349097
 21
24.316852485545908
 31
0.0
  0
LINE
  5
860
  8
3
 10
70.745182834909713
 20
26.71685248554606
 30
0.0
 11
87.14518283490969
 21
26.71685248554606
 31
0.0
  0
LINE
  5
861
  8
3
 10
70.745182834909713
 20
27.316852485545969
 30
0.0
 11
87.14518283490969
 21
27.316852485545969
 31
0.0
  0
LINE
  5
862
  8
0
 10
87.445182834909843
 20
26.316852485545819
 30
0.0
 11
70.445182834909687
 21
26.316852485545841
 31
0.0
  0
LINE
  5
863
  8
3
 10
70.745182834909713
 20
21.916852485545881
 30
0.0
 11
87.14518283490969
 21
21.916852485545881
 31
0.0
  0
LINE
  5
864
  8
3
 10
70.745182834909713
 20
21.316852485545962
 30
0.0
 11
87.14518283490969
 21
21.316852485545962
 31
0.0
  0
LINE
  5
865
  8
0
 10
87.445182834909701
 20
22.316852485545841
 30
0.0
 11
70.445182834909701
 21
22.316852485545819
 31
0.0
  0
ARC
  5
866
  8
0
 10
64.445182834909701
 20
24.316852485545748
 30
0.0
 40
5.0
 50
90.0
 51
269.99999999999977
  0
LINE
  5
867
  8
0
 10
70.445182834909701
 20
19.316852485545851
 30
0.0
 11
70.445182834909701
 21
29.316852485545851
 31
0.0
  0
LINE
  5
86A
  8
0
 10
70.445182834909701
 20
19.316852485545709
 30
0.0
 11
64.445182834909701
 21
19.316852485545759
 31
0.0
  0
LINE
  5
86B
  8
3
 10
71.445182834909701
 20
25.93785248554456
 30
0.0
 11
70.445182834909701
 21
25.93785248554456
 31
0.0
  0
LINE
  5
86C
  8
3
 10
71.445182834909701
 20
22.69585248554732
 30
0.0
 11
70.445182834909701
 21
22.69585248554732
 31
0.0
  0
LINE
  5
86D
  8
0
 10
71.445182834909701
 20
22.316852485545819
 30
0.0
 11
71.445182834909701
 21
26.316852485545819
 31
0.0
  0
LINE
  5
86E
  8
3
 10
71.445182834909701
 20
22.695852485547348
 30
0.0
 11
72.101630090980734
 21
22.316852485545969
 31
0.0
  0
CIRCLE
  5
86F
  8
0
 10
70.745182834909713
 20
21.616852485545689
 30
0.0
 40
0.3
  0
LINE
  5
870
  8
3
 10
71.445182834909701
 20
25.937852485544578
 30
0.0
 11
72.101630090980734
 21
26.316852485545962
 31
0.0
  0
CIRCLE
  5
871
  8
0
 10
70.745182834909713
 20
27.016852485546011
 30
0.0
 40
0.3
  0
LINE
  5
872
  8
0
 10
70.445182834909701
 20
29.316852485545851
 30
0.0
 11
64.445182834909701
 21
29.316852485545791
 31
0.0
  0
LINE
  5
873
  8
0
 10
70.445182834909772
 20
59.316852485545851
 30
0.0
 11
64.445182834909659
 21
59.316852485545851
 31
0.0
  0
LINE
  5
874
  8
0
 10
70.445182834909644
 20
49.316852485545851
 30
0.0
 11
64.445182834909659
 21
49.316852485545851
 31
0.0
  0
LINE
  5
875
  8
0
 10
64.445182834909659
 20
59.316852485545851
 30
0.0
 11
64.445182834909659
 21
49.316852485545851
 31
0.0
  0
ARC
  5
876
  8
0
 10
64.445182834909659
 20
54.316852485545851
 30
0.0
 40
5.0
 50
90.0
 51
269.99999999999977
  0
LINE
  5
877
  8
0
 10
70.445182834909644
 20
49.316852485545851
 30
0.0
 11
70.445182834909716
 21
59.316852485545851
 31
0.0
  0
CIRCLE
  5
878
  8
0
 10
70.745182834909727
 20
51.616852485545692
 30
0.0
 40
0.3
  0
CIRCLE
  5
879
  8
0
 10
70.745182834909727
 20
57.016852485546011
 30
0.0
 40
0.3
  0
LINE
  5
87A
  8
0
 10
87.445182834909644
 20
27.816852485545851
 30
0.0
 11
87.945182834909417
 21
28.316852485545851
 31
0.0
  0
LINE
  5
87B
  8
0
 10
110.4451828349097
 20
27.816852485545851
 30
0.0
 11
108.9451828349097
 21
29.316852485545851
 31
0.0
  0
LINE
  5
87C
  8
3
 10
92.445182834909659
 20
20.12885248554598
 30
0.0
 11
109.7571828349098
 21
20.12885248554598
 31
0.0
  0
LINE
  5
87D
  8
0
 10
92.445182834909659
 20
19.316852485545951
 30
0.0
 11
108.9451828349096
 21
19.316852485545962
 31
0.0
  0
LINE
  5
87E
  8
0
 10
87.445182834909644
 20
20.816852485545969
 30
0.0
 11
87.4451828349099
 21
27.816852485546111
 31
0.0
  0
LINE
  5
880
  8
0
 10
87.445182834909644
 20
20.816852485545851
 30
0.0
 11
87.945182834909417
 21
20.316852485546079
 31
0.0
  0
CIRCLE
  5
882
  8
0
 10
87.14518283490969
 20
21.616852485545689
 30
0.0
 40
0.3
  0
CIRCLE
  5
883
  8
0
 10
87.14518283490969
 20
27.016852485546011
 30
0.0
 40
0.3
  0
LINE
  5
884
  8
0
 10
114.1451828349099
 20
20.81685248554588
 30
0.0
 11
110.4451828349099
 21
20.816852485545901
 31
0.0
  0
LINE
  5
885
  8
0
 10
110.4451828349099
 20
27.816852485545901
 30
0.0
 11
114.1451828349099
 21
27.816852485545901
 31
0.0
  0
LINE
  5
886
  8
0
 10
110.4451828349099
 20
20.816852485545901
 30
0.0
 11
110.4451828349099
 21
27.816852485545901
 31
0.0
  0
LINE
  5
888
  8
0
 10
108.9451828349096
 20
19.316852485545962
 30
0.0
 11
110.4451828349096
 21
20.816852485545969
 31
0.0
  0
LINE
  5
889
  8
0
 10
114.1451828349099
 20
27.816852485545901
 30
0.0
 11
114.1451828349099
 21
20.81685248554588
 31
0.0
  0
LINE
  5
88A
  8
0
 10
114.1451828349099
 20
20.816852485545901
 30
0.0
 11
114.4451828349099
 21
21.336467727816569
 31
0.0
  0
LINE
  5
88B
  8
0
 10
114.4451828349099
 20
27.29723724327528
 30
0.0
 11
114.4451828349099
 21
21.336467727816569
 31
0.0
  0
LINE
  5
88C
  8
0
 10
114.1451828349099
 20
27.81685248554588
 30
0.0
 11
114.4451828349099
 21
27.29723724327528
 31
0.0
  0
LINE
  5
88D
  8
3
 10
92.445182834909716
 20
28.504852485545939
 30
0.0
 11
109.7571828349099
 21
28.504852485545729
 31
0.0
  0
LINE
  5
88E
  8
0
 10
92.445182834909659
 20
29.316852485545851
 30
0.0
 11
108.9451828349097
 21
29.316852485545851
 31
0.0
  0
LINE
  5
891
  8
3
 10
88.133182834909917
 20
58.50485248554601
 30
0.0
 11
109.7571828349099
 21
58.504852485545733
 31
0.0
  0
LINE
  5
892
  8
0
 10
88.945182834909758
 20
59.316852485545851
 30
0.0
 11
108.9451828349097
 21
59.316852485545851
 31
0.0
  0
LINE
  5
893
  8
3
 10
88.133182834909618
 20
50.128852485545977
 30
0.0
 11
109.7571828349098
 21
50.128852485545977
 31
0.0
  0
LINE
  5
894
  8
0
 10
88.945182834909644
 20
49.31685248554593
 30
0.0
 11
108.9451828349096
 21
49.316852485545972
 31
0.0
  0
LINE
  5
899
  8
0
 10
88.945182834909644
 20
51.316852485545823
 30
0.0
 11
88.945182834909644
 21
49.31685248554593
 31
0.0
  0
LINE
  5
89A
  8
0
 10
87.445182834909644
 20
50.816852485545937
 30
0.0
 11
88.945182834909644
 21
49.31685248554593
 31
0.0
  0
CIRCLE
  5
89C
  8
0
 10
87.14518283490969
 20
51.616852485545692
 30
0.0
 40
0.3
  0
LINE
  5
89E
  8
0
 10
88.945182834909758
 20
59.316852485545851
 30
0.0
 11
88.945182834909758
 21
57.316852485545851
 31
0.0
  0
LINE
  5
89F
  8
0
 10
88.945182834909758
 20
59.316852485545851
 30
0.0
 11
87.445182834909744
 21
57.816852485545851
 31
0.0
  0
CIRCLE
  5
8A0
  8
0
 10
87.14518283490969
 20
57.016852485546011
 30
0.0
 40
0.3
  0
LINE
  5
8A1
  8
0
 10
110.4451828349097
 20
57.816852485545851
 30
0.0
 11
113.9451828349097
 21
57.816852485545851
 31
0.0
  0
LINE
  5
8A2
  8
0
 10
113.9451828349097
 20
50.816852485545851
 30
0.0
 11
110.4451828349097
 21
50.816852485545851
 31
0.0
  0
LINE
  5
8A3
  8
0
 10
108.9451828349097
 20
59.316852485545851
 30
0.0
 11
108.9451828349096
 21
49.316852485545972
 31
0.0
  0
LINE
  5
8A4
  8
0
 10
110.4451828349101
 20
50.816852485545851
 30
0.0
 11
110.4451828349097
 21
57.816852485545851
 31
0.0
  0
LINE
  5
8A5
  8
0
 10
108.9451828349096
 20
49.316852485545972
 30
0.0
 11
110.4451828349096
 21
50.816852485545958
 31
0.0
  0
LINE
  5
8A6
  8
0
 10
110.4451828349097
 20
57.816852485545851
 30
0.0
 11
108.9451828349097
 21
59.316852485545851
 31
0.0
  0
LINE
  5
8A7
  8
0
 10
113.9451828349097
 20
57.816852485545851
 30
0.0
 11
113.9451828349097
 21
50.816852485545851
 31
0.0
  0
LINE
  5
8A8
  8
0
 10
114.4451828349097
 20
57.316852485545851
 30
0.0
 11
114.4451828349097
 21
51.316852485545851
 31
0.0
  0
LINE
  5
8A9
  8
0
 10
114.4451828349097
 20
51.316852485545851
 30
0.0
 11
113.9451828349097
 21
50.816852485545851
 31
0.0
  0
LINE
  5
8AA
  8
0
 10
113.9451828349097
 20
57.816852485545851
 30
0.0
 11
114.4451828349097
 21
57.316852485545851
 31
0.0
  0
LINE
  5
8AB
  8
3
 10
71.445182834909701
 20
55.937852485544582
 30
0.0
 11
72.101630090980734
 21
56.316852485545958
 31
0.0
  0
LINE
  5
8AC
  8
3
 10
71.445182834909701
 20
52.695852485547348
 30
0.0
 11
72.101630090980734
 21
52.316852485545972
 31
0.0
  0
LINE
  5
8AD
  8
0
 10
71.445182834909701
 20
52.316852485545823
 30
0.0
 11
71.445182834909701
 21
56.316852485545823
 31
0.0
  0
LINE
  5
8AE
  8
3
 10
71.445182834909701
 20
55.937852485544553
 30
0.0
 11
70.445182834909687
 21
55.937852485544582
 31
0.0
  0
LINE
  5
8AF
  8
3
 10
71.445182834909701
 20
52.69585248554732
 30
0.0
 11
70.445182834909644
 21
52.695852485547292
 31
0.0
  0
LINE
  5
8B0
  8
0
 10
64.445182834909701
 20
29.316852485545748
 30
0.0
 11
64.445182834909673
 21
19.316852485545748
 31
0.0
  0
CIRCLE
  5
8DE
  8
0
 10
29.445182834909701
 20
24.316852485545869
 30
0.0
 40
4.9999999999998721
  0
LINE
  5
8DF
  8
1
 10
39.445182834909573
 20
24.316852485545869
 30
0.0
 11
19.445182834909829
 21
24.316852485545869
 31
0.0
  0
LINE
  5
8E0
  8
1
 10
29.445182834909701
 20
34.316852485545738
 30
0.0
 11
29.445182834909701
 21
14.31685248554599
 31
0.0
  0
CIRCLE
  5
8E2
  8
0
 10
144.4451828349099
 20
24.316852485545919
 30
0.0
 40
3.4999999999999711
  0
CIRCLE
  5
8E3
  8
0
 10
144.4451828349099
 20
24.316852485545919
 30
0.0
 40
4.9999999999999432
  0
CIRCLE
  5
8E4
  8
3
 10
144.4451828349099
 20
24.316852485545919
 30
0.0
 40
4.187999999999775
  0
LINE
  5
8E5
  8
1
 10
154.44518283490979
 20
24.316852485545919
 30
0.0
 11
134.44518283491001
 21
24.316852485545919
 31
0.0
  0
LINE
  5
8E6
  8
1
 10
144.4451828349099
 20
34.316852485545873
 30
0.0
 11
144.4451828349099
 21
14.316852485545979
 31
0.0
  0
LINE
  5
A21
  8
0
 10
108.9451828349097
 20
19.31685248554599
 30
0.0
 11
108.9451828349097
 21
29.31685248554594
 31
0.0
  0
LINE
  5
AC8
  8
0
 10
87.445182834909744
 20
50.816852485545823
 30
0.0
 11
87.445182834909744
 21
57.816852485545851
 31
0.0
  0
LINE
  5
AC9
  8
0
 10
92.445182834909644
 20
51.316852485545787
 30
0.0
 11
92.445182834909644
 21
57.316852485545823
 31
0.0
  0
LINE
  5
ACA
  8
0
 10
87.445182834909744
 20
57.316852485545823
 30
0.0
 11
92.445182834909644
 21
57.316852485545823
 31
0.0
  0
LINE
  5
ACB
  8
0
 10
87.445182834909744
 20
51.316852485545823
 30
0.0
 11
92.445182834909659
 21
51.316852485545823
 31
0.0
  0
LINE
  5
ACC
  8
3
 10
87.445182834909744
 20
57.316852485545823
 30
0.0
 11
92.445182834909644
 21
51.316852485545823
 31
0.0
  0
LINE
  5
ACD
  8
3
 10
87.445182834909744
 20
51.316852485545823
 30
0.0
 11
92.445182834909644
 21
57.316852485545823
 31
0.0
  0
LINE
  5
ACE
  8
0
 10
92.445182834909659
 20
19.316852485546061
 30
0.0
 11
92.445182834909659
 21
20.316852485545951
 31
0.0
  0
LINE
  5
ACF
  8
0
 10
87.945182834909673
 20
20.316852485545951
 30
0.0
 11
92.445182834909659
 21
20.316852485545951
 31
0.0
  0
LINE
  5
AD0
  8
0
 10
87.945182834909446
 20
28.31685248554594
 30
0.0
 11
92.445182834909744
 21
28.31685248554594
 31
0.0
  0
LINE
  5
AD1
  8
0
 10
92.445182834909744
 20
28.31685248554583
 30
0.0
 11
92.445182834909659
 21
29.31685248554605
 31
0.0
  0
TEXT
  5
B60
  8
0
 62
     3
 10
0.0
 20
0.0
 30
0.0
 40
10.0
  1
SEPR10-10
  7
STANDARD1
  0
ENDSEC
  0
EOF
