  0
SECTION
  2
HEADER
  9
$ACADVER
  1
AC1009
  9
$INSBASE
 10
0.0
 20
0.0
 30
0.0
  9
$EXTMIN
 10
0.0
 20
-2.960436562073669
 30
0.0
  9
$EXTMAX
 10
161.20245782334089
 20
112.55013931423819
 30
0.0
  9
$LIMMIN
 10
0.0
 20
0.0
  9
$LIMMAX
 10
187.5
 20
135.0
  9
$ORTHOMODE
 70
     1
  9
$REGENMODE
 70
     1
  9
$FILLMODE
 70
     1
  9
$QTEXTMODE
 70
     0
  9
$MIRRTEXT
 70
     0
  9
$DRAGMODE
 70
     2
  9
$LTSCALE
 40
5.0
  9
$OSMODE
 70
    55
  9
$ATTMODE
 70
     1
  9
$TEXTSIZE
 40
0.2
  9
$TRACEWID
 40
0.05
  9
$TEXTSTYLE
  7
STANDARD
  9
$CLAYER
  8
0
  9
$CELTYPE
  6
BYLAYER
  9
$CECOLOR
 62
   256
  9
$DIMSCALE
 40
0.5
  9
$DIMASZ
 40
3.0
  9
$DIMEXO
 40
2.0
  9
$DIMDLI
 40
0.38
  9
$DIMRND
 40
0.0
  9
$DIMDLE
 40
0.0
  9
$DIMEXE
 40
2.0
  9
$DIMTP
 40
0.0
  9
$DIMTM
 40
0.0
  9
$DIMTXT
 40
3.2000000000000002
  9
$DIMCEN
 40
0.0
  9
$DIMTSZ
 40
0.0
  9
$DIMTOL
 70
     0
  9
$DIMLIM
 70
     0
  9
$DIMTIH
 70
     0
  9
$DIMTOH
 70
     0
  9
$DIMSE1
 70
     0
  9
$DIMSE2
 70
     0
  9
$DIMTAD
 70
     1
  9
$DIMZIN
 70
     0
  9
$DIMBLK
  1

  9
$DIMASO
 70
     0
  9
$DIMSHO
 70
     0
  9
$DIMPOST
  1

  9
$DIMAPOST
  1

  9
$DIMALT
 70
     0
  9
$DIMALTD
 70
     2
  9
$DIMALTF
 40
25.399999999999999
  9
$DIMLFAC
 40
1.0
  9
$DIMTOFL
 70
     1
  9
$DIMTVP
 40
1.6000000000000001
  9
$DIMTIX
 70
     1
  9
$DIMSOXD
 70
     0
  9
$DIMSAH
 70
     0
  9
$DIMBLK1
  1

  9
$DIMBLK2
  1

  9
$DIMSTYLE
  2
STANDARD
  9
$DIMCLRD
 70
     0
  9
$DIMCLRE
 70
     0
  9
$DIMCLRT
 70
     0
  9
$DIMTFAC
 40
1.0
  9
$DIMGAP
 40
0.09
  9
$LUNITS
 70
     2
  9
$LUPREC
 70
     4
  9
$SKETCHINC
 40
0.1
  9
$FILLETRAD
 40
0.0
  9
$AUNITS
 70
     0
  9
$AUPREC
 70
     4
  9
$MENU
  1
E:\r13\win\SUPPORT\ACAD
  9
$ELEVATION
 40
0.0
  9
$PELEVATION
 40
0.0
  9
$THICKNESS
 40
0.0
  9
$LIMCHECK
 70
     0
  9
$BLIPMODE
 70
     0
  9
$CHAMFERA
 40
0.0
  9
$CHAMFERB
 40
0.0
  9
$SKPOLY
 70
     0
  9
$TDCREATE
 40
2449840.6289120382
  9
$TDUPDATE
 40
2456598.4788569561
  9
$TDINDWG
 40
0.0040512037
  9
$TDUSRTIMER
 40
0.0040512037
  9
$USRTIMER
 70
     1
  9
$ANGBASE
 50
0.0
  9
$ANGDIR
 70
     0
  9
$PDMODE
 70
     0
  9
$PDSIZE
 40
0.0
  9
$PLINEWID
 40
0.0
  9
$COORDS
 70
     1
  9
$SPLFRAME
 70
     0
  9
$SPLINETYPE
 70
     6
  9
$SPLINESEGS
 70
     8
  9
$ATTDIA
 70
     0
  9
$ATTREQ
 70
     1
  9
$HANDLING
 70
     1
  9
$HANDSEED
  5
229
  9
$SURFTAB1
 70
     6
  9
$SURFTAB2
 70
     6
  9
$SURFTYPE
 70
     6
  9
$SURFU
 70
     6
  9
$SURFV
 70
     6
  9
$UCSNAME
  2

  9
$UCSORG
 10
0.0
 20
0.0
 30
0.0
  9
$UCSXDIR
 10
1.0
 20
0.0
 30
0.0
  9
$UCSYDIR
 10
0.0
 20
1.0
 30
0.0
  9
$PUCSNAME
  2

  9
$PUCSORG
 10
0.0
 20
0.0
 30
0.0
  9
$PUCSXDIR
 10
1.0
 20
0.0
 30
0.0
  9
$PUCSYDIR
 10
0.0
 20
1.0
 30
0.0
  9
$USERI1
 70
     0
  9
$USERI2
 70
     1
  9
$USERI3
 70
     0
  9
$USERI4
 70
     0
  9
$USERI5
 70
     0
  9
$USERR1
 40
0.0
  9
$USERR2
 40
0.0
  9
$USERR3
 40
0.0
  9
$USERR4
 40
0.0
  9
$USERR5
 40
0.0
  9
$WORLDVIEW
 70
     1
  9
$SHADEDGE
 70
     3
  9
$SHADEDIF
 70
    70
  9
$TILEMODE
 70
     1
  9
$MAXACTVP
 70
    16
  9
$PLIMCHECK
 70
     0
  9
$PEXTMIN
 10
1.0000000000000000E+020
 20
1.0000000000000000E+020
 30
1.0000000000000000E+020
  9
$PEXTMAX
 10
-1.0000000000000000E+020
 20
-1.0000000000000000E+020
 30
-1.0000000000000000E+020
  9
$PLIMMIN
 10
0.0
 20
0.0
  9
$PLIMMAX
 10
12.0
 20
9.0
  9
$UNITMODE
 70
     0
  9
$VISRETAIN
 70
     0
  9
$PLINEGEN
 70
     0
  9
$PSLTSCALE
 70
     0
  0
ENDSEC
  0
SECTION
  2
TABLES
  0
TABLE
  2
VPORT
 70
     1
  0
VPORT
  2
*ACTIVE
 70
     0
 10
0.0
 20
0.0
 11
1.0
 21
1.0
 12
93.747139195326156
 22
96.983959220318994
 13
0.0
 23
0.0
 14
5.0
 24
5.0
 15
5.0
 25
5.0
 16
0.0
 26
0.0
 36
1.0
 17
0.0
 27
0.0
 37
0.0
 40
201.84293963319561
 41
1.7807262569832401
 42
50.0
 43
0.0
 44
0.0
 50
0.0
 51
0.0
 71
     0
 72
   500
 73
     1
 74
     0
 75
     0
 76
     0
 77
     0
 78
     2
  0
ENDTAB
  0
TABLE
  2
LTYPE
 70
     3
  0
LTYPE
  2
CONTINUOUS
 70
     0
  3
Solid Line
 72
    65
 73
     0
 40
0.0
  0
LTYPE
  2
CENTER
 70
     0
  3
____ _ ____ _ ____ _ ____ _ ____ _ ____ _ ____
 72
    65
 73
     4
 40
2.0
 49
1.25
 49
-0.25
 49
0.25
 49
-0.25
  0
LTYPE
  2
PHANTOM2
 70
     0
  3
___ _ _ ___ _ _ ___ _ _ ___ _ _
 72
    65
 73
     6
 40
1.25
 49
0.625
 49
-0.125
 49
0.125
 49
-0.125
 49
0.125
 49
-0.125
  0
ENDTAB
  0
TABLE
  2
LAYER
 70
     3
  0
LAYER
  2
0
 70
     0
 62
     7
  6
CONTINUOUS
  0
LAYER
  2
1
 70
     0
 62
     1
  6
CENTER
  0
LAYER
  2
3
 70
     0
 62
     3
  6
CONTINUOUS
  0
ENDTAB
  0
TABLE
  2
STYLE
 70
     2
  0
STYLE
  2
STANDARD
 70
     0
 40
0.0
 41
1.0
 50
0.0
 71
     0
 42
0.2
  3
TXT
  4
BIGFONT
  0
STYLE
  2
STANDARD1
 70
     0
 40
0.0
 41
1.0
 50
0.0
 71
     0
 42
3.0
  3
txt
  4

  0
ENDTAB
  0
TABLE
  2
VIEW
 70
     1
  0
VIEW
  2
ALL
 70
     0
 40
135.0
 10
110.4957983193277
 20
67.5
 41
0.0
 11
0.0
 21
0.0
 31
1.0
 12
0.0
 22
0.0
 32
0.0
 42
0.0
 43
0.0
 44
0.0
 50
0.0
 71
     0
  0
ENDTAB
  0
TABLE
  2
UCS
 70
     0
  0
ENDTAB
  0
TABLE
  2
APPID
 70
     3
  0
APPID
  2
ACAD
 70
     0
  0
APPID
  2
ACAD_MLEADERVER
 70
     0
  0
APPID
  2
ACAD_NAV_VCDISPLAY
 70
     0
  0
ENDTAB
  0
TABLE
  2
DIMSTYLE
 70
     1
  0
DIMSTYLE
  2
STANDARD
 70
     0
  3

  4

  5

  6

  7

 40
1.0
 41
0.18
 42
0.0625
 43
0.38
 44
0.18
 45
0.0
 46
0.0
 47
0.0
 48
0.0
140
0.18
141
0.09
142
0.0
143
25.399999999999999
144
1.0
145
0.0
146
1.0
147
0.09
 71
     0
 72
     0
 73
     1
 74
     1
 75
     0
 76
     0
 77
     0
 78
     0
170
     0
171
     2
172
     0
173
     0
174
     0
175
     0
176
     0
177
     0
178
     0
  0
ENDTAB
  0
ENDSEC
  0
SECTION
  2
BLOCKS
  0
BLOCK
  8
0
  2
$MODEL_SPACE
 70
     0
 10
0.0
 20
0.0
 30
0.0
  3
$MODEL_SPACE
  1

  0
ENDBLK
  5
CC
  8
0
  0
BLOCK
 67
     1
  8
0
  2
$PAPER_SPACE
 70
     0
 10
0.0
 20
0.0
 30
0.0
  3
$PAPER_SPACE
  1

  0
ENDBLK
  5
CA
 67
     1
  8
0
  0
ENDSEC
  0
SECTION
  2
ENTITIES
  0
LINE
  5
3C
  8
1
 10
140.52294085029351
 20
68.345374782192735
 30
0.0
 11
161.20245782334089
 21
68.345374782192735
 31
0.0
  0
LINE
  5
3D
  8
0
 10
151.8626993368172
 20
71.699476748442422
 30
0.0
 11
151.8626993368172
 21
76.282628715386281
 31
0.0
  0
LINE
  5
3E
  8
0
 10
151.8626993368172
 20
60.408120848998728
 30
0.0
 11
151.8626993368172
 21
64.991272815943034
 31
0.0
  0
LINE
  5
3F
  8
0
 10
149.8626993368172
 20
71.699476748442422
 30
0.0
 11
149.8626993368172
 21
76.282628715386281
 31
0.0
  0
LINE
  5
40
  8
0
 10
149.8626993368172
 20
60.408120848998728
 30
0.0
 11
149.8626993368172
 21
64.991272815943034
 31
0.0
  0
CIRCLE
  5
41
  8
0
 10
150.8626993368172
 20
68.345374782192735
 30
0.0
 40
8.0000000000000142
  0
CIRCLE
  5
42
  8
3
 10
150.8626993368172
 20
68.345374782192735
 30
0.0
 40
7.1880000000000228
  0
CIRCLE
  5
43
  8
0
 10
150.8626993368172
 20
68.345374782192735
 30
0.0
 40
3.500000000000028
  0
LINE
  5
44
  8
1
 10
150.8626993368172
 20
58.005616295668958
 30
0.0
 11
150.8626993368172
 21
78.685133268716456
 31
0.0
  0
CIRCLE
  5
45
  8
3
 10
34.843145635888312
 20
68.345374782192735
 30
0.0
 40
5.3239999999999981
  0
CIRCLE
  5
46
  8
0
 10
34.843145635888312
 20
68.345374782192735
 30
0.0
 40
6.0000000000000071
  0
LINE
  5
4D
  8
1
 10
34.843145635888312
 20
58.005616295668958
 30
0.0
 11
34.843145635888312
 21
78.685133268716456
 31
0.0
  0
CIRCLE
  5
4E
  8
3
 10
34.843145635888312
 20
68.345374782192735
 30
0.0
 40
7.1880000000000157
  0
CIRCLE
  5
4F
  8
0
 10
34.843145635888312
 20
68.345374782192735
 30
0.0
 40
8.0000000000000142
  0
LINE
  5
50
  8
1
 10
45.182904122411969
 20
68.345374782192735
 30
0.0
 11
24.503387149364649
 21
68.345374782192735
 31
0.0
  0
LINE
  5
51
  8
3
 10
76.972828394593606
 20
61.157374782192733
 30
0.0
 11
109.1968283945936
 21
61.157374782192718
 31
0.0
  0
LINE
  5
52
  8
0
 10
114.0848283945936
 20
71.845374782192735
 30
0.0
 11
109.5848283945936
 21
71.845374782192735
 31
0.0
  0
LINE
  5
53
  8
0
 10
114.5848283945936
 20
71.345374782192735
 30
0.0
 11
114.0848283945936
 21
71.845374782192735
 31
0.0
  0
LINE
  5
54
  8
0
 10
114.5848283945936
 20
65.345374782192735
 30
0.0
 11
114.0848283945936
 21
64.845374782192735
 31
0.0
  0
LINE
  5
55
  8
0
 10
114.0848283945936
 20
64.845374782192735
 30
0.0
 11
109.5848283945936
 21
64.845374782192749
 31
0.0
  0
LINE
  5
56
  8
0
 10
114.5848283945936
 20
71.345374782192735
 30
0.0
 11
114.5848283945936
 21
65.345374782192735
 31
0.0
  0
LINE
  5
57
  8
3
 10
76.972828394593606
 20
75.533374782192752
 30
0.0
 11
109.1968283945936
 21
75.533374782192752
 31
0.0
  0
LINE
  5
58
  8
0
 10
109.5848283945936
 20
61.545374782192752
 30
0.0
 11
108.3848283945936
 21
60.345374782192742
 31
0.0
  0
LINE
  5
59
  8
0
 10
108.3848283945936
 20
76.345374782192735
 30
0.0
 11
109.5848283945936
 21
75.145374782192746
 31
0.0
  0
LINE
  5
5A
  8
0
 10
76.584828394593615
 20
75.145374782192746
 30
0.0
 11
77.784828394593603
 21
76.345374782192735
 31
0.0
  0
LINE
  5
5B
  8
0
 10
76.584828394593615
 20
61.545374782192752
 30
0.0
 11
77.784828394593603
 21
60.345374782192742
 31
0.0
  0
LINE
  5
5C
  8
0
 10
108.3848283945936
 20
60.345374782192742
 30
0.0
 11
77.784828394593603
 21
60.345374782192742
 31
0.0
  0
LINE
  5
5D
  8
0
 10
109.5848283945936
 20
75.145374782192746
 30
0.0
 11
109.5848283945936
 21
61.545374782192738
 31
0.0
  0
LINE
  5
5E
  8
0
 10
77.784828394593603
 20
76.345374782192735
 30
0.0
 11
108.3848283945936
 21
76.345374782192735
 31
0.0
  0
LINE
  5
5F
  8
0
 10
76.584828394593615
 20
61.545374782192752
 30
0.0
 11
76.584828394593615
 21
75.145374782192746
 31
0.0
  0
LINE
  5
60
  8
1
 10
74.084828394593615
 20
68.345374782192735
 30
0.0
 11
117.0848283945936
 21
68.345374782192735
 31
0.0
  0
LINE
  5
61
  8
1
 10
74.084828394593615
 20
104.55013931423829
 30
0.0
 11
117.0848283945936
 21
104.55013931423829
 31
0.0
  0
LINE
  5
62
  8
0
 10
76.584828394593615
 20
97.750139314238325
 30
0.0
 11
76.584828394593615
 21
111.35013931423831
 31
0.0
  0
LINE
  5
63
  8
0
 10
77.784828394593603
 20
112.55013931423819
 30
0.0
 11
108.3848283945936
 21
112.55013931423819
 31
0.0
  0
LINE
  5
64
  8
0
 10
109.5848283945936
 20
111.35013931423831
 30
0.0
 11
109.5848283945936
 21
105.55013931423829
 31
0.0
  0
LINE
  5
65
  8
0
 10
108.3848283945936
 20
96.550139314238294
 30
0.0
 11
77.784828394593603
 21
96.550139314238294
 31
0.0
  0
LINE
  5
66
  8
0
 10
76.584828394593615
 20
97.750139314238325
 30
0.0
 11
77.784828394593603
 21
96.550139314238294
 31
0.0
  0
LINE
  5
67
  8
0
 10
76.584828394593615
 20
111.35013931423831
 30
0.0
 11
77.784828394593603
 21
112.55013931423819
 31
0.0
  0
LINE
  5
68
  8
0
 10
108.3848283945936
 20
112.55013931423819
 30
0.0
 11
109.5848283945936
 21
111.35013931423831
 31
0.0
  0
LINE
  5
69
  8
0
 10
109.5848283945936
 20
97.750139314238325
 30
0.0
 11
108.3848283945936
 21
96.550139314238294
 31
0.0
  0
LINE
  5
6A
  8
3
 10
76.972828394593606
 20
111.7381393142383
 30
0.0
 11
109.1968283945936
 21
111.7381393142383
 31
0.0
  0
LINE
  5
6B
  8
0
 10
114.5848283945936
 20
107.55013931423829
 30
0.0
 11
114.5848283945936
 21
101.55013931423829
 31
0.0
  0
LINE
  5
6C
  8
0
 10
114.0848283945936
 20
101.05013931423819
 30
0.0
 11
109.5848283945936
 21
101.05013931423829
 31
0.0
  0
LINE
  5
6D
  8
0
 10
114.5848283945936
 20
101.55013931423829
 30
0.0
 11
114.0848283945936
 21
101.05013931423819
 31
0.0
  0
LINE
  5
6E
  8
0
 10
114.5848283945936
 20
107.55013931423829
 30
0.0
 11
114.0848283945936
 21
108.05013931423829
 31
0.0
  0
LINE
  5
6F
  8
0
 10
114.0848283945936
 20
108.05013931423829
 30
0.0
 11
109.5848283945936
 21
108.05013931423829
 31
0.0
  0
LINE
  5
70
  8
3
 10
76.972828394593606
 20
97.362139314238291
 30
0.0
 11
109.1968283945936
 21
97.362139314238291
 31
0.0
  0
LINE
  5
71
  8
1
 10
74.084828394593615
 20
33.226260803339322
 30
0.0
 11
117.0848283945936
 21
33.226260803339322
 31
0.0
  0
LINE
  5
72
  8
0
 10
76.584828394593615
 20
26.426260803339339
 30
0.0
 11
76.584828394593615
 21
40.026260803339319
 31
0.0
  0
LINE
  5
73
  8
0
 10
77.784828394593603
 20
41.226260803339308
 30
0.0
 11
108.3848283945936
 21
41.226260803339308
 31
0.0
  0
LINE
  5
74
  8
0
 10
109.5848283945936
 20
40.026260803339319
 30
0.0
 11
109.5848283945936
 21
34.226260803339329
 31
0.0
  0
LINE
  5
75
  8
0
 10
108.3848283945936
 20
25.226260803339319
 30
0.0
 11
77.784828394593603
 21
25.226260803339319
 31
0.0
  0
LINE
  5
76
  8
0
 10
76.584828394593615
 20
26.426260803339339
 30
0.0
 11
77.784828394593603
 21
25.226260803339319
 31
0.0
  0
LINE
  5
77
  8
0
 10
76.584828394593615
 20
40.026260803339319
 30
0.0
 11
77.784828394593603
 21
41.226260803339308
 31
0.0
  0
LINE
  5
78
  8
0
 10
108.3848283945936
 20
41.226260803339308
 30
0.0
 11
109.5848283945936
 21
40.026260803339319
 31
0.0
  0
LINE
  5
79
  8
0
 10
109.5848283945936
 20
26.426260803339339
 30
0.0
 11
108.3848283945936
 21
25.226260803339319
 31
0.0
  0
LINE
  5
7A
  8
3
 10
76.972828394593606
 20
40.414260803339332
 30
0.0
 11
109.1968283945936
 21
40.414260803339332
 31
0.0
  0
LINE
  5
7B
  8
0
 10
108.0848283945936
 20
34.226260803339329
 30
0.0
 11
108.0848283945936
 21
32.226260803339308
 31
0.0
  0
LINE
  5
7C
  8
0
 10
114.5848283945936
 20
36.226260803339322
 30
0.0
 11
114.5848283945936
 21
30.226260803339319
 31
0.0
  0
LINE
  5
7D
  8
0
 10
114.0848283945936
 20
29.726260803339319
 30
0.0
 11
109.5848283945936
 21
29.72626080333934
 31
0.0
  0
LINE
  5
7E
  8
0
 10
114.5848283945936
 20
30.226260803339319
 30
0.0
 11
114.0848283945936
 21
29.726260803339319
 31
0.0
  0
LINE
  5
7F
  8
0
 10
114.5848283945936
 20
36.226260803339322
 30
0.0
 11
114.0848283945936
 21
36.726260803339329
 31
0.0
  0
LINE
  5
80
  8
0
 10
114.0848283945936
 20
36.726260803339329
 30
0.0
 11
109.5848283945936
 21
36.726260803339329
 31
0.0
  0
LINE
  5
81
  8
3
 10
76.972828394593606
 20
26.03826080333932
 30
0.0
 11
109.1968283945936
 21
26.038260803339309
 31
0.0
  0
LINE
  5
82
  8
0
 10
77.784828394593589
 20
112.55013931423819
 30
0.0
 11
77.784828394593589
 21
96.550139314238294
 31
0.0
  0
LINE
  5
83
  8
0
 10
108.3848283945936
 20
112.55013931423819
 30
0.0
 11
108.3848283945936
 21
105.55013931423829
 31
0.0
  0
LINE
  5
84
  8
0
 10
77.784828394593603
 20
76.345374782192721
 30
0.0
 11
77.784828394593603
 21
60.345374782192742
 31
0.0
  0
LINE
  5
85
  8
0
 10
108.3848283945936
 20
76.345374782192721
 30
0.0
 11
108.3848283945936
 21
60.345374782192742
 31
0.0
  0
LINE
  5
86
  8
0
 10
108.0848283945936
 20
34.226260803339329
 30
0.0
 11
109.5848283945936
 21
34.226260803339322
 31
0.0
  0
LINE
  5
87
  8
0
 10
108.0848283945936
 20
32.226260803339322
 30
0.0
 11
109.5848283945936
 21
32.226260803339322
 31
0.0
  0
LINE
  5
88
  8
0
 10
109.5848283945936
 20
32.226260803339322
 30
0.0
 11
109.5848283945936
 21
26.426260803339328
 31
0.0
  0
LINE
  5
89
  8
0
 10
77.784828394593603
 20
41.226260803339308
 30
0.0
 11
77.784828394593603
 21
25.226260803339319
 31
0.0
  0
LINE
  5
8A
  8
0
 10
108.3848283945936
 20
41.226260803339308
 30
0.0
 11
108.3848283945936
 21
34.226260803339329
 31
0.0
  0
LINE
  5
8B
  8
0
 10
108.3848283945936
 20
32.226260803339308
 30
0.0
 11
108.3848283945936
 21
25.226260803339319
 31
0.0
  0
LINE
  5
8C
  8
0
 10
108.0848283945936
 20
103.55013931423829
 30
0.0
 11
109.5848283945936
 21
103.55013931423829
 31
0.0
  0
LINE
  5
8D
  8
0
 10
108.0848283945936
 20
105.55013931423829
 30
0.0
 11
109.5848283945936
 21
105.55013931423829
 31
0.0
  0
LINE
  5
8E
  8
0
 10
108.0848283945936
 20
105.55013931423829
 30
0.0
 11
108.0848283945936
 21
103.55013931423829
 31
0.0
  0
LINE
  5
8F
  8
0
 10
108.3848283945936
 20
103.55013931423829
 30
0.0
 11
108.3848283945936
 21
96.550139314238294
 31
0.0
  0
LINE
  5
90
  8
0
 10
109.5848283945936
 20
103.55013931423829
 30
0.0
 11
109.5848283945936
 21
97.750139314238297
 31
0.0
  0
LINE
  5
EB
  8
0
 10
37.843145633443783
 20
70.07742558835298
 30
0.0
 11
37.843145633443783
 21
66.613323973215302
 31
0.0
  0
LINE
  5
EC
  8
0
 10
37.843145633441956
 20
66.613323976032916
 30
0.0
 11
34.84314563344379
 21
64.881273168463849
 31
0.0
  0
LINE
  5
ED
  8
0
 10
34.843145635886678
 20
64.88127316987584
 30
0.0
 11
31.843145635886689
 21
66.613323977443983
 31
0.0
  0
LINE
  5
EE
  8
0
 10
31.843145638329592
 20
66.613323976034735
 30
0.0
 11
31.843145638329592
 21
70.077425591172414
 31
0.0
  0
LINE
  5
EF
  8
0
 10
31.843145638329592
 20
70.077425588352526
 30
0.0
 11
34.843145638329588
 21
71.809476395921592
 31
0.0
  0
LINE
  5
F0
  8
0
 10
34.843145635886678
 20
71.809476394509602
 30
0.0
 11
37.843145635886692
 21
70.077425586941445
 31
0.0
  0
TEXT
  5
192
  8
0
 62
     3
 10
0.0
 20
0.0
 30
0.0
 40
10.0
  1
SCD16
  7
STANDARD1
  0
ENDSEC
  0
EOF
