  0
SECTION
  2
HEADER
  9
$ACADVER
  1
AC1009
  9
$INSBASE
 10
0.0
 20
0.0
 30
0.0
  9
$EXTMIN
 10
0.0
 20
-2.960436562073669
 30
0.0
  9
$EXTMAX
 10
236.27353540536089
 20
186.33331506488841
 30
0.0
  9
$LIMMIN
 10
0.0
 20
0.0
  9
$LIMMAX
 10
375.0
 20
270.0
  9
$ORTHOMODE
 70
     0
  9
$REGENMODE
 70
     1
  9
$FILLMODE
 70
     1
  9
$QTEXTMODE
 70
     0
  9
$MIRRTEXT
 70
     0
  9
$DRAGMODE
 70
     2
  9
$LTSCALE
 40
5.0
  9
$OSMODE
 70
    55
  9
$ATTMODE
 70
     1
  9
$TEXTSIZE
 40
0.2
  9
$TRACEWID
 40
0.05
  9
$TEXTSTYLE
  7
STANDARD
  9
$CLAYER
  8
0
  9
$CELTYPE
  6
BYLAYER
  9
$CECOLOR
 62
   256
  9
$DIMSCALE
 40
1.0
  9
$DIMASZ
 40
3.0
  9
$DIMEXO
 40
2.0
  9
$DIMDLI
 40
0.38
  9
$DIMRND
 40
0.0
  9
$DIMDLE
 40
0.0
  9
$DIMEXE
 40
2.0
  9
$DIMTP
 40
0.0
  9
$DIMTM
 40
0.0
  9
$DIMTXT
 40
3.2000000000000002
  9
$DIMCEN
 40
0.0
  9
$DIMTSZ
 40
0.0
  9
$DIMTOL
 70
     0
  9
$DIMLIM
 70
     0
  9
$DIMTIH
 70
     0
  9
$DIMTOH
 70
     0
  9
$DIMSE1
 70
     0
  9
$DIMSE2
 70
     0
  9
$DIMTAD
 70
     1
  9
$DIMZIN
 70
     0
  9
$DIMBLK
  1

  9
$DIMASO
 70
     1
  9
$DIMSHO
 70
     0
  9
$DIMPOST
  1

  9
$DIMAPOST
  1

  9
$DIMALT
 70
     0
  9
$DIMALTD
 70
     2
  9
$DIMALTF
 40
25.399999999999999
  9
$DIMLFAC
 40
1.0
  9
$DIMTOFL
 70
     0
  9
$DIMTVP
 40
1.6000000000000001
  9
$DIMTIX
 70
     1
  9
$DIMSOXD
 70
     0
  9
$DIMSAH
 70
     0
  9
$DIMBLK1
  1

  9
$DIMBLK2
  1

  9
$DIMSTYLE
  2
STANDARD
  9
$DIMCLRD
 70
     0
  9
$DIMCLRE
 70
     0
  9
$DIMCLRT
 70
     0
  9
$DIMTFAC
 40
1.0
  9
$DIMGAP
 40
0.09
  9
$LUNITS
 70
     2
  9
$LUPREC
 70
     4
  9
$SKETCHINC
 40
0.1
  9
$FILLETRAD
 40
2.0
  9
$AUNITS
 70
     0
  9
$AUPREC
 70
     0
  9
$MENU
  1
E:\r13\win\SUPPORT\ACAD
  9
$ELEVATION
 40
0.0
  9
$PELEVATION
 40
0.0
  9
$THICKNESS
 40
0.0
  9
$LIMCHECK
 70
     0
  9
$BLIPMODE
 70
     0
  9
$CHAMFERA
 40
0.0
  9
$CHAMFERB
 40
0.0
  9
$SKPOLY
 70
     0
  9
$TDCREATE
 40
2449840.6069675931
  9
$TDUPDATE
 40
2456598.4782127668
  9
$TDINDWG
 40
0.0077023611
  9
$TDUSRTIMER
 40
0.0077023611
  9
$USRTIMER
 70
     1
  9
$ANGBASE
 50
0.0
  9
$ANGDIR
 70
     0
  9
$PDMODE
 70
     0
  9
$PDSIZE
 40
0.0
  9
$PLINEWID
 40
0.0
  9
$COORDS
 70
     1
  9
$SPLFRAME
 70
     0
  9
$SPLINETYPE
 70
     6
  9
$SPLINESEGS
 70
     8
  9
$ATTDIA
 70
     0
  9
$ATTREQ
 70
     1
  9
$HANDLING
 70
     1
  9
$HANDSEED
  5
650
  9
$SURFTAB1
 70
     6
  9
$SURFTAB2
 70
     6
  9
$SURFTYPE
 70
     6
  9
$SURFU
 70
     6
  9
$SURFV
 70
     6
  9
$UCSNAME
  2

  9
$UCSORG
 10
0.0
 20
0.0
 30
0.0
  9
$UCSXDIR
 10
1.0
 20
0.0
 30
0.0
  9
$UCSYDIR
 10
0.0
 20
1.0
 30
0.0
  9
$PUCSNAME
  2

  9
$PUCSORG
 10
0.0
 20
0.0
 30
0.0
  9
$PUCSXDIR
 10
1.0
 20
0.0
 30
0.0
  9
$PUCSYDIR
 10
0.0
 20
1.0
 30
0.0
  9
$USERI1
 70
     0
  9
$USERI2
 70
     1
  9
$USERI3
 70
     1
  9
$USERI4
 70
     0
  9
$USERI5
 70
     0
  9
$USERR1
 40
0.0
  9
$USERR2
 40
0.0
  9
$USERR3
 40
0.0
  9
$USERR4
 40
0.0
  9
$USERR5
 40
0.0
  9
$WORLDVIEW
 70
     1
  9
$SHADEDGE
 70
     3
  9
$SHADEDIF
 70
    70
  9
$TILEMODE
 70
     1
  9
$MAXACTVP
 70
    16
  9
$PLIMCHECK
 70
     0
  9
$PEXTMIN
 10
1.0000000000000000E+020
 20
1.0000000000000000E+020
 30
1.0000000000000000E+020
  9
$PEXTMAX
 10
-1.0000000000000000E+020
 20
-1.0000000000000000E+020
 30
-1.0000000000000000E+020
  9
$PLIMMIN
 10
0.0
 20
0.0
  9
$PLIMMAX
 10
12.0
 20
9.0
  9
$UNITMODE
 70
     0
  9
$VISRETAIN
 70
     0
  9
$PLINEGEN
 70
     0
  9
$PSLTSCALE
 70
     0
  0
ENDSEC
  0
SECTION
  2
TABLES
  0
TABLE
  2
VPORT
 70
     1
  0
VPORT
  2
*ACTIVE
 70
     0
 10
0.0
 20
0.0
 11
1.0
 21
1.0
 12
187.49427839065231
 22
194.785247995265
 13
0.0
 23
0.0
 14
10.0
 24
10.0
 15
10.0
 25
10.0
 16
0.0
 26
0.0
 36
1.0
 17
0.0
 27
0.0
 37
0.0
 40
399.3463374158577
 41
1.7807262569832401
 42
50.0
 43
0.0
 44
0.0
 50
0.0
 51
0.0
 71
     0
 72
   500
 73
     1
 74
     0
 75
     0
 76
     0
 77
     0
 78
     0
  0
ENDTAB
  0
TABLE
  2
LTYPE
 70
     4
  0
LTYPE
  2
CONTINUOUS
 70
     0
  3
Solid Line
 72
    65
 73
     0
 40
0.0
  0
LTYPE
  2
CENTER
 70
     0
  3
____ _ ____ _ ____ _ ____ _ ____ _ ____ _ ____
 72
    65
 73
     4
 40
2.0
 49
1.25
 49
-0.25
 49
0.25
 49
-0.25
  0
LTYPE
  2
HIDDEN
 70
     0
  3
_ _ _ _ _ _ _ _ _ _ _ _ _ _ _ _ _ _ _ _ _ _ _
 72
    65
 73
     2
 40
0.375
 49
0.25
 49
-0.125
  0
LTYPE
  2
PHANTOM2
 70
     0
  3
___ _ _ ___ _ _ ___ _ _ ___ _ _
 72
    65
 73
     6
 40
1.25
 49
0.625
 49
-0.125
 49
0.125
 49
-0.125
 49
0.125
 49
-0.125
  0
ENDTAB
  0
TABLE
  2
LAYER
 70
     5
  0
LAYER
  2
0
 70
     0
 62
     7
  6
CONTINUOUS
  0
LAYER
  2
1
 70
     0
 62
     1
  6
CENTER
  0
LAYER
  2
2
 70
     0
 62
     2
  6
HIDDEN
  0
LAYER
  2
3
 70
     0
 62
     3
  6
CONTINUOUS
  0
LAYER
  2
DEFPOINTS
 70
     0
 62
     7
  6
CONTINUOUS
  0
ENDTAB
  0
TABLE
  2
STYLE
 70
     2
  0
STYLE
  2
STANDARD
 70
     0
 40
0.0
 41
1.0
 50
0.0
 71
     0
 42
0.2
  3
simplex.shx
  4
bigfont.shx
  0
STYLE
  2
STANDARD1
 70
     0
 40
0.0
 41
1.0
 50
0.0
 71
     0
 42
3.0
  3
txt
  4

  0
ENDTAB
  0
TABLE
  2
VIEW
 70
     1
  0
VIEW
  2
ALL
 70
     0
 40
270.0
 10
220.99159663865549
 20
135.0
 41
0.0
 11
0.0
 21
0.0
 31
1.0
 12
0.0
 22
0.0
 32
0.0
 42
0.0
 43
0.0
 44
0.0
 50
0.0
 71
     0
  0
ENDTAB
  0
TABLE
  2
UCS
 70
     0
  0
ENDTAB
  0
TABLE
  2
APPID
 70
    28
  0
APPID
  2
ACAD
 70
     0
  0
APPID
  2
DCO15
 70
     0
  0
APPID
  2
GENIUS_GENOREF_13
 70
     0
  0
APPID
  2
GENIUS_GENOENT_13
 70
     0
  0
APPID
  2
GENIUS_GENBH_13
 70
     0
  0
APPID
  2
GENIUS_GENOBJ_13
 70
     0
  0
APPID
  2
GENIUS_GENODEF_13
 70
     0
  0
APPID
  2
GENIUS_GENOLIS_13
 70
     0
  0
APPID
  2
GENIUS_GENOBJ-NBEHI-BHF_13
 70
     0
  0
APPID
  2
GENIUS_GENOBJ-NBEHI-BHB_13
 70
     0
  0
APPID
  2
GENIUS_GENOBJ-F-PART_13
 70
     0
  0
APPID
  2
GENIUS_GEFSTDP_13
 70
     0
  0
APPID
  2
GENIUS_GENOBJ-N-RSSYM_13
 70
     0
  0
APPID
  2
GENIUS_GENSYMENT_13
 70
     0
  0
APPID
  2
GENIUS_GENOBJ-N-TIT_13
 70
     0
  0
APPID
  2
GENIUS_GENTITLE_13
 70
     0
  0
APPID
  2
GENIUS_GENZVEED_13
 70
     0
  0
APPID
  2
GENIUS_GENOBJ-N-LEADER_13
 70
     0
  0
APPID
  2
GENIUS_GENOBJ-N-FIL_13
 70
     0
  0
APPID
  2
GENIUS_GENOBJ-N-SEC_13
 70
     0
  0
APPID
  2
GENIUS_GENOBJ-N-CRS_13
 70
     0
  0
APPID
  2
GENIUS_GENOBJ-N-ZOO_13
 70
     0
  0
APPID
  2
GENIUS_GENZOO_13
 70
     0
  0
APPID
  2
GENIUS_GENOBJ-F-TOL_13
 70
     0
  0
APPID
  2
GENIUS_GENFIL_13
 70
     0
  0
APPID
  2
GENIUS_GENOBJ-N-CHA_13
 70
     0
  0
APPID
  2
ACAD_MLEADERVER
 70
     0
  0
APPID
  2
ACAD_NAV_VCDISPLAY
 70
     0
  0
ENDTAB
  0
TABLE
  2
DIMSTYLE
 70
     1
  0
DIMSTYLE
  2
STANDARD
 70
     0
  3

  4

  5

  6

  7

 40
1.0
 41
0.18
 42
0.0625
 43
0.38
 44
0.18
 45
0.0
 46
0.0
 47
0.0
 48
0.0
140
0.18
141
0.09
142
0.0
143
25.399999999999999
144
1.0
145
0.0
146
1.0
147
0.09
 71
     0
 72
     0
 73
     1
 74
     1
 75
     0
 76
     0
 77
     0
 78
     0
170
     0
171
     2
172
     0
173
     0
174
     0
175
     0
176
     0
177
     0
178
     0
  0
ENDTAB
  0
ENDSEC
  0
SECTION
  2
BLOCKS
  0
BLOCK
  8
0
  2
$MODEL_SPACE
 70
     0
 10
0.0
 20
0.0
 30
0.0
  3
$MODEL_SPACE
  1

  0
ENDBLK
  5
15A
  8
0
  0
BLOCK
 67
     1
  8
0
  2
$PAPER_SPACE
 70
     0
 10
0.0
 20
0.0
 30
0.0
  3
$PAPER_SPACE
  1

  0
ENDBLK
  5
158
 67
     1
  8
0
  0
ENDSEC
  0
SECTION
  2
ENTITIES
  0
CIRCLE
  5
2C0
  8
0
 10
164.27353540536089
 20
44.833315064888318
 30
0.0
 40
2.458499999999999
  0
CIRCLE
  5
2C1
  8
3
 10
164.27353540536089
 20
44.833315064888318
 30
0.0
 40
3.0
  0
CIRCLE
  5
2C2
  8
0
 10
101.2735354053609
 20
44.833315064888353
 30
0.0
 40
10.5
  0
ARC
  5
2C3
  8
0
 10
164.27353540536089
 20
44.833315064888318
 30
0.0
 40
7.5
 50
240.66723785122261
 51
119.33276214877731
  0
ARC
  5
2C4
  8
0
 10
101.2735354053609
 20
44.833315064888353
 30
0.0
 40
12.0
 50
53.997408353645959
 51
306.00259164635401
  0
LINE
  5
2C5
  8
0
 10
114.8301177837285
 20
37.404882070790222
 30
0.0
 11
156.31295153478149
 21
39.312138794976711
 31
0.0
  0
ARC
  5
2C6
  8
0
 10
115.3812597037024
 20
25.4175453113576
 30
0.0
 40
12.0
 50
92.63243486898655
 51
126.0025916463473
  0
ARC
  5
2C7
  8
0
 10
156.6803794814308
 20
31.320580955354789
 30
0.0
 40
8.0
 50
60.667237851227107
 51
92.63243486898655
  0
ARC
  5
2C8
  8
0
 10
156.6803794814308
 20
58.346049174421893
 30
0.0
 40
8.0
 50
267.36756513101341
 51
299.33276214877287
  0
ARC
  5
2C9
  8
0
 10
115.3812597037024
 20
64.24908481841922
 30
0.0
 40
12.0
 50
233.9974083536527
 51
267.36756513101341
  0
LINE
  5
2CA
  8
0
 10
114.8301177837285
 20
52.261748058986427
 30
0.0
 11
156.31295153478149
 21
50.354491334799938
 31
0.0
  0
ARC
  5
2CB
  8
2
 10
164.27353540536089
 20
44.833315064888318
 30
0.0
 40
7.5
 50
119.33276214877731
 51
240.66723785122261
  0
LINE
  5
2CD
  8
1
 10
164.27353540536089
 20
57.333315064888268
 30
0.0
 11
164.27353540536089
 21
32.333315064888332
 31
0.0
  0
LINE
  5
2CE
  8
1
 10
101.2735354053609
 20
61.833315064888332
 30
0.0
 11
101.2735354053609
 21
27.833315064888328
 31
0.0
  0
LINE
  5
2CF
  8
1
 10
176.77353540536089
 20
44.833315064888318
 30
0.0
 11
84.273535405360917
 21
44.833315064888318
 31
0.0
  0
ARC
  5
2DE
  8
0
 10
91.773535405447319
 20
113.3333150648884
 30
0.0
 40
2.5
 50
89.999999999999986
 51
180.0
  0
ARC
  5
2DF
  8
0
 10
88.273535405360917
 20
109.5583978472531
 30
0.0
 40
2.5
 50
0.0
 51
43.341758227220161
  0
ARC
  5
2E0
  8
0
 10
92.273535405360903
 20
113.3333150648884
 30
0.0
 40
3.0
 50
180.0
 51
223.3417582272231
  0
LINE
  5
2E1
  8
2
 10
161.8150354053609
 20
120.8333150648884
 30
0.0
 11
160.8150354053609
 21
121.8333150648883
 31
0.0
  0
LINE
  5
2E2
  8
2
 10
166.73203540536079
 20
120.8333150648884
 30
0.0
 11
167.7320354053609
 21
121.8333150648883
 31
0.0
  0
LINE
  5
2E3
  8
2
 10
166.73203540536079
 20
120.8333150648885
 30
0.0
 11
166.73203540536079
 21
110.8333150648882
 31
0.0
  0
LINE
  5
2E4
  8
2
 10
161.8150354053609
 20
120.8333150648884
 30
0.0
 11
161.8150354053609
 21
110.8333150648884
 31
0.0
  0
LINE
  5
2E5
  8
2
 10
167.27353540536089
 20
121.37481506488839
 30
0.0
 11
167.27353540536089
 21
110.8333150648884
 31
0.0
  0
LINE
  5
2E6
  8
2
 10
161.27353540536089
 20
121.3748150648883
 30
0.0
 11
161.27353540536089
 21
110.8333150648885
 31
0.0
  0
ARC
  5
2E7
  8
0
 10
154.77353540536089
 20
117.8333150648884
 30
0.0
 40
2.0
 50
270.0
 51
0.0
  0
ARC
  5
2E8
  8
0
 10
114.2735354053609
 20
108.33331506488921
 30
0.0
 40
2.5
 50
89.999999999998337
 51
178.21084488639559
  0
LINE
  5
2E9
  8
1
 10
164.27353540536089
 20
126.8333150648883
 30
0.0
 11
164.27353540536089
 21
105.8333150648884
 31
0.0
  0
ARC
  5
2EA
  8
0
 10
170.27353540536089
 20
112.3333150648883
 30
0.0
 40
1.5
 50
270.0
 51
0.0
  0
LINE
  5
2EB
  8
0
 10
171.77353540536089
 20
121.8333150648884
 30
0.0
 11
171.77353540536089
 21
112.3333150648882
 31
0.0
  0
LINE
  5
2EC
  8
0
 10
156.77353540536089
 20
121.8333150648884
 30
0.0
 11
156.77353540536089
 21
117.8333150648884
 31
0.0
  0
LINE
  5
2ED
  8
0
 10
170.27353540536089
 20
110.8333150648882
 30
0.0
 11
90.773535405360917
 21
110.8333150648896
 31
0.0
  0
LINE
  5
2EE
  8
0
 10
90.773535405360917
 20
109.5583978472531
 30
0.0
 11
90.773535405360917
 21
108.4106653340781
 31
0.0
  0
LINE
  5
2EF
  8
0
 10
158.59942770023321
 20
115.8333150648884
 30
0.0
 11
91.773535405447319
 21
115.8333150648884
 31
0.0
  0
LINE
  5
2F0
  8
1
 10
101.2735354053609
 20
120.8333150648884
 30
0.0
 11
101.2735354053609
 21
91.833315064888325
 31
0.0
  0
CIRCLE
  5
3A7
  8
0
 10
101.2735354053609
 20
44.833315064888467
 30
0.0
 40
7.0710678118655323
  0
LINE
  5
3CD
  8
2
 10
108.34460321722641
 20
96.833315064888211
 30
0.0
 11
108.34460321722629
 21
115.8333150648884
 31
0.0
  0
LINE
  5
3CE
  8
2
 10
94.202467593495385
 20
96.833315064888552
 30
0.0
 11
94.202467593495385
 21
115.8333150648884
 31
0.0
  0
ARC
  5
3CF
  8
2
 10
104.80906931129419
 20
94.851082017859099
 30
0.0
 40
4.0533008588963302
 50
29.277613190288641
 51
150.72238680971131
  0
ARC
  5
3D0
  8
2
 10
97.738001499420989
 20
94.851082017847858
 30
0.0
 40
4.0533008588963302
 50
29.277613190288641
 51
150.72238680971131
  0
LINE
  5
3D1
  8
0
 10
91.773535405360917
 20
107.8333150648885
 30
0.0
 11
90.773535405360917
 21
108.4106653340781
 31
0.0
  0
LINE
  5
3D2
  8
0
 10
110.7735354053609
 20
107.8333150648823
 30
0.0
 11
111.774754185717
 21
108.4113689972384
 31
0.0
  0
LINE
  5
3E1
  8
2
 10
101.2735354053609
 20
96.833315064888325
 30
0.0
 11
101.2735354053609
 21
115.8333150648884
 31
0.0
  0
LINE
  5
3FA
  8
0
 10
108.0679034586537
 20
44.556615306316083
 30
0.0
 11
106.0520496007591
 21
42.540761448421328
 31
0.0
  0
LINE
  5
3FB
  8
0
 10
94.479167352068202
 20
44.556615306315841
 30
0.0
 11
96.495021209962488
 21
42.540761448421442
 31
0.0
  0
ARC
  5
3FC
  8
0
 10
101.2735354053608
 20
44.833315064888687
 30
0.0
 40
5.2999999999999989
 50
295.6299617544629
 51
334.3700382455371
  0
ARC
  5
3FD
  8
0
 10
101.2735354053608
 20
44.833315064888687
 30
0.0
 40
5.2999999999999989
 50
25.62996175445171
 51
64.37003824555002
  0
ARC
  5
3FE
  8
0
 10
101.2735354053608
 20
44.833315064888687
 30
0.0
 40
5.2999999999999989
 50
115.6299617544537
 51
154.37003824554461
  0
ARC
  5
3FF
  8
0
 10
101.2735354053608
 20
44.833315064888687
 30
0.0
 40
5.2999999999999989
 50
205.6299617544592
 51
244.37003824554
  0
LINE
  5
400
  8
0
 10
106.0520496007598
 20
47.125868681355087
 30
0.0
 11
108.0679034586537
 21
45.110014823461022
 31
0.0
  0
LINE
  5
401
  8
0
 10
96.49502120996226
 20
47.125868681355307
 30
0.0
 11
94.479167352068202
 21
45.11001482346137
 31
0.0
  0
LINE
  5
402
  8
0
 10
103.5660890218282
 20
40.05480086949035
 30
0.0
 11
101.55023516393339
 21
38.038947011595489
 31
0.0
  0
LINE
  5
403
  8
0
 10
98.9809817888937
 20
40.054800869490229
 30
0.0
 11
100.9968356467883
 21
38.038947011595489
 31
0.0
  0
LINE
  5
404
  8
0
 10
100.9968356467881
 20
51.62768311818116
 30
0.0
 11
98.980981788894255
 21
49.611829260287323
 31
0.0
  0
LINE
  5
405
  8
0
 10
101.55023516393361
 20
51.62768311818116
 30
0.0
 11
103.5660890218273
 21
49.611829260287443
 31
0.0
  0
ARC
  5
406
  8
0
 10
101.2735354053609
 20
44.833315064888353
 30
0.0
 40
6.7999999999999989
 50
267.6679254941082
 51
272.3320745058902
  0
ARC
  5
407
  8
0
 10
101.2735354053609
 20
44.833315064888353
 30
0.0
 40
6.7999999999999989
 50
177.66792549410661
 51
182.33207450589009
  0
ARC
  5
408
  8
0
 10
101.2735354053609
 20
44.833315064888353
 30
0.0
 40
6.7999999999999989
 50
87.667925494108147
 51
92.332074505893473
  0
ARC
  5
409
  8
0
 10
101.2735354053609
 20
44.833315064888353
 30
0.0
 40
6.7999999999999989
 50
357.66792549411309
 51
2.3320745058901369
  0
LINE
  5
410
  8
0
 10
109.7735354053609
 20
96.833315064888097
 30
0.0
 11
92.773535405360917
 21
96.833315064888552
 31
0.0
  0
LINE
  5
411
  8
0
 10
110.7735354053609
 20
97.833315064888097
 30
0.0
 11
110.7735354053609
 21
107.8333150648823
 31
0.0
  0
LINE
  5
412
  8
0
 10
91.773535405360917
 20
97.833315064888566
 30
0.0
 11
91.773535405360917
 21
107.8333150648885
 31
0.0
  0
ARC
  5
413
  8
0
 10
92.773535405360917
 20
97.833315064888581
 30
0.0
 40
1.0
 50
180.0
 51
270.0
  0
ARC
  5
414
  8
0
 10
109.7735354053609
 20
97.83331506488814
 30
0.0
 40
1.0
 50
270.0
 51
0.0
  0
LINE
  5
42D
  8
2
 10
166.73203540536079
 20
120.8333150648884
 30
0.0
 11
161.8150354053609
 21
120.8333150648884
 31
0.0
  0
LINE
  5
42E
  8
0
 10
171.77353540536089
 20
121.8333150648884
 30
0.0
 11
156.77353540536089
 21
121.8333150648884
 31
0.0
  0
CIRCLE
  5
43D
  8
0
 10
101.2735354053609
 20
44.833315064888353
 30
0.0
 40
9.5
  0
LINE
  5
48B
  8
0
 10
110.7735354053609
 20
107.8333150648823
 30
0.0
 11
91.773535405360917
 21
107.8333150648823
 31
0.0
  0
LINE
  5
48C
  8
0
 10
111.774754185717
 20
108.4113689972386
 30
0.0
 11
90.773535405360917
 21
108.4106653340781
 31
0.0
  0
TEXT
  5
48D
  8
0
 10
127.38551421275901
 20
42.167087087968497
 30
0.0
 40
5.0
  1
SC
 41
0.75
 72
     1
 11
130.51051421275901
 21
42.167087087968497
 31
0.0
  0
LINE
  5
48E
  8
0
 10
139.2231756931306
 20
44.833315064888467
 30
0.0
 11
135.2231756931306
 21
44.833315064888467
 31
0.0
  0
TEXT
  5
48F
  8
0
 10
140.54469088302781
 20
42.33630759580177
 30
0.0
 40
5.0
  1
4
 41
0.75
 72
     1
 11
141.88397659731351
 21
42.33630759580177
 31
0.0
  0
CIRCLE
  5
494
  8
2
 10
101.2735354053609
 20
169.33331506488841
 30
0.0
 40
9.5
  0
ARC
  5
495
  8
0
 10
101.2735354053609
 20
169.33331506488841
 30
0.0
 40
6.7999999999999989
 50
357.66792549411309
 51
2.3320745058901369
  0
ARC
  5
496
  8
0
 10
101.2735354053609
 20
169.33331506488841
 30
0.0
 40
6.7999999999999989
 50
87.667925494108147
 51
92.332074505893473
  0
ARC
  5
497
  8
0
 10
101.2735354053609
 20
169.33331506488841
 30
0.0
 40
6.7999999999999989
 50
177.66792549410661
 51
182.33207450589009
  0
ARC
  5
498
  8
0
 10
101.2735354053609
 20
169.33331506488841
 30
0.0
 40
6.7999999999999989
 50
267.6679254941082
 51
272.3320745058902
  0
LINE
  5
499
  8
0
 10
101.55023516393361
 20
176.12768311818121
 30
0.0
 11
103.5660890218273
 21
174.11182926028749
 31
0.0
  0
LINE
  5
49A
  8
0
 10
100.9968356467881
 20
176.12768311818121
 30
0.0
 11
98.980981788894255
 21
174.11182926028741
 31
0.0
  0
LINE
  5
49B
  8
0
 10
98.9809817888937
 20
164.55480086949029
 30
0.0
 11
100.9968356467883
 21
162.5389470115955
 31
0.0
  0
LINE
  5
49C
  8
0
 10
103.5660890218282
 20
164.55480086949041
 30
0.0
 11
101.55023516393339
 21
162.5389470115955
 31
0.0
  0
LINE
  5
49D
  8
0
 10
96.49502120996226
 20
171.62586868135531
 30
0.0
 11
94.479167352068202
 21
169.6100148234614
 31
0.0
  0
LINE
  5
49E
  8
0
 10
106.0520496007598
 20
171.62586868135509
 30
0.0
 11
108.0679034586537
 21
169.61001482346111
 31
0.0
  0
ARC
  5
49F
  8
0
 10
101.2735354053608
 20
169.33331506488869
 30
0.0
 40
5.2999999999999989
 50
205.6299617544592
 51
244.37003824554
  0
ARC
  5
4A0
  8
0
 10
101.2735354053608
 20
169.33331506488869
 30
0.0
 40
5.2999999999999989
 50
115.6299617544537
 51
154.37003824554461
  0
ARC
  5
4A1
  8
0
 10
101.2735354053608
 20
169.33331506488869
 30
0.0
 40
5.2999999999999989
 50
25.62996175445171
 51
64.37003824555002
  0
ARC
  5
4A2
  8
0
 10
101.2735354053608
 20
169.33331506488869
 30
0.0
 40
5.2999999999999989
 50
295.6299617544629
 51
334.3700382455371
  0
LINE
  5
4A3
  8
0
 10
94.479167352068202
 20
169.0566153063159
 30
0.0
 11
96.495021209962488
 21
167.04076144842151
 31
0.0
  0
LINE
  5
4A4
  8
0
 10
108.0679034586537
 20
169.0566153063161
 30
0.0
 11
106.0520496007591
 21
167.04076144842139
 31
0.0
  0
CIRCLE
  5
4A5
  8
2
 10
101.2735354053609
 20
169.3333150648885
 30
0.0
 40
7.0710678118655323
  0
LINE
  5
4A6
  8
1
 10
176.77353540536089
 20
169.33331506488841
 30
0.0
 11
84.273535405360917
 21
169.33331506488841
 31
0.0
  0
LINE
  5
4A7
  8
1
 10
101.2735354053609
 20
186.33331506488841
 30
0.0
 11
101.2735354053609
 21
152.33331506488841
 31
0.0
  0
LINE
  5
4A8
  8
1
 10
164.27353540536089
 20
181.8333150648883
 30
0.0
 11
164.27353540536089
 21
156.83331506488841
 31
0.0
  0
LINE
  5
4AA
  8
0
 10
114.8301177837285
 20
176.76174805898651
 30
0.0
 11
156.31295153478149
 21
174.8544913348
 31
0.0
  0
ARC
  5
4AB
  8
0
 10
115.3812597037024
 20
188.74908481841931
 30
0.0
 40
12.0
 50
233.9974083536527
 51
267.36756513101341
  0
ARC
  5
4AC
  8
0
 10
156.6803794814308
 20
182.84604917442189
 30
0.0
 40
8.0
 50
267.36756513101341
 51
299.33276214877287
  0
ARC
  5
4AD
  8
0
 10
156.6803794814308
 20
155.82058095535481
 30
0.0
 40
8.0
 50
60.667237851227107
 51
92.63243486898655
  0
ARC
  5
4AE
  8
0
 10
115.3812597037024
 20
149.9175453113576
 30
0.0
 40
12.0
 50
92.63243486898655
 51
126.0025916463473
  0
LINE
  5
4AF
  8
0
 10
114.8301177837285
 20
161.90488207079019
 30
0.0
 11
156.31295153478149
 21
163.8121387949767
 31
0.0
  0
ARC
  5
4B0
  8
0
 10
101.2735354053609
 20
169.33331506488841
 30
0.0
 40
12.0
 50
53.997408353645959
 51
306.00259164635401
  0
CIRCLE
  5
4B2
  8
2
 10
101.2735354053609
 20
169.33331506488841
 30
0.0
 40
10.5
  0
CIRCLE
  5
4B3
  8
3
 10
164.27353540536089
 20
169.33331506488841
 30
0.0
 40
3.0
  0
CIRCLE
  5
4B4
  8
0
 10
164.27353540536089
 20
169.33331506488841
 30
0.0
 40
2.458499999999999
  0
ARC
  5
4B6
  8
0
 10
158.59942770023321
 20
117.8333150648884
 30
0.0
 40
2.0
 50
270.0
 51
0.0
  0
CIRCLE
  5
4B7
  8
0
 10
164.27353540536089
 20
169.3333150648883
 30
0.0
 40
7.5
  0
LINE
  5
4B9
  8
0
 10
51.774754185716972
 20
108.4113689972385
 30
0.0
 11
30.77353540536086
 21
108.410665334078
 31
0.0
  0
LINE
  5
4BA
  8
0
 10
50.77353540536086
 20
107.8333150648822
 30
0.0
 11
31.77353540536086
 21
107.8333150648822
 31
0.0
  0
LINE
  5
4BB
  8
0
 10
48.77353540536086
 20
121.8333150648883
 30
0.0
 11
33.77353540536086
 21
121.8333150648883
 31
0.0
  0
ARC
  5
4BD
  8
0
 10
49.77353540536086
 20
97.833315064888097
 30
0.0
 40
1.0
 50
270.0
 51
0.0
  0
ARC
  5
4BE
  8
0
 10
32.77353540536086
 20
97.833315064888566
 30
0.0
 40
1.0
 50
180.0
 51
270.0
  0
LINE
  5
4BF
  8
0
 10
31.77353540536086
 20
97.833315064888524
 30
0.0
 11
31.77353540536086
 21
107.8333150648885
 31
0.0
  0
LINE
  5
4C0
  8
0
 10
50.77353540536086
 20
97.833315064888055
 30
0.0
 11
50.77353540536086
 21
107.8333150648822
 31
0.0
  0
LINE
  5
4C1
  8
0
 10
49.77353540536086
 20
96.833315064888069
 30
0.0
 11
32.77353540536086
 21
96.833315064888524
 31
0.0
  0
LINE
  5
4C2
  8
2
 10
41.27353540536086
 20
96.833315064888296
 30
0.0
 11
41.27353540536086
 21
115.8333150648884
 31
0.0
  0
LINE
  5
4C3
  8
0
 10
50.77353540536086
 20
107.8333150648822
 30
0.0
 11
51.774754185716972
 21
108.4113689972384
 31
0.0
  0
LINE
  5
4C4
  8
0
 10
31.77353540536086
 20
107.8333150648885
 30
0.0
 11
30.77353540536086
 21
108.410665334078
 31
0.0
  0
ARC
  5
4C5
  8
2
 10
37.738001499420932
 20
94.851082017847816
 30
0.0
 40
4.0533008588963302
 50
29.277613190288641
 51
150.72238680971131
  0
ARC
  5
4C6
  8
2
 10
44.809069311294188
 20
94.851082017859085
 30
0.0
 40
4.0533008588963302
 50
29.277613190288641
 51
150.72238680971131
  0
LINE
  5
4C7
  8
2
 10
34.202467593495328
 20
96.833315064888524
 30
0.0
 11
34.202467593495328
 21
115.8333150648884
 31
0.0
  0
LINE
  5
4C8
  8
2
 10
48.344603217226393
 20
96.833315064888197
 30
0.0
 11
48.344603217226279
 21
115.8333150648884
 31
0.0
  0
LINE
  5
4C9
  8
1
 10
41.27353540536091
 20
126.8333150648883
 30
0.0
 11
41.27353540536086
 21
91.833315064888296
 31
0.0
  0
LINE
  5
4CA
  8
0
 10
50.773535405274508
 20
115.8333150648884
 30
0.0
 11
31.773535405447259
 21
115.8333150648884
 31
0.0
  0
LINE
  5
4CB
  8
0
 10
30.77353540536086
 20
109.558397847253
 30
0.0
 11
30.77353540536086
 21
108.410665334078
 31
0.0
  0
LINE
  5
4CD
  8
0
 10
33.77353540536086
 20
121.8333150648883
 30
0.0
 11
33.77353540536086
 21
115.8333150648884
 31
0.0
  0
LINE
  5
4CE
  8
0
 10
48.77353540536086
 20
121.8333150648883
 30
0.0
 11
48.77353540536086
 21
115.8333150648884
 31
0.0
  0
ARC
  5
4D9
  8
0
 10
32.27353540536086
 20
113.3333150648884
 30
0.0
 40
3.0
 50
180.0
 51
223.3417582272231
  0
ARC
  5
4DA
  8
0
 10
28.27353540536086
 20
109.5583978472531
 30
0.0
 40
2.5
 50
0.0
 51
43.341758227220161
  0
ARC
  5
4DB
  8
0
 10
31.773535405447259
 20
113.3333150648884
 30
0.0
 40
2.5
 50
89.999999999999986
 51
180.0
  0
ARC
  5
4DC
  8
0
 10
54.273535405360917
 20
109.5583978472531
 30
0.0
 40
2.5
 50
136.6582417727798
 51
180.0
  0
ARC
  5
4DD
  8
0
 10
50.273535405360917
 20
113.3333150648884
 30
0.0
 40
3.0
 50
316.65824177277688
 51
0.000000000000007
  0
ARC
  5
4DE
  8
0
 10
50.773535405274508
 20
113.3333150648884
 30
0.0
 40
2.5
 50
0.000000000000007
 51
90.000000000000028
  0
LINE
  5
4DF
  8
0
 10
51.773535405360917
 20
109.558397847253
 30
0.0
 11
51.773535405360917
 21
108.410665334078
 31
0.0
  0
LINE
  5
4E0
  8
0
 10
51.773535405360917
 20
110.83331506488889
 30
0.0
 11
30.7735354053608
 21
110.83331506488889
 31
0.0
  0
LINE
  5
4E2
  8
0
 10
234.77353540536089
 20
110.83331506488889
 30
0.0
 11
213.77353540536089
 21
110.83331506488889
 31
0.0
  0
LINE
  5
4E3
  8
0
 10
234.77353540536089
 20
109.5583978472531
 30
0.0
 11
234.77353540536089
 21
108.4106653340781
 31
0.0
  0
ARC
  5
4E4
  8
0
 10
233.77353540527449
 20
113.3333150648884
 30
0.0
 40
2.5
 50
0.000000000000007
 51
90.000000000000028
  0
ARC
  5
4E5
  8
0
 10
233.27353540536089
 20
113.3333150648884
 30
0.0
 40
3.0
 50
316.65824177277688
 51
0.000000000000007
  0
ARC
  5
4E6
  8
0
 10
237.27353540536089
 20
109.5583978472531
 30
0.0
 40
2.5
 50
136.6582417727798
 51
180.0
  0
ARC
  5
4E7
  8
0
 10
214.77353540544729
 20
113.3333150648884
 30
0.0
 40
2.5
 50
89.999999999999986
 51
180.0
  0
ARC
  5
4E8
  8
0
 10
211.27353540536089
 20
109.5583978472531
 30
0.0
 40
2.5
 50
0.0
 51
43.341758227220161
  0
ARC
  5
4E9
  8
0
 10
215.27353540536089
 20
113.3333150648884
 30
0.0
 40
3.0
 50
180.0
 51
223.3417582272231
  0
ARC
  5
4EB
  8
0
 10
230.27353540536089
 20
112.3333150648883
 30
0.0
 40
1.5
 50
270.0
 51
0.0
  0
LINE
  5
4EC
  8
0
 10
231.77353540536089
 20
121.8333150648883
 30
0.0
 11
231.77353540536089
 21
112.3333150648882
 31
0.0
  0
LINE
  5
4ED
  8
0
 10
216.77353540536089
 20
121.8333150648883
 30
0.0
 11
216.77353540536089
 21
112.3333150648883
 31
0.0
  0
LINE
  5
4EE
  8
0
 10
213.77353540536089
 20
109.5583978472531
 30
0.0
 11
213.77353540536089
 21
108.4106653340781
 31
0.0
  0
LINE
  5
4EF
  8
0
 10
233.77353540527449
 20
115.8333150648884
 30
0.0
 11
231.77353540536089
 21
115.8333150648884
 31
0.0
  0
LINE
  5
4F0
  8
1
 10
224.27353540536089
 20
126.8333150648883
 30
0.0
 11
224.27353540536089
 21
91.833315064888325
 31
0.0
  0
LINE
  5
4F1
  8
2
 10
231.34460321722651
 20
96.833315064888211
 30
0.0
 11
231.34460321722631
 21
115.8333150648884
 31
0.0
  0
LINE
  5
4F2
  8
2
 10
217.20246759349541
 20
96.833315064888552
 30
0.0
 11
217.20246759349541
 21
115.8333150648884
 31
0.0
  0
ARC
  5
4F3
  8
2
 10
227.80906931129431
 20
94.851082017859099
 30
0.0
 40
4.0533008588963302
 50
29.277613190288641
 51
150.72238680971131
  0
ARC
  5
4F4
  8
2
 10
220.73800149942099
 20
94.851082017847858
 30
0.0
 40
4.0533008588963302
 50
29.277613190288641
 51
150.72238680971131
  0
LINE
  5
4F5
  8
0
 10
214.77353540536089
 20
107.8333150648885
 30
0.0
 11
213.77353540536089
 21
108.4106653340781
 31
0.0
  0
LINE
  5
4F6
  8
0
 10
233.77353540536089
 20
107.8333150648823
 30
0.0
 11
234.774754185717
 21
108.4113689972384
 31
0.0
  0
LINE
  5
4F7
  8
2
 10
224.27353540536089
 20
96.833315064888325
 30
0.0
 11
224.27353540536089
 21
115.8333150648884
 31
0.0
  0
LINE
  5
4F8
  8
0
 10
232.77353540536089
 20
96.833315064888097
 30
0.0
 11
215.77353540536089
 21
96.833315064888552
 31
0.0
  0
LINE
  5
4F9
  8
0
 10
233.77353540536089
 20
97.833315064888097
 30
0.0
 11
233.77353540536089
 21
107.8333150648823
 31
0.0
  0
LINE
  5
4FA
  8
0
 10
214.77353540536089
 20
97.833315064888566
 30
0.0
 11
214.77353540536089
 21
107.8333150648885
 31
0.0
  0
ARC
  5
4FB
  8
0
 10
215.77353540536089
 20
97.833315064888581
 30
0.0
 40
1.0
 50
180.0
 51
270.0
  0
ARC
  5
4FC
  8
0
 10
232.77353540536089
 20
97.83331506488814
 30
0.0
 40
1.0
 50
270.0
 51
0.0
  0
LINE
  5
4FD
  8
0
 10
231.77353540536089
 20
121.8333150648883
 30
0.0
 11
216.77353540536089
 21
121.8333150648883
 31
0.0
  0
LINE
  5
4FE
  8
0
 10
233.77353540536089
 20
107.8333150648823
 30
0.0
 11
214.77353540536089
 21
107.8333150648823
 31
0.0
  0
LINE
  5
4FF
  8
0
 10
234.774754185717
 20
108.4113689972386
 30
0.0
 11
213.77353540536089
 21
108.4106653340781
 31
0.0
  0
POLYLINE
  5
500
  8
0
 66
     1
 10
0.0
 20
0.0
 30
0.0
  0
VERTEX
  5
501
  8
0
 10
47.811955810130819
 20
115.8333150648884
 30
0.0
 42
-0.2047432520499904
  0
VERTEX
  5
502
  8
0
 10
47.557699200591109
 20
115.94198514293021
 30
0.0
 42
-0.0967727231869965
  0
VERTEX
  5
503
  8
0
 10
47.25185372333879
 20
116.4191015025153
 30
0.0
 42
-0.0536755916949934
 70
     2
 50
111.6061403791804
  0
VERTEX
  5
504
  8
0
 10
47.063977606528113
 20
117.09834363420281
 30
0.0
 42
-0.0513632718244923
  0
VERTEX
  5
505
  8
0
 10
47.01985184267641
 20
117.8333150648883
 30
0.0
 42
-0.0406728450042346
  0
SEQEND
  5
506
  8
0
  0
POLYLINE
  5
507
  8
0
 66
     1
 10
0.0
 20
0.0
 30
0.0
  0
VERTEX
  5
508
  8
0
 10
34.735116349290017
 20
115.8333150648884
 30
0.0
 42
0.2047432520499904
  0
VERTEX
  5
509
  8
0
 10
34.989372958829733
 20
115.94198514293021
 30
0.0
 42
0.0967727231869965
  0
VERTEX
  5
50A
  8
0
 10
35.295218436082052
 20
116.4191015025153
 30
0.0
 42
0.0536755916949934
 70
     2
 50
68.393859620819569
  0
VERTEX
  5
50B
  8
0
 10
35.483094552892737
 20
117.09834363420281
 30
0.0
 42
0.0513632718244923
 50
68.393859620819569
  0
VERTEX
  5
50C
  8
0
 10
35.52722031674449
 20
117.8333150648883
 30
0.0
 42
0.0406728450042346
  0
SEQEND
  5
50D
  8
0
  0
ARC
  5
50E
  8
0
 10
218.27353540536089
 20
112.3333150648883
 30
0.0
 40
1.5
 50
180.0
 51
270.0
  0
LINE
  5
50F
  8
0
 10
216.773535405361
 20
115.8333150648884
 30
0.0
 11
214.77353540544729
 21
115.8333150648884
 31
0.0
  0
LINE
  5
510
  8
2
 10
231.773535405361
 20
115.8333150648884
 30
0.0
 11
216.7735354053608
 21
115.8333150648884
 31
0.0
  0
TEXT
  5
5BA
  8
0
 62
     3
 10
0.0
 20
0.0
 30
0.0
 40
10.0
  1
SC4S
  7
STANDARD1
  0
ENDSEC
  0
EOF
