  0
SECTION
  2
HEADER
  9
$ACADVER
  1
AC1009
  9
$INSBASE
 10
0.0
 20
0.0
 30
0.0
  9
$EXTMIN
 10
0.0
 20
-2.960436562073669
 30
0.0
  9
$EXTMAX
 10
235.0624986502668
 20
182.21409778682539
 30
0.0
  9
$LIMMIN
 10
0.0
 20
0.0
  9
$LIMMAX
 10
375.0
 20
270.0
  9
$ORTHOMODE
 70
     1
  9
$REGENMODE
 70
     1
  9
$FILLMODE
 70
     1
  9
$QTEXTMODE
 70
     0
  9
$MIRRTEXT
 70
     0
  9
$DRAGMODE
 70
     2
  9
$LTSCALE
 40
5.0
  9
$OSMODE
 70
    55
  9
$ATTMODE
 70
     1
  9
$TEXTSIZE
 40
0.2
  9
$TRACEWID
 40
0.05
  9
$TEXTSTYLE
  7
STANDARD
  9
$CLAYER
  8
0
  9
$CELTYPE
  6
BYLAYER
  9
$CECOLOR
 62
   256
  9
$DIMSCALE
 40
1.0
  9
$DIMASZ
 40
3.0
  9
$DIMEXO
 40
2.0
  9
$DIMDLI
 40
0.38
  9
$DIMRND
 40
0.0
  9
$DIMDLE
 40
0.0
  9
$DIMEXE
 40
2.0
  9
$DIMTP
 40
0.0
  9
$DIMTM
 40
0.0
  9
$DIMTXT
 40
3.2000000000000002
  9
$DIMCEN
 40
0.0
  9
$DIMTSZ
 40
0.0
  9
$DIMTOL
 70
     0
  9
$DIMLIM
 70
     0
  9
$DIMTIH
 70
     0
  9
$DIMTOH
 70
     0
  9
$DIMSE1
 70
     0
  9
$DIMSE2
 70
     0
  9
$DIMTAD
 70
     1
  9
$DIMZIN
 70
     0
  9
$DIMBLK
  1

  9
$DIMASO
 70
     1
  9
$DIMSHO
 70
     0
  9
$DIMPOST
  1

  9
$DIMAPOST
  1

  9
$DIMALT
 70
     0
  9
$DIMALTD
 70
     2
  9
$DIMALTF
 40
25.399999999999999
  9
$DIMLFAC
 40
1.0
  9
$DIMTOFL
 70
     0
  9
$DIMTVP
 40
1.6000000000000001
  9
$DIMTIX
 70
     1
  9
$DIMSOXD
 70
     0
  9
$DIMSAH
 70
     0
  9
$DIMBLK1
  1

  9
$DIMBLK2
  1

  9
$DIMSTYLE
  2
STANDARD
  9
$DIMCLRD
 70
     0
  9
$DIMCLRE
 70
     0
  9
$DIMCLRT
 70
     0
  9
$DIMTFAC
 40
1.0
  9
$DIMGAP
 40
0.09
  9
$LUNITS
 70
     2
  9
$LUPREC
 70
     4
  9
$SKETCHINC
 40
0.1
  9
$FILLETRAD
 40
2.0
  9
$AUNITS
 70
     0
  9
$AUPREC
 70
     0
  9
$MENU
  1
E:\r13\win\SUPPORT\ACAD
  9
$ELEVATION
 40
0.0
  9
$PELEVATION
 40
0.0
  9
$THICKNESS
 40
0.0
  9
$LIMCHECK
 70
     0
  9
$BLIPMODE
 70
     0
  9
$CHAMFERA
 40
0.0
  9
$CHAMFERB
 40
0.0
  9
$SKPOLY
 70
     0
  9
$TDCREATE
 40
2449840.6065277779
  9
$TDUPDATE
 40
2456598.4781851969
  9
$TDINDWG
 40
0.0124588194
  9
$TDUSRTIMER
 40
0.0124588194
  9
$USRTIMER
 70
     1
  9
$ANGBASE
 50
0.0
  9
$ANGDIR
 70
     0
  9
$PDMODE
 70
     0
  9
$PDSIZE
 40
0.0
  9
$PLINEWID
 40
0.0
  9
$COORDS
 70
     1
  9
$SPLFRAME
 70
     0
  9
$SPLINETYPE
 70
     6
  9
$SPLINESEGS
 70
     8
  9
$ATTDIA
 70
     0
  9
$ATTREQ
 70
     1
  9
$HANDLING
 70
     1
  9
$HANDSEED
  5
5FA
  9
$SURFTAB1
 70
     6
  9
$SURFTAB2
 70
     6
  9
$SURFTYPE
 70
     6
  9
$SURFU
 70
     6
  9
$SURFV
 70
     6
  9
$UCSNAME
  2

  9
$UCSORG
 10
0.0
 20
0.0
 30
0.0
  9
$UCSXDIR
 10
1.0
 20
0.0
 30
0.0
  9
$UCSYDIR
 10
0.0
 20
1.0
 30
0.0
  9
$PUCSNAME
  2

  9
$PUCSORG
 10
0.0
 20
0.0
 30
0.0
  9
$PUCSXDIR
 10
1.0
 20
0.0
 30
0.0
  9
$PUCSYDIR
 10
0.0
 20
1.0
 30
0.0
  9
$USERI1
 70
     0
  9
$USERI2
 70
     1
  9
$USERI3
 70
     1
  9
$USERI4
 70
     0
  9
$USERI5
 70
     0
  9
$USERR1
 40
0.0
  9
$USERR2
 40
0.0
  9
$USERR3
 40
0.0
  9
$USERR4
 40
0.0
  9
$USERR5
 40
0.0
  9
$WORLDVIEW
 70
     1
  9
$SHADEDGE
 70
     3
  9
$SHADEDIF
 70
    70
  9
$TILEMODE
 70
     1
  9
$MAXACTVP
 70
    16
  9
$PLIMCHECK
 70
     0
  9
$PEXTMIN
 10
1.0000000000000000E+020
 20
1.0000000000000000E+020
 30
1.0000000000000000E+020
  9
$PEXTMAX
 10
-1.0000000000000000E+020
 20
-1.0000000000000000E+020
 30
-1.0000000000000000E+020
  9
$PLIMMIN
 10
0.0
 20
0.0
  9
$PLIMMAX
 10
12.0
 20
9.0
  9
$UNITMODE
 70
     0
  9
$VISRETAIN
 70
     0
  9
$PLINEGEN
 70
     0
  9
$PSLTSCALE
 70
     0
  0
ENDSEC
  0
SECTION
  2
TABLES
  0
TABLE
  2
VPORT
 70
     1
  0
VPORT
  2
*ACTIVE
 70
     0
 10
0.0
 20
0.0
 11
1.0
 21
1.0
 12
187.49427839065231
 22
194.785247995265
 13
0.0
 23
0.0
 14
10.0
 24
10.0
 15
10.0
 25
10.0
 16
0.0
 26
0.0
 36
1.0
 17
0.0
 27
0.0
 37
0.0
 40
399.3463374158577
 41
1.7807262569832401
 42
50.0
 43
0.0
 44
0.0
 50
0.0
 51
0.0
 71
     0
 72
   500
 73
     1
 74
     0
 75
     0
 76
     0
 77
     0
 78
     1
  0
ENDTAB
  0
TABLE
  2
LTYPE
 70
     4
  0
LTYPE
  2
CONTINUOUS
 70
     0
  3
Solid Line
 72
    65
 73
     0
 40
0.0
  0
LTYPE
  2
CENTER
 70
     0
  3
____ _ ____ _ ____ _ ____ _ ____ _ ____ _ ____
 72
    65
 73
     4
 40
2.0
 49
1.25
 49
-0.25
 49
0.25
 49
-0.25
  0
LTYPE
  2
HIDDEN
 70
     0
  3
_ _ _ _ _ _ _ _ _ _ _ _ _ _ _ _ _ _ _ _ _ _ _
 72
    65
 73
     2
 40
0.375
 49
0.25
 49
-0.125
  0
LTYPE
  2
PHANTOM2
 70
     0
  3
___ _ _ ___ _ _ ___ _ _ ___ _ _
 72
    65
 73
     6
 40
1.25
 49
0.625
 49
-0.125
 49
0.125
 49
-0.125
 49
0.125
 49
-0.125
  0
ENDTAB
  0
TABLE
  2
LAYER
 70
     5
  0
LAYER
  2
0
 70
     0
 62
     7
  6
CONTINUOUS
  0
LAYER
  2
1
 70
     0
 62
     1
  6
CENTER
  0
LAYER
  2
2
 70
     0
 62
     2
  6
HIDDEN
  0
LAYER
  2
3
 70
     0
 62
     3
  6
CONTINUOUS
  0
LAYER
  2
DEFPOINTS
 70
     0
 62
     7
  6
CONTINUOUS
  0
ENDTAB
  0
TABLE
  2
STYLE
 70
     2
  0
STYLE
  2
STANDARD
 70
     0
 40
0.0
 41
1.0
 50
0.0
 71
     0
 42
0.2
  3
simplex.shx
  4
bigfont.shx
  0
STYLE
  2
STANDARD1
 70
     0
 40
0.0
 41
1.0
 50
0.0
 71
     0
 42
3.0
  3
txt
  4

  0
ENDTAB
  0
TABLE
  2
VIEW
 70
     1
  0
VIEW
  2
ALL
 70
     0
 40
270.0
 10
220.99159663865549
 20
135.0
 41
0.0
 11
0.0
 21
0.0
 31
1.0
 12
0.0
 22
0.0
 32
0.0
 42
0.0
 43
0.0
 44
0.0
 50
0.0
 71
     0
  0
ENDTAB
  0
TABLE
  2
UCS
 70
     0
  0
ENDTAB
  0
TABLE
  2
APPID
 70
    28
  0
APPID
  2
ACAD
 70
     0
  0
APPID
  2
DCO15
 70
     0
  0
APPID
  2
GENIUS_GENOREF_13
 70
     0
  0
APPID
  2
GENIUS_GENOENT_13
 70
     0
  0
APPID
  2
GENIUS_GENBH_13
 70
     0
  0
APPID
  2
GENIUS_GENOBJ_13
 70
     0
  0
APPID
  2
GENIUS_GENODEF_13
 70
     0
  0
APPID
  2
GENIUS_GENOLIS_13
 70
     0
  0
APPID
  2
GENIUS_GENOBJ-NBEHI-BHF_13
 70
     0
  0
APPID
  2
GENIUS_GENOBJ-NBEHI-BHB_13
 70
     0
  0
APPID
  2
GENIUS_GENOBJ-F-PART_13
 70
     0
  0
APPID
  2
GENIUS_GEFSTDP_13
 70
     0
  0
APPID
  2
GENIUS_GENOBJ-N-RSSYM_13
 70
     0
  0
APPID
  2
GENIUS_GENSYMENT_13
 70
     0
  0
APPID
  2
GENIUS_GENOBJ-N-TIT_13
 70
     0
  0
APPID
  2
GENIUS_GENTITLE_13
 70
     0
  0
APPID
  2
GENIUS_GENZVEED_13
 70
     0
  0
APPID
  2
GENIUS_GENOBJ-N-LEADER_13
 70
     0
  0
APPID
  2
GENIUS_GENOBJ-N-FIL_13
 70
     0
  0
APPID
  2
GENIUS_GENOBJ-N-SEC_13
 70
     0
  0
APPID
  2
GENIUS_GENOBJ-N-CRS_13
 70
     0
  0
APPID
  2
GENIUS_GENOBJ-N-ZOO_13
 70
     0
  0
APPID
  2
GENIUS_GENZOO_13
 70
     0
  0
APPID
  2
GENIUS_GENOBJ-F-TOL_13
 70
     0
  0
APPID
  2
GENIUS_GENFIL_13
 70
     0
  0
APPID
  2
GENIUS_GENOBJ-N-CHA_13
 70
     0
  0
APPID
  2
ACAD_MLEADERVER
 70
     0
  0
APPID
  2
ACAD_NAV_VCDISPLAY
 70
     0
  0
ENDTAB
  0
TABLE
  2
DIMSTYLE
 70
     1
  0
DIMSTYLE
  2
STANDARD
 70
     0
  3

  4

  5

  6

  7

 40
1.0
 41
0.18
 42
0.0625
 43
0.38
 44
0.18
 45
0.0
 46
0.0
 47
0.0
 48
0.0
140
0.18
141
0.09
142
0.0
143
25.399999999999999
144
1.0
145
0.0
146
1.0
147
0.09
 71
     0
 72
     0
 73
     1
 74
     1
 75
     0
 76
     0
 77
     0
 78
     0
170
     0
171
     2
172
     0
173
     0
174
     0
175
     0
176
     0
177
     0
178
     0
  0
ENDTAB
  0
ENDSEC
  0
SECTION
  2
BLOCKS
  0
BLOCK
  8
0
  2
$MODEL_SPACE
 70
     0
 10
0.0
 20
0.0
 30
0.0
  3
$MODEL_SPACE
  1

  0
ENDBLK
  5
12E
  8
0
  0
BLOCK
 67
     1
  8
0
  2
$PAPER_SPACE
 70
     0
 10
0.0
 20
0.0
 30
0.0
  3
$PAPER_SPACE
  1

  0
ENDBLK
  5
12C
 67
     1
  8
0
  0
ENDSEC
  0
SECTION
  2
ENTITIES
  0
CIRCLE
  5
28A
  8
0
 10
100.0637987596465
 20
39.71409778682542
 30
0.0
 40
2.5358983848623771
  0
CIRCLE
  5
28B
  8
0
 10
163.0637987596466
 20
39.714097786825391
 30
0.0
 40
2.458499999999999
  0
CIRCLE
  5
28C
  8
3
 10
163.0637987596466
 20
39.714097786825391
 30
0.0
 40
3.0
  0
ARC
  5
28D
  8
0
 10
163.0637987596466
 20
39.714097786825391
 30
0.0
 40
7.5
 50
240.66723785122289
 51
119.33276214877679
  0
ARC
  5
28E
  8
0
 10
100.0637987596465
 20
39.71409778682542
 30
0.0
 40
12.0
 50
53.997408353646151
 51
306.00259164635378
  0
LINE
  5
28F
  8
0
 10
113.6203811380142
 20
32.285664792727289
 30
0.0
 11
155.10321488906709
 21
34.192921516913771
 31
0.0
  0
ARC
  5
290
  8
0
 10
114.1715230579881
 20
20.298328033294549
 30
0.0
 40
12.0
 50
92.632434868986749
 51
126.0025916463476
  0
ARC
  5
291
  8
0
 10
155.4706428357166
 20
26.201363677291852
 30
0.0
 40
8.0
 50
60.667237851226652
 51
92.632434868986749
  0
ARC
  5
292
  8
0
 10
155.4706428357166
 20
53.226831896358931
 30
0.0
 40
8.0
 50
267.36756513101318
 51
299.33276214877333
  0
ARC
  5
293
  8
0
 10
114.1715230579881
 20
59.12986754035628
 30
0.0
 40
12.0
 50
233.99740835365239
 51
267.36756513101318
  0
LINE
  5
294
  8
0
 10
113.6203811380142
 20
47.142530780923487
 30
0.0
 11
155.10321488906709
 21
45.235274056737012
 31
0.0
  0
ARC
  5
295
  8
2
 10
163.0637987596466
 20
39.714097786825391
 30
0.0
 40
7.5
 50
119.33276214877679
 51
240.66723785122289
  0
LINE
  5
297
  8
1
 10
163.0637987596466
 20
52.214097786825391
 30
0.0
 11
163.0637987596466
 21
27.214097786825391
 31
0.0
  0
LINE
  5
299
  8
1
 10
175.5637987596466
 20
39.714097786825391
 30
0.0
 11
83.063798759646602
 21
39.714097786825391
 31
0.0
  0
LINE
  5
29A
  8
2
 10
160.60529875964659
 20
116.71409778682541
 30
0.0
 11
159.60529875964659
 21
117.71409778682531
 31
0.0
  0
LINE
  5
29B
  8
2
 10
165.5222987596465
 20
116.71409778682541
 30
0.0
 11
166.5222987596465
 21
117.71409778682531
 31
0.0
  0
LINE
  5
29C
  8
2
 10
165.5222987596465
 20
116.71409778682531
 30
0.0
 11
165.5222987596465
 21
106.71409778682531
 31
0.0
  0
LINE
  5
29D
  8
2
 10
160.60529875964659
 20
116.71409778682531
 30
0.0
 11
160.60529875964659
 21
106.71409778682541
 31
0.0
  0
LINE
  5
29E
  8
2
 10
166.0637987596466
 20
117.2555977868255
 30
0.0
 11
166.0637987596466
 21
106.71409778682531
 31
0.0
  0
LINE
  5
29F
  8
2
 10
160.0637987596466
 20
117.25559778682531
 30
0.0
 11
160.0637987596466
 21
106.71409778682541
 31
0.0
  0
ARC
  5
2A0
  8
0
 10
153.5637987596466
 20
113.7140977868255
 30
0.0
 40
2.0
 50
270.0
 51
0.0
  0
ARC
  5
2A1
  8
2
 10
97.259951182353177
 20
92.714097786825533
 30
0.0
 40
1.0
 50
270.0
 51
300.00000000000108
  0
ARC
  5
2A2
  8
2
 10
100.0637987596466
 20
89.714097786825533
 30
0.0
 40
3.0
 50
59.999999999998892
 51
120.00000000000109
  0
LINE
  5
2A3
  8
2
 10
98.563798759646616
 20
92.312173998178878
 30
0.0
 11
97.759951182353134
 21
91.848072383041085
 31
0.0
  0
LINE
  5
2A4
  8
2
 10
101.5637987596465
 20
92.312173998178878
 30
0.0
 11
102.3676463369399
 21
91.848072383041085
 31
0.0
  0
ARC
  5
2A5
  8
2
 10
102.86764633694
 20
92.714097786825533
 30
0.0
 40
1.0
 50
239.99999999999889
 51
270.0
  0
LINE
  5
2A6
  8
1
 10
163.0637987596466
 20
122.71409778682541
 30
0.0
 11
163.0637987596466
 21
101.71409778682531
 31
0.0
  0
LINE
  5
2A7
  8
0
 10
170.5637987596466
 20
117.71409778682541
 30
0.0
 11
170.5637987596466
 21
108.21409778682521
 31
0.0
  0
LINE
  5
2A8
  8
0
 10
155.5637987596466
 20
117.71409778682531
 30
0.0
 11
155.5637987596466
 21
113.71409778682541
 31
0.0
  0
LINE
  5
2A9
  8
0
 10
157.38969105451889
 20
111.7140977868255
 30
0.0
 11
90.564015444543202
 21
111.7140977868255
 31
0.0
  0
LINE
  5
2AA
  8
1
 10
100.0637987596466
 20
116.7140977868255
 30
0.0
 11
100.0637987596466
 21
86.714097786825391
 31
0.0
  0
LINE
  5
374
  8
0
 10
109.0637987596465
 20
91.714097786825391
 30
0.0
 11
91.063798759646616
 21
91.714097786825391
 31
0.0
  0
LINE
  5
392
  8
0
 10
169.06379875964649
 20
106.71409778682521
 30
0.0
 11
89.563798759646602
 21
106.7140977868266
 31
0.0
  0
ARC
  5
395
  8
0
 10
169.06379875964649
 20
108.21409778682521
 30
0.0
 40
1.5
 50
270.0
 51
0.0
  0
LINE
  5
3A7
  8
0
 10
110.5637987596465
 20
104.2140977868262
 30
0.0
 11
110.5637987596465
 21
93.214097786825391
 31
0.0
  0
LINE
  5
3A8
  8
0
 10
89.563798759646602
 20
105.4244619434286
 30
0.0
 11
89.563798759646602
 21
93.214097786825391
 31
0.0
  0
ARC
  5
3A9
  8
0
 10
91.063798759646616
 20
93.214097786825405
 30
0.0
 40
1.5
 50
180.0
 51
269.99999999999977
  0
ARC
  5
3AA
  8
0
 10
109.0637987596466
 20
93.214097786825405
 30
0.0
 40
1.5
 50
270.00000000000023
 51
0.0
  0
ARC
  5
3AB
  8
0
 10
91.063798759646545
 20
109.199379161064
 30
0.0
 40
3.0
 50
178.3131260401623
 51
223.34175822722381
  0
ARC
  5
3AC
  8
0
 10
87.063798759646659
 20
105.4244619434286
 30
0.0
 40
2.5
 50
0.0
 51
43.341758227223572
  0
ARC
  5
3AD
  8
0
 10
90.564015444543259
 20
109.2140977868255
 30
0.0
 40
2.5
 50
89.999999999999986
 51
178.3131260401623
  0
ARC
  5
3AE
  8
0
 10
113.0637987596465
 20
104.2140977868262
 30
0.0
 40
2.5
 50
89.999999999998963
 51
180.0
  0
LINE
  5
3AF
  8
0
 10
170.5637987596466
 20
117.71409778682541
 30
0.0
 11
155.5637987596466
 21
117.71409778682541
 31
0.0
  0
LINE
  5
3B0
  8
2
 10
165.5222987596465
 20
116.71409778682541
 30
0.0
 11
160.60529875964659
 21
116.71409778682541
 31
0.0
  0
CIRCLE
  5
3B4
  8
0
 10
100.0637987596465
 20
39.71409778682542
 30
0.0
 40
10.5
  0
TEXT
  5
3FC
  8
0
 10
139.33495423731361
 20
37.217090317738837
 30
0.0
 40
5.0
  1
4
 41
0.75
 72
     1
 11
140.6742399515993
 21
37.217090317738837
 31
0.0
  0
LINE
  5
3FD
  8
0
 10
138.0134390474164
 20
39.714097786825512
 30
0.0
 11
134.0134390474164
 21
39.71409778682554
 31
0.0
  0
TEXT
  5
3FE
  8
0
 10
126.1757775670447
 20
37.047869809905571
 30
0.0
 40
5.0
  1
SC
 41
0.75
 72
     1
 11
129.30077756704469
 21
37.047869809905571
 31
0.0
  0
ARC
  5
43A
  8
0
 10
157.38969105451889
 20
113.7140977868255
 30
0.0
 40
2.0
 50
270.0
 51
0.0
  0
CIRCLE
  5
43E
  8
2
 10
100.0637987596465
 20
165.21409778682539
 30
0.0
 40
10.5
  0
LINE
  5
43F
  8
1
 10
175.56379875964649
 20
165.21409778682539
 30
0.0
 11
83.063798759646545
 21
165.21409778682539
 31
0.0
  0
LINE
  5
440
  8
1
 10
100.0637987596465
 20
182.21409778682539
 30
0.0
 11
100.0637987596465
 21
148.21409778682539
 31
0.0
  0
LINE
  5
441
  8
1
 10
163.0637987596466
 20
177.71409778682539
 30
0.0
 11
163.0637987596466
 21
152.71409778682539
 31
0.0
  0
LINE
  5
443
  8
0
 10
113.6203811380142
 20
172.64253078092349
 30
0.0
 11
155.10321488906709
 21
170.7352740567371
 31
0.0
  0
ARC
  5
444
  8
0
 10
114.1715230579881
 20
184.62986754035629
 30
0.0
 40
12.0
 50
233.99740835365239
 51
267.36756513101318
  0
ARC
  5
445
  8
0
 10
155.47064283571649
 20
178.72683189635899
 30
0.0
 40
8.0
 50
267.36756513101318
 51
299.33276214877333
  0
ARC
  5
446
  8
0
 10
155.47064283571649
 20
151.70136367729191
 30
0.0
 40
8.0
 50
60.667237851226652
 51
92.632434868986749
  0
ARC
  5
447
  8
0
 10
114.1715230579881
 20
145.79832803329461
 30
0.0
 40
12.0
 50
92.632434868986749
 51
126.0025916463476
  0
LINE
  5
448
  8
0
 10
113.6203811380142
 20
157.78566479272729
 30
0.0
 11
155.10321488906709
 21
159.6929215169138
 31
0.0
  0
ARC
  5
449
  8
0
 10
100.0637987596465
 20
165.21409778682539
 30
0.0
 40
12.0
 50
53.997408353646151
 51
306.00259164635378
  0
CIRCLE
  5
44B
  8
3
 10
163.0637987596466
 20
165.21409778682539
 30
0.0
 40
3.0
  0
CIRCLE
  5
44C
  8
0
 10
163.0637987596466
 20
165.21409778682539
 30
0.0
 40
2.458499999999999
  0
CIRCLE
  5
44D
  8
2
 10
100.0637987596465
 20
165.21409778682539
 30
0.0
 40
2.5358983848623771
  0
CIRCLE
  5
45E
  8
0
 10
163.0637987596466
 20
165.21409778682539
 30
0.0
 40
7.5000000000001128
  0
LINE
  5
462
  8
0
 10
47.563798759646488
 20
117.7140977868255
 30
0.0
 11
32.563798759646488
 21
117.7140977868255
 31
0.0
  0
ARC
  5
464
  8
0
 10
30.564015444543202
 20
109.2140977868256
 30
0.0
 40
2.5
 50
89.999999999999986
 51
178.3131260401623
  0
ARC
  5
465
  8
0
 10
27.063798759646598
 20
105.4244619434286
 30
0.0
 40
2.5
 50
0.0
 51
43.341758227223572
  0
ARC
  5
466
  8
0
 10
31.063798759646492
 20
109.1993791610641
 30
0.0
 40
3.0
 50
178.3131260401623
 51
223.34175822722381
  0
ARC
  5
467
  8
0
 10
49.063798759646538
 20
93.214097786825477
 30
0.0
 40
1.5
 50
270.00000000000023
 51
0.0
  0
ARC
  5
468
  8
0
 10
31.063798759646549
 20
93.214097786825477
 30
0.0
 40
1.5
 50
180.0
 51
269.99999999999977
  0
LINE
  5
469
  8
0
 10
29.563798759646549
 20
105.4244619434286
 30
0.0
 11
29.563798759646549
 21
93.214097786825448
 31
0.0
  0
LINE
  5
46A
  8
0
 10
50.563798759646431
 20
105.4244619434286
 30
0.0
 11
50.563798759646481
 21
93.214097786825448
 31
0.0
  0
LINE
  5
46C
  8
0
 10
50.563798759646431
 20
106.7140977868263
 30
0.0
 11
29.563798759646549
 21
106.7140977868266
 31
0.0
  0
LINE
  5
46D
  8
0
 10
49.063798759646488
 20
91.714097786825434
 30
0.0
 11
31.063798759646549
 21
91.714097786825434
 31
0.0
  0
LINE
  5
46E
  8
1
 10
40.063798759646602
 20
122.7140977868255
 30
0.0
 11
40.063798759646538
 21
86.714097786825434
 31
0.0
  0
LINE
  5
46F
  8
0
 10
49.563582074750002
 20
111.7140977868255
 30
0.0
 11
30.564015444543148
 21
111.7140977868255
 31
0.0
  0
LINE
  5
470
  8
0
 10
32.563798759646488
 20
117.71409778682541
 30
0.0
 11
32.563798759646538
 21
111.7140977868255
 31
0.0
  0
LINE
  5
471
  8
0
 10
47.563798759646488
 20
117.7140977868255
 30
0.0
 11
47.563798759646488
 21
111.7140977868255
 31
0.0
  0
ARC
  5
473
  8
2
 10
42.86764633693997
 20
92.714097786825576
 30
0.0
 40
1.0
 50
239.99999999999889
 51
270.0
  0
LINE
  5
474
  8
2
 10
41.563798759646481
 20
92.312173998178935
 30
0.0
 11
42.367646336939913
 21
91.848072383041156
 31
0.0
  0
LINE
  5
475
  8
2
 10
38.563798759646552
 20
92.312173998178935
 30
0.0
 11
37.759951182353063
 21
91.848072383041156
 31
0.0
  0
ARC
  5
476
  8
2
 10
40.063798759646602
 20
89.71409778682559
 30
0.0
 40
3.0
 50
59.999999999998892
 51
120.00000000000109
  0
ARC
  5
477
  8
2
 10
37.25995118235312
 20
92.714097786825576
 30
0.0
 40
1.0
 50
270.0
 51
300.00000000000108
  0
ARC
  5
480
  8
0
 10
49.063798759646708
 20
109.1993791610641
 30
0.0
 40
3.0
 50
316.65824177277619
 51
1.6868739598376441
  0
ARC
  5
481
  8
0
 10
53.063798759646602
 20
105.4244619434286
 30
0.0
 40
2.5
 50
136.65824177277639
 51
180.0
  0
ARC
  5
482
  8
0
 10
49.563582074750002
 20
109.2140977868256
 30
0.0
 40
2.5
 50
1.6868739598376441
 51
90.000000000000028
  0
POLYLINE
  5
483
  8
0
 66
     1
 10
0.0
 20
0.0
 30
0.0
  0
VERTEX
  5
484
  8
0
 10
33.525379029225519
 20
111.7140977868255
 30
0.0
 42
0.2047432520499064
  0
VERTEX
  5
485
  8
0
 10
33.779635638765463
 20
111.8227678648674
 30
0.0
 42
0.0967727231870232
  0
VERTEX
  5
486
  8
0
 10
34.085481116017888
 20
112.2998842244524
 30
0.0
 42
0.0536755916950255
 70
     2
 50
68.393859620806538
  0
VERTEX
  5
487
  8
0
 10
34.273357232828751
 20
112.9791263561402
 30
0.0
 42
0.0513632718245207
 50
68.393859620806538
  0
VERTEX
  5
488
  8
0
 10
34.31748299668039
 20
113.7140977868255
 30
0.0
 42
0.0406728450042714
  0
SEQEND
  5
489
  8
0
  0
POLYLINE
  5
48A
  8
0
 66
     1
 10
0.0
 20
0.0
 30
0.0
  0
VERTEX
  5
48B
  8
0
 10
46.602218490067571
 20
111.7140977868255
 30
0.0
 42
-0.2047432520499064
  0
VERTEX
  5
48C
  8
0
 10
46.347961880527627
 20
111.8227678648674
 30
0.0
 42
-0.0967727231870232
  0
VERTEX
  5
48D
  8
0
 10
46.042116403275138
 20
112.2998842244524
 30
0.0
 42
-0.0536755916950255
 70
     2
 50
111.6061403791935
  0
VERTEX
  5
48E
  8
0
 10
45.854240286464282
 20
112.9791263561402
 30
0.0
 42
-0.0513632718245207
  0
VERTEX
  5
48F
  8
0
 10
45.81011452261265
 20
113.7140977868255
 30
0.0
 42
-0.0406728450042714
  0
SEQEND
  5
490
  8
0
  0
ARC
  5
4A0
  8
0
 10
232.56358207475
 20
109.2140977868255
 30
0.0
 40
2.5
 50
1.6868739598376441
 51
90.000000000000028
  0
ARC
  5
4A1
  8
0
 10
236.06379875964649
 20
105.4244619434286
 30
0.0
 40
2.5
 50
136.65824177277639
 51
180.0
  0
ARC
  5
4A2
  8
0
 10
232.06379875964669
 20
109.199379161064
 30
0.0
 40
3.0
 50
316.65824177277619
 51
1.6868739598376441
  0
ARC
  5
4A4
  8
2
 10
220.25995118235301
 20
92.714097786825533
 30
0.0
 40
1.0
 50
270.0
 51
300.00000000000108
  0
ARC
  5
4A5
  8
2
 10
223.06379875964649
 20
89.714097786825533
 30
0.0
 40
3.0
 50
59.999999999998892
 51
120.00000000000109
  0
LINE
  5
4A6
  8
2
 10
221.56379875964649
 20
92.312173998178878
 30
0.0
 11
220.75995118235301
 21
91.848072383041085
 31
0.0
  0
LINE
  5
4A7
  8
2
 10
224.56379875964649
 20
92.312173998178878
 30
0.0
 11
225.3676463369398
 21
91.848072383041085
 31
0.0
  0
ARC
  5
4A8
  8
2
 10
225.86764633694
 20
92.714097786825533
 30
0.0
 40
1.0
 50
239.99999999999889
 51
270.0
  0
LINE
  5
4A9
  8
0
 10
230.56379875964649
 20
117.71409778682541
 30
0.0
 11
230.56379875964649
 21
108.2140977868263
 31
0.0
  0
LINE
  5
4AA
  8
0
 10
215.56379875964649
 20
117.71409778682531
 30
0.0
 11
215.56379875964669
 21
108.2140977868263
 31
0.0
  0
LINE
  5
4AB
  8
0
 10
232.56358207475
 20
111.7140977868255
 30
0.0
 11
230.56379875964649
 21
111.7140977868255
 31
0.0
  0
LINE
  5
4AC
  8
1
 10
223.06379875964649
 20
122.71409778682541
 30
0.0
 11
223.06379875964649
 21
86.714097786825391
 31
0.0
  0
LINE
  5
4AD
  8
0
 10
232.06379875964649
 20
91.714097786825391
 30
0.0
 11
214.06379875964649
 21
91.714097786825391
 31
0.0
  0
LINE
  5
4AE
  8
0
 10
233.5637987596464
 20
106.7140977868262
 30
0.0
 11
212.56379875964649
 21
106.7140977868266
 31
0.0
  0
LINE
  5
4AF
  8
0
 10
233.5637987596464
 20
105.4244619434286
 30
0.0
 11
233.56379875964649
 21
93.214097786825391
 31
0.0
  0
LINE
  5
4B0
  8
0
 10
212.56379875964649
 20
105.4244619434286
 30
0.0
 11
212.56379875964649
 21
93.214097786825391
 31
0.0
  0
ARC
  5
4B1
  8
0
 10
214.06379875964649
 20
93.214097786825405
 30
0.0
 40
1.5
 50
180.0
 51
269.99999999999977
  0
ARC
  5
4B2
  8
0
 10
232.06379875964649
 20
93.214097786825405
 30
0.0
 40
1.5
 50
270.00000000000023
 51
0.0
  0
ARC
  5
4B3
  8
0
 10
214.06379875964649
 20
109.199379161064
 30
0.0
 40
3.0
 50
178.3131260401623
 51
223.34175822722381
  0
ARC
  5
4B4
  8
0
 10
210.06379875964649
 20
105.4244619434286
 30
0.0
 40
2.5
 50
0.0
 51
43.341758227223572
  0
ARC
  5
4B5
  8
0
 10
213.5640154445432
 20
109.2140977868255
 30
0.0
 40
2.5
 50
89.999999999999986
 51
178.3131260401623
  0
LINE
  5
4B6
  8
0
 10
230.56379875964649
 20
117.71409778682541
 30
0.0
 11
215.56379875964649
 21
117.71409778682541
 31
0.0
  0
ARC
  5
4B7
  8
0
 10
229.0637987596464
 20
108.2140977868263
 30
0.0
 40
1.5
 50
270.0
 51
0.0
  0
ARC
  5
4B8
  8
0
 10
217.06379875964669
 20
108.2140977868263
 30
0.0
 40
1.5
 50
180.0
 51
270.0
  0
LINE
  5
4B9
  8
0
 10
215.5637987596466
 20
111.7140977868255
 30
0.0
 11
213.56401544454309
 21
111.7140977868255
 31
0.0
  0
TEXT
  5
564
  8
0
 62
     3
 10
0.0
 20
0.0
 30
0.0
 40
10.0
  1
SC4
  7
STANDARD1
  0
ENDSEC
  0
EOF
