  0
SECTION
  2
HEADER
  9
$ACADVER
  1
AC1009
  9
$INSBASE
 10
0.0
 20
0.0
 30
0.0
  9
$EXTMIN
 10
0.0
 20
-2.960436562073669
 30
0.0
  9
$EXTMAX
 10
290.32447402736972
 20
159.44501846568491
 30
0.0
  9
$LIMMIN
 10
0.0
 20
0.0
  9
$LIMMAX
 10
375.0
 20
270.0
  9
$ORTHOMODE
 70
     0
  9
$REGENMODE
 70
     1
  9
$FILLMODE
 70
     1
  9
$QTEXTMODE
 70
     0
  9
$MIRRTEXT
 70
     0
  9
$DRAGMODE
 70
     2
  9
$LTSCALE
 40
10.0
  9
$OSMODE
 70
    55
  9
$ATTMODE
 70
     1
  9
$TEXTSIZE
 40
2.0
  9
$TRACEWID
 40
0.05
  9
$TEXTSTYLE
  7
STANDARD
  9
$CLAYER
  8
0
  9
$CELTYPE
  6
BYLAYER
  9
$CECOLOR
 62
   256
  9
$DIMSCALE
 40
1.0
  9
$DIMASZ
 40
2.5
  9
$DIMEXO
 40
2.0
  9
$DIMDLI
 40
0.38
  9
$DIMRND
 40
0.0
  9
$DIMDLE
 40
0.0
  9
$DIMEXE
 40
2.0
  9
$DIMTP
 40
0.0
  9
$DIMTM
 40
0.0
  9
$DIMTXT
 40
3.0
  9
$DIMCEN
 40
0.09
  9
$DIMTSZ
 40
0.0
  9
$DIMTOL
 70
     0
  9
$DIMLIM
 70
     0
  9
$DIMTIH
 70
     0
  9
$DIMTOH
 70
     0
  9
$DIMSE1
 70
     0
  9
$DIMSE2
 70
     0
  9
$DIMTAD
 70
     1
  9
$DIMZIN
 70
     0
  9
$DIMBLK
  1

  9
$DIMASO
 70
     1
  9
$DIMSHO
 70
     0
  9
$DIMPOST
  1

  9
$DIMAPOST
  1

  9
$DIMALT
 70
     0
  9
$DIMALTD
 70
     2
  9
$DIMALTF
 40
25.399999999999999
  9
$DIMLFAC
 40
1.0
  9
$DIMTOFL
 70
     0
  9
$DIMTVP
 40
1.6000000000000001
  9
$DIMTIX
 70
     1
  9
$DIMSOXD
 70
     0
  9
$DIMSAH
 70
     0
  9
$DIMBLK1
  1

  9
$DIMBLK2
  1

  9
$DIMSTYLE
  2
STANDARD
  9
$DIMCLRD
 70
     0
  9
$DIMCLRE
 70
     0
  9
$DIMCLRT
 70
     0
  9
$DIMTFAC
 40
1.0
  9
$DIMGAP
 40
0.09
  9
$LUNITS
 70
     2
  9
$LUPREC
 70
     4
  9
$SKETCHINC
 40
0.1
  9
$FILLETRAD
 40
2.5
  9
$AUNITS
 70
     0
  9
$AUPREC
 70
     0
  9
$MENU
  1
E:\r13\win\SUPPORT\ACAD
  9
$ELEVATION
 40
0.0
  9
$PELEVATION
 40
0.0
  9
$THICKNESS
 40
0.0
  9
$LIMCHECK
 70
     0
  9
$BLIPMODE
 70
     0
  9
$CHAMFERA
 40
0.0
  9
$CHAMFERB
 40
0.0
  9
$SKPOLY
 70
     0
  9
$TDCREATE
 40
2448650.5678784722
  9
$TDUPDATE
 40
2456598.477006794
  9
$TDINDWG
 40
0.0253589468
  9
$TDUSRTIMER
 40
0.0253589468
  9
$USRTIMER
 70
     1
  9
$ANGBASE
 50
0.0
  9
$ANGDIR
 70
     0
  9
$PDMODE
 70
     0
  9
$PDSIZE
 40
0.0
  9
$PLINEWID
 40
0.0
  9
$COORDS
 70
     1
  9
$SPLFRAME
 70
     0
  9
$SPLINETYPE
 70
     6
  9
$SPLINESEGS
 70
     8
  9
$ATTDIA
 70
     0
  9
$ATTREQ
 70
     1
  9
$HANDLING
 70
     1
  9
$HANDSEED
  5
D09
  9
$SURFTAB1
 70
     6
  9
$SURFTAB2
 70
     6
  9
$SURFTYPE
 70
     6
  9
$SURFU
 70
     6
  9
$SURFV
 70
     6
  9
$UCSNAME
  2

  9
$UCSORG
 10
0.0
 20
0.0
 30
0.0
  9
$UCSXDIR
 10
1.0
 20
0.0
 30
0.0
  9
$UCSYDIR
 10
0.0
 20
1.0
 30
0.0
  9
$PUCSNAME
  2

  9
$PUCSORG
 10
0.0
 20
0.0
 30
0.0
  9
$PUCSXDIR
 10
1.0
 20
0.0
 30
0.0
  9
$PUCSYDIR
 10
0.0
 20
1.0
 30
0.0
  9
$USERI1
 70
     0
  9
$USERI2
 70
     1
  9
$USERI3
 70
     1
  9
$USERI4
 70
     0
  9
$USERI5
 70
     0
  9
$USERR1
 40
0.0
  9
$USERR2
 40
0.0
  9
$USERR3
 40
0.0
  9
$USERR4
 40
0.0
  9
$USERR5
 40
0.0
  9
$WORLDVIEW
 70
     1
  9
$SHADEDGE
 70
     3
  9
$SHADEDIF
 70
    70
  9
$TILEMODE
 70
     1
  9
$MAXACTVP
 70
    16
  9
$PLIMCHECK
 70
     0
  9
$PEXTMIN
 10
1.0000000000000000E+020
 20
1.0000000000000000E+020
 30
1.0000000000000000E+020
  9
$PEXTMAX
 10
-1.0000000000000000E+020
 20
-1.0000000000000000E+020
 30
-1.0000000000000000E+020
  9
$PLIMMIN
 10
0.0
 20
0.0
  9
$PLIMMAX
 10
12.0
 20
9.0
  9
$UNITMODE
 70
     0
  9
$VISRETAIN
 70
     0
  9
$PLINEGEN
 70
     1
  9
$PSLTSCALE
 70
     0
  0
ENDSEC
  0
SECTION
  2
TABLES
  0
TABLE
  2
VPORT
 70
     1
  0
VPORT
  2
*ACTIVE
 70
     0
 10
0.0
 20
0.0
 11
1.0
 21
1.0
 12
187.49427839065231
 22
194.785247995265
 13
0.0
 23
0.0
 14
10.0
 24
10.0
 15
10.0
 25
10.0
 16
0.0
 26
0.0
 36
1.0
 17
0.0
 27
0.0
 37
0.0
 40
399.3463374158577
 41
1.7807262569832401
 42
50.0
 43
0.0
 44
0.0
 50
0.0
 51
0.0
 71
     0
 72
   500
 73
     1
 74
     0
 75
     0
 76
     0
 77
     0
 78
     2
  0
ENDTAB
  0
TABLE
  2
LTYPE
 70
     4
  0
LTYPE
  2
CONTINUOUS
 70
     0
  3
Solid Line
 72
    65
 73
     0
 40
0.0
  0
LTYPE
  2
CENTER
 70
     0
  3
____ _ ____ _ ____ _ ____ _ ____ _ ____ _ ____
 72
    65
 73
     4
 40
2.0
 49
1.25
 49
-0.25
 49
0.25
 49
-0.25
  0
LTYPE
  2
HIDDEN
 70
     0
  3
_ _ _ _ _ _ _ _ _ _ _ _ _ _ _ _ _ _ _ _ _ _ _
 72
    65
 73
     2
 40
0.375
 49
0.25
 49
-0.125
  0
LTYPE
  2
PHANTOM2
 70
     0
  3
___ _ _ ___ _ _ ___ _ _ ___ _ _
 72
    65
 73
     6
 40
1.25
 49
0.625
 49
-0.125
 49
0.125
 49
-0.125
 49
0.125
 49
-0.125
  0
ENDTAB
  0
TABLE
  2
LAYER
 70
     4
  0
LAYER
  2
0
 70
     0
 62
     7
  6
CONTINUOUS
  0
LAYER
  2
1
 70
     0
 62
     1
  6
CENTER
  0
LAYER
  2
3
 70
     0
 62
     3
  6
CONTINUOUS
  0
LAYER
  2
2
 70
     0
 62
     2
  6
HIDDEN
  0
ENDTAB
  0
TABLE
  2
STYLE
 70
     2
  0
STYLE
  2
STANDARD
 70
     0
 40
0.0
 41
1.0
 50
0.0
 71
     0
 42
2.0
  3
TXT
  4
BIGFONT
  0
STYLE
  2
STANDARD1
 70
     0
 40
0.0
 41
1.0
 50
0.0
 71
     0
 42
3.0
  3
txt
  4

  0
ENDTAB
  0
TABLE
  2
VIEW
 70
     1
  0
VIEW
  2
ALL
 70
     0
 40
270.0
 10
220.99159663865549
 20
135.0
 41
0.0
 11
0.0
 21
0.0
 31
1.0
 12
0.0
 22
0.0
 32
0.0
 42
0.0
 43
0.0
 44
0.0
 50
0.0
 71
     0
  0
ENDTAB
  0
TABLE
  2
UCS
 70
     0
  0
ENDTAB
  0
TABLE
  2
APPID
 70
     3
  0
APPID
  2
ACAD
 70
     0
  0
APPID
  2
ACAD_MLEADERVER
 70
     0
  0
APPID
  2
ACAD_NAV_VCDISPLAY
 70
     0
  0
ENDTAB
  0
TABLE
  2
DIMSTYLE
 70
     1
  0
DIMSTYLE
  2
STANDARD
 70
     0
  3

  4

  5

  6

  7

 40
1.0
 41
0.18
 42
0.0625
 43
0.38
 44
0.18
 45
0.0
 46
0.0
 47
0.0
 48
0.0
140
0.18
141
0.09
142
0.0
143
25.399999999999999
144
1.0
145
0.0
146
1.0
147
0.09
 71
     0
 72
     0
 73
     1
 74
     1
 75
     0
 76
     0
 77
     0
 78
     0
170
     0
171
     2
172
     0
173
     0
174
     0
175
     0
176
     0
177
     0
178
     0
  0
ENDTAB
  0
ENDSEC
  0
SECTION
  2
BLOCKS
  0
BLOCK
  8
0
  2
$MODEL_SPACE
 70
     0
 10
0.0
 20
0.0
 30
0.0
  3
$MODEL_SPACE
  1

  0
ENDBLK
  5
217
  8
0
  0
BLOCK
 67
     1
  8
0
  2
$PAPER_SPACE
 70
     0
 10
0.0
 20
0.0
 30
0.0
  3
$PAPER_SPACE
  1

  0
ENDBLK
  5
215
 67
     1
  8
0
  0
ENDSEC
  0
SECTION
  2
ENTITIES
  0
LINE
  5
B1C
  8
2
 10
217.3244740273698
 20
149.3625189425222
 30
0.0
 11
215.3244740273698
 21
147.3625189425222
 31
0.0
  0
LINE
  5
B1D
  8
2
 10
215.3244740273698
 20
147.3625189425222
 30
0.0
 11
215.3244740273698
 21
133.52751894252211
 31
0.0
  0
LINE
  5
B1E
  8
2
 10
217.3244740273698
 20
131.52751894252199
 30
0.0
 11
215.3244740273698
 21
133.52751894252211
 31
0.0
  0
LINE
  5
B1F
  8
2
 10
192.3244740273698
 20
132.44501894252221
 30
0.0
 11
190.44952902817641
 21
133.52751894252219
 31
0.0
  0
LINE
  5
B20
  8
2
 10
192.3244740273698
 20
148.4450189425221
 30
0.0
 11
190.44952902817641
 21
147.3625189425222
 31
0.0
  0
LINE
  5
B21
  8
2
 10
181.32447402736969
 20
147.36251894252209
 30
0.0
 11
177.16802069524641
 21
140.44501894252201
 31
0.0
  0
LINE
  5
B22
  8
2
 10
181.32447402736969
 20
133.52751894252191
 30
0.0
 11
177.16802069524641
 21
140.44501894252201
 31
0.0
  0
LINE
  5
B23
  8
2
 10
181.32447402736969
 20
133.52751894252199
 30
0.0
 11
181.32447402736969
 21
147.36251894252209
 31
0.0
  0
LINE
  5
B24
  8
2
 10
192.3244740273698
 20
132.4450189425221
 30
0.0
 11
192.3244740273698
 21
148.4450189425221
 31
0.0
  0
LINE
  5
B25
  8
2
 10
216.4069740273697
 20
148.4450189425221
 30
0.0
 11
192.3244740273698
 21
148.4450189425221
 31
0.0
  0
LINE
  5
B26
  8
2
 10
215.3244740273698
 20
147.3625189425222
 30
0.0
 11
181.32447402736969
 21
147.36251894252209
 31
0.0
  0
LINE
  5
B27
  8
2
 10
215.3244740273698
 20
133.52751894252211
 30
0.0
 11
181.32447402736969
 21
133.52751894252199
 31
0.0
  0
LINE
  5
B28
  8
2
 10
216.4069740273697
 20
132.4450189425221
 30
0.0
 11
192.3244740273698
 21
132.4450189425221
 31
0.0
  0
LINE
  5
B29
  8
1
 10
85.324474027369888
 20
140.445018465685
 30
0.0
 11
47.324474027370002
 21
140.445018465685
 31
0.0
  0
CIRCLE
  5
B2A
  8
0
 10
66.324474027369945
 20
140.445018465685
 30
0.0
 40
13.99999999999994
  0
LINE
  5
B2B
  8
1
 10
66.324474027369945
 20
121.445018465685
 30
0.0
 11
66.324474027369945
 21
159.44501846568491
 31
0.0
  0
CIRCLE
  5
B2C
  8
0
 10
271.32447402736977
 20
140.445018465685
 30
0.0
 40
12.75000000000011
  0
CIRCLE
  5
B2D
  8
0
 10
271.32447402736977
 20
140.445018465685
 30
0.0
 40
6.9175000000000004
  0
CIRCLE
  5
B2E
  8
3
 10
271.32447402736977
 20
140.445018465685
 30
0.0
 40
8.0
  0
LINE
  5
B2F
  8
1
 10
271.32447402736977
 20
121.445018465685
 30
0.0
 11
271.32447402736977
 21
159.44501846568491
 31
0.0
  0
CIRCLE
  5
B30
  8
0
 10
271.32447402736977
 20
140.445018465685
 30
0.0
 40
13.99999999999994
  0
LINE
  5
B31
  8
1
 10
252.3244740273698
 20
140.445018465685
 30
0.0
 11
290.32447402736972
 21
140.445018465685
 31
0.0
  0
ARC
  5
B8A
  8
0
 10
170.3244740273698
 20
140.445018465685
 30
0.0
 40
50.0
 50
167.44414220141451
 51
192.55585779858549
  0
ARC
  5
B8B
  8
0
 10
215.8244740273698
 20
151.74354924258211
 30
0.0
 40
1.5
 50
0.0
 51
88.115949768906418
  0
ARC
  5
B8C
  8
0
 10
215.8244740273698
 20
129.1464876887878
 30
0.0
 40
1.5
 50
271.88405023109362
 51
0.0
  0
LINE
  5
B8D
  8
0
 10
215.8737894586273
 20
127.64729857855529
 30
0.0
 11
179.32447402736969
 21
126.445018465685
 31
0.0
  0
LINE
  5
B8E
  8
0
 10
215.8737894586273
 20
153.2427383528148
 30
0.0
 11
179.32447402736969
 21
154.445018465685
 31
0.0
  0
LINE
  5
B8F
  8
0
 10
179.32447402736969
 20
154.445018465685
 30
0.0
 11
179.32447402736969
 21
126.4450184656849
 31
0.0
  0
LINE
  5
B90
  8
0
 10
125.4245853860825
 20
152.945018465685
 30
0.0
 11
125.4245853860824
 21
127.945018465685
 31
0.0
  0
LINE
  5
B91
  8
0
 10
179.32447402736969
 20
154.445018465685
 30
0.0
 11
125.4245853860825
 21
154.445018465685
 31
0.0
  0
LINE
  5
B92
  8
0
 10
179.32447402736969
 20
126.445018465685
 30
0.0
 11
125.4245853860825
 21
126.445018465685
 31
0.0
  0
LINE
  5
B93
  8
0
 10
217.3244740273698
 20
151.74354924258211
 30
0.0
 11
217.3244740273698
 21
129.14648864246209
 31
0.0
  0
LINE
  5
B94
  8
1
 10
222.3244740273698
 20
140.445018465685
 30
0.0
 11
115.3244740273698
 21
140.445018465685
 31
0.0
  0
ARC
  5
B95
  8
0
 10
125.4245853860824
 20
150.445018465685
 30
0.0
 40
4.0
 50
90.0
 51
167.44414220141451
  0
ARC
  5
B96
  8
0
 10
125.4245853860824
 20
130.445018465685
 30
0.0
 40
4.0
 50
192.55585779858691
 51
270.0
  0
TEXT
  5
C72
  8
0
 62
     3
 10
0.0
 20
0.0
 30
0.0
 40
10.0
  1
SBG16
  7
STANDARD1
  0
ENDSEC
  0
EOF
