  0
SECTION
  2
HEADER
  9
$ACADVER
  1
AC1009
  9
$INSBASE
 10
0.0
 20
0.0
 30
0.0
  9
$EXTMIN
 10
0.0
 20
-2.960436562073669
 30
0.0
  9
$EXTMAX
 10
156.6743060145489
 20
77.267602894397271
 30
0.0
  9
$LIMMIN
 10
0.0
 20
0.0
  9
$LIMMAX
 10
187.5
 20
135.0
  9
$ORTHOMODE
 70
     1
  9
$REGENMODE
 70
     1
  9
$FILLMODE
 70
     1
  9
$QTEXTMODE
 70
     0
  9
$MIRRTEXT
 70
     0
  9
$DRAGMODE
 70
     2
  9
$LTSCALE
 40
5.0
  9
$OSMODE
 70
    55
  9
$ATTMODE
 70
     1
  9
$TEXTSIZE
 40
2.5
  9
$TRACEWID
 40
0.05
  9
$TEXTSTYLE
  7
STANDARD
  9
$CLAYER
  8
0
  9
$CELTYPE
  6
BYLAYER
  9
$CECOLOR
 62
   256
  9
$DIMSCALE
 40
0.5
  9
$DIMASZ
 40
3.0
  9
$DIMEXO
 40
2.0
  9
$DIMDLI
 40
10.0
  9
$DIMRND
 40
0.0
  9
$DIMDLE
 40
0.0
  9
$DIMEXE
 40
2.0
  9
$DIMTP
 40
0.0
  9
$DIMTM
 40
0.0
  9
$DIMTXT
 40
3.0
  9
$DIMCEN
 40
0.09
  9
$DIMTSZ
 40
0.0
  9
$DIMTOL
 70
     0
  9
$DIMLIM
 70
     0
  9
$DIMTIH
 70
     0
  9
$DIMTOH
 70
     0
  9
$DIMSE1
 70
     0
  9
$DIMSE2
 70
     0
  9
$DIMTAD
 70
     1
  9
$DIMZIN
 70
     0
  9
$DIMBLK
  1

  9
$DIMASO
 70
     0
  9
$DIMSHO
 70
     0
  9
$DIMPOST
  1

  9
$DIMAPOST
  1

  9
$DIMALT
 70
     0
  9
$DIMALTD
 70
     2
  9
$DIMALTF
 40
25.399999999999999
  9
$DIMLFAC
 40
1.0
  9
$DIMTOFL
 70
     1
  9
$DIMTVP
 40
1.6000000000000001
  9
$DIMTIX
 70
     1
  9
$DIMSOXD
 70
     0
  9
$DIMSAH
 70
     0
  9
$DIMBLK1
  1

  9
$DIMBLK2
  1

  9
$DIMSTYLE
  2
STANDARD
  9
$DIMCLRD
 70
     0
  9
$DIMCLRE
 70
     0
  9
$DIMCLRT
 70
     0
  9
$DIMTFAC
 40
1.0
  9
$DIMGAP
 40
0.09
  9
$LUNITS
 70
     2
  9
$LUPREC
 70
     4
  9
$SKETCHINC
 40
0.1
  9
$FILLETRAD
 40
0.0
  9
$AUNITS
 70
     0
  9
$AUPREC
 70
     0
  9
$MENU
  1
E:\r13\win\SUPPORT\ACAD
  9
$ELEVATION
 40
0.0
  9
$PELEVATION
 40
0.0
  9
$THICKNESS
 40
0.0
  9
$LIMCHECK
 70
     0
  9
$BLIPMODE
 70
     0
  9
$CHAMFERA
 40
3.2000000000000002
  9
$CHAMFERB
 40
3.2000000000000002
  9
$SKPOLY
 70
     0
  9
$TDCREATE
 40
2449840.5944097228
  9
$TDUPDATE
 40
2456598.4767159838
  9
$TDINDWG
 40
0.2775988773
  9
$TDUSRTIMER
 40
0.2775988773
  9
$USRTIMER
 70
     1
  9
$ANGBASE
 50
0.0
  9
$ANGDIR
 70
     0
  9
$PDMODE
 70
     0
  9
$PDSIZE
 40
0.0
  9
$PLINEWID
 40
0.0
  9
$COORDS
 70
     1
  9
$SPLFRAME
 70
     0
  9
$SPLINETYPE
 70
     6
  9
$SPLINESEGS
 70
     8
  9
$ATTDIA
 70
     0
  9
$ATTREQ
 70
     1
  9
$HANDLING
 70
     1
  9
$HANDSEED
  5
3A01
  9
$SURFTAB1
 70
     6
  9
$SURFTAB2
 70
     6
  9
$SURFTYPE
 70
     6
  9
$SURFU
 70
     6
  9
$SURFV
 70
     6
  9
$UCSNAME
  2

  9
$UCSORG
 10
0.0
 20
0.0
 30
0.0
  9
$UCSXDIR
 10
1.0
 20
0.0
 30
0.0
  9
$UCSYDIR
 10
0.0
 20
1.0
 30
0.0
  9
$PUCSNAME
  2

  9
$PUCSORG
 10
0.0
 20
0.0
 30
0.0
  9
$PUCSXDIR
 10
1.0
 20
0.0
 30
0.0
  9
$PUCSYDIR
 10
0.0
 20
1.0
 30
0.0
  9
$USERI1
 70
     0
  9
$USERI2
 70
     1
  9
$USERI3
 70
     1
  9
$USERI4
 70
     0
  9
$USERI5
 70
     0
  9
$USERR1
 40
0.0
  9
$USERR2
 40
0.0
  9
$USERR3
 40
0.0
  9
$USERR4
 40
0.0
  9
$USERR5
 40
0.0
  9
$WORLDVIEW
 70
     1
  9
$SHADEDGE
 70
     3
  9
$SHADEDIF
 70
    70
  9
$TILEMODE
 70
     1
  9
$MAXACTVP
 70
    16
  9
$PLIMCHECK
 70
     0
  9
$PEXTMIN
 10
1.0000000000000000E+020
 20
1.0000000000000000E+020
 30
1.0000000000000000E+020
  9
$PEXTMAX
 10
-1.0000000000000000E+020
 20
-1.0000000000000000E+020
 30
-1.0000000000000000E+020
  9
$PLIMMIN
 10
0.0
 20
0.0
  9
$PLIMMAX
 10
12.0
 20
9.0
  9
$UNITMODE
 70
     0
  9
$VISRETAIN
 70
     0
  9
$PLINEGEN
 70
     0
  9
$PSLTSCALE
 70
     0
  0
ENDSEC
  0
SECTION
  2
TABLES
  0
TABLE
  2
VPORT
 70
     1
  0
VPORT
  2
*ACTIVE
 70
     0
 10
0.0
 20
0.0
 11
1.0
 21
1.0
 12
93.747139195326156
 22
96.983959220318994
 13
0.0
 23
0.0
 14
5.0
 24
5.0
 15
5.0
 25
5.0
 16
0.0
 26
0.0
 36
1.0
 17
0.0
 27
0.0
 37
0.0
 40
201.84293963319561
 41
1.7807262569832401
 42
50.0
 43
0.0
 44
0.0
 50
0.0
 51
0.0
 71
     0
 72
   100
 73
     1
 74
     0
 75
     0
 76
     0
 77
     0
 78
     0
  0
ENDTAB
  0
TABLE
  2
LTYPE
 70
     4
  0
LTYPE
  2
CONTINUOUS
 70
     0
  3
Solid Line
 72
    65
 73
     0
 40
0.0
  0
LTYPE
  2
CENTER
 70
     0
  3
____ _ ____ _ ____ _ ____ _ ____ _ ____ _ ____
 72
    65
 73
     4
 40
2.0
 49
1.25
 49
-0.25
 49
0.25
 49
-0.25
  0
LTYPE
  2
HIDDEN
 70
     0
  3
_ _ _ _ _ _ _ _ _ _ _ _ _ _ _ _ _ _ _ _ _ _ _
 72
    65
 73
     2
 40
0.375
 49
0.25
 49
-0.125
  0
LTYPE
  2
PHANTOM2
 70
     0
  3
___ _ _ ___ _ _ ___ _ _ ___ _ _
 72
    65
 73
     6
 40
1.25
 49
0.625
 49
-0.125
 49
0.125
 49
-0.125
 49
0.125
 49
-0.125
  0
ENDTAB
  0
TABLE
  2
LAYER
 70
     4
  0
LAYER
  2
0
 70
     0
 62
     7
  6
CONTINUOUS
  0
LAYER
  2
1
 70
     0
 62
     1
  6
CENTER
  0
LAYER
  2
2
 70
     0
 62
     2
  6
HIDDEN
  0
LAYER
  2
3
 70
     0
 62
     3
  6
CONTINUOUS
  0
ENDTAB
  0
TABLE
  2
STYLE
 70
     2
  0
STYLE
  2
STANDARD
 70
     0
 40
0.0
 41
1.0
 50
0.0
 71
     0
 42
2.5
  3
TXT
  4
BIGFONT
  0
STYLE
  2
STANDARD1
 70
     0
 40
0.0
 41
1.0
 50
0.0
 71
     0
 42
3.0
  3
txt
  4

  0
ENDTAB
  0
TABLE
  2
VIEW
 70
     1
  0
VIEW
  2
ALL
 70
     0
 40
135.0
 10
110.49579799999999
 20
67.5
 41
0.0
 11
0.0
 21
0.0
 31
1.0
 12
0.0
 22
0.0
 32
0.0
 42
0.0
 43
0.0
 44
0.0
 50
0.0
 71
     0
  0
ENDTAB
  0
TABLE
  2
UCS
 70
     0
  0
ENDTAB
  0
TABLE
  2
APPID
 70
     4
  0
APPID
  2
ACAD
 70
     0
  0
APPID
  2
DCO15
 70
     0
  0
APPID
  2
ACAD_MLEADERVER
 70
     0
  0
APPID
  2
ACAD_NAV_VCDISPLAY
 70
     0
  0
ENDTAB
  0
TABLE
  2
DIMSTYLE
 70
     1
  0
DIMSTYLE
  2
STANDARD
 70
     0
  3

  4

  5

  6

  7

 40
1.0
 41
0.18
 42
0.0625
 43
0.38
 44
0.18
 45
0.0
 46
0.0
 47
0.0
 48
0.0
140
0.18
141
0.09
142
0.0
143
25.399999999999999
144
1.0
145
0.0
146
1.0
147
0.09
 71
     0
 72
     0
 73
     1
 74
     1
 75
     0
 76
     0
 77
     0
 78
     0
170
     0
171
     2
172
     0
173
     0
174
     0
175
     0
176
     0
177
     0
178
     0
  0
ENDTAB
  0
ENDSEC
  0
SECTION
  2
BLOCKS
  0
BLOCK
  8
0
  2
$MODEL_SPACE
 70
     0
 10
0.0
 20
0.0
 30
0.0
  3
$MODEL_SPACE
  1

  0
ENDBLK
  5
15D
  8
0
  0
BLOCK
 67
     1
  8
0
  2
$PAPER_SPACE
 70
     0
 10
0.0
 20
0.0
 30
0.0
  3
$PAPER_SPACE
  1

  0
ENDBLK
  5
15B
 67
     1
  8
0
  0
BLOCK
  8
0
  2
STDGX5
 70
     0
 10
0.0
 20
0.0
 30
0.0
  3
STDGX5
  1

  0
ENDBLK
  5
41
  8
0
  0
ENDSEC
  0
SECTION
  2
ENTITIES
  0
INSERT
  5
CA
  8
0
  2
STDGX5
 10
0.0
 20
0.0
 30
0.0
  0
INSERT
  5
69A
  8
0
  2
STDGX5
 10
194.3272563481562
 20
13.52129245667936
 30
0.0
  0
LINE
  5
389B
  8
1
 10
31.674306014548929
 20
77.267602894397271
 30
0.0
 11
31.674306014548929
 21
47.267602894397257
 31
0.0
  0
CIRCLE
  5
389C
  8
0
 10
31.674306014548929
 20
62.267602894397271
 30
0.0
 40
10.0
  0
LINE
  5
389D
  8
2
 10
93.874306014548864
 20
64.334602894397463
 30
0.0
 11
94.674306014548904
 21
65.134602894397474
 31
0.0
  0
LINE
  5
389E
  8
2
 10
93.874306014548935
 20
60.200602894397093
 30
0.0
 11
93.874306014548864
 21
64.334602894397463
 31
0.0
  0
LINE
  5
389F
  8
2
 10
94.674306014548932
 20
59.400602894397132
 30
0.0
 11
93.874306014548935
 21
60.200602894397093
 31
0.0
  0
LINE
  5
38A0
  8
2
 10
84.674306014548904
 20
59.76760289439742
 30
0.0
 11
83.924328014872003
 21
60.200602894397221
 31
0.0
  0
LINE
  5
38A1
  8
2
 10
84.674306014548904
 20
64.767602894397257
 30
0.0
 11
83.924328014872003
 21
64.334602894397463
 31
0.0
  0
LINE
  5
38A2
  8
2
 10
80.674306014548904
 20
60.200602894397051
 30
0.0
 11
80.674306014548904
 21
64.334602894397463
 31
0.0
  0
LINE
  5
38A3
  8
2
 10
84.674306014548904
 20
59.767602894397257
 30
0.0
 11
84.674306014548904
 21
64.767602894397257
 31
0.0
  0
LINE
  5
38A4
  8
2
 10
80.674306014548904
 20
64.334602894397463
 30
0.0
 11
79.432327115018765
 21
62.267602894397257
 31
0.0
  0
LINE
  5
38A5
  8
2
 10
80.674306014548847
 20
60.200602894397051
 30
0.0
 11
79.432327115018765
 21
62.267602894397278
 31
0.0
  0
LINE
  5
38A6
  8
2
 10
94.307306014548729
 20
64.767602894397299
 30
0.0
 11
84.674306014548904
 21
64.767602894397299
 31
0.0
  0
LINE
  5
38A7
  8
2
 10
93.874306014548935
 20
64.334602894397506
 30
0.0
 11
80.674306014548904
 21
64.334602894397506
 31
0.0
  0
LINE
  5
38A8
  8
2
 10
93.874306014548935
 20
60.200602894397093
 30
0.0
 11
80.674306014548904
 21
60.200602894397093
 31
0.0
  0
LINE
  5
38A9
  8
2
 10
94.307306014548729
 20
59.767602894397299
 30
0.0
 11
84.674306014548904
 21
59.767602894397299
 31
0.0
  0
LINE
  5
38AA
  8
0
 10
94.674306014548932
 20
56.267602894397271
 30
0.0
 11
94.674306014548904
 21
68.267602894397299
 31
0.0
  0
ARC
  5
38AB
  8
0
 10
86.674306014548947
 20
62.267602894397271
 30
0.0
 40
10.0
 50
36.869897645844247
 51
323.13010235415572
  0
LINE
  5
38AC
  8
1
 10
46.674306014548932
 20
62.267602894397271
 30
0.0
 11
16.674306014548929
 21
62.267602894397271
 31
0.0
  0
LINE
  5
38AD
  8
1
 10
86.674306014548947
 20
77.267602894397271
 30
0.0
 11
86.674306014548947
 21
47.267602894397257
 31
0.0
  0
LINE
  5
38AE
  8
1
 10
99.674306014548861
 20
62.267602894397271
 30
0.0
 11
71.674306014548932
 21
62.267602894397271
 31
0.0
  0
CIRCLE
  5
38B0
  8
0
 10
141.6743060145489
 20
62.267602894397271
 30
0.0
 40
10.0
  0
LINE
  5
38B1
  8
1
 10
126.6743060145489
 20
62.267602894397271
 30
0.0
 11
156.6743060145489
 21
62.267602894397271
 31
0.0
  0
LINE
  5
38B2
  8
1
 10
141.6743060145489
 20
77.267602894397271
 30
0.0
 11
141.6743060145489
 21
47.267602894397257
 31
0.0
  0
CIRCLE
  5
38B4
  8
0
 10
141.6743060145489
 20
62.267602894397271
 30
0.0
 40
6.0000000000000284
  0
CIRCLE
  5
38B7
  8
0
 10
141.6743060145489
 20
62.267602894397271
 30
0.0
 40
2.0670000000002342
  0
CIRCLE
  5
38B8
  8
3
 10
141.6743060145489
 20
62.267602894397271
 30
0.0
 40
2.500000000000028
  0
TEXT
  5
3968
  8
0
 62
     3
 10
0.0
 20
0.0
 30
0.0
 40
10.0
  1
SB20X5-SUS
  7
STANDARD1
  0
ENDSEC
  0
EOF
