  0
SECTION
  2
HEADER
  9
$ACADVER
  1
AC1009
  9
$INSBASE
 10
0.0
 20
0.0
 30
0.0
  9
$EXTMIN
 10
0.0
 20
-2.960436562073669
 30
0.0
  9
$EXTMAX
 10
152.1390000676995
 20
91.450980194400927
 30
0.0
  9
$LIMMIN
 10
0.0
 20
0.0
  9
$LIMMAX
 10
187.5
 20
135.0
  9
$ORTHOMODE
 70
     1
  9
$REGENMODE
 70
     1
  9
$FILLMODE
 70
     1
  9
$QTEXTMODE
 70
     0
  9
$MIRRTEXT
 70
     0
  9
$DRAGMODE
 70
     2
  9
$LTSCALE
 40
5.0
  9
$OSMODE
 70
    55
  9
$ATTMODE
 70
     1
  9
$TEXTSIZE
 40
0.2
  9
$TRACEWID
 40
0.05
  9
$TEXTSTYLE
  7
STANDARD
  9
$CLAYER
  8
0
  9
$CELTYPE
  6
BYLAYER
  9
$CECOLOR
 62
   256
  9
$DIMSCALE
 40
0.5
  9
$DIMASZ
 40
3.0
  9
$DIMEXO
 40
2.0
  9
$DIMDLI
 40
0.3799999999999999
  9
$DIMRND
 40
0.0
  9
$DIMDLE
 40
0.0
  9
$DIMEXE
 40
2.0
  9
$DIMTP
 40
0.0
  9
$DIMTM
 40
0.0
  9
$DIMTXT
 40
3.2000000000000002
  9
$DIMCEN
 40
0.09
  9
$DIMTSZ
 40
0.0
  9
$DIMTOL
 70
     0
  9
$DIMLIM
 70
     0
  9
$DIMTIH
 70
     0
  9
$DIMTOH
 70
     0
  9
$DIMSE1
 70
     0
  9
$DIMSE2
 70
     0
  9
$DIMTAD
 70
     1
  9
$DIMZIN
 70
     0
  9
$DIMBLK
  1

  9
$DIMASO
 70
     0
  9
$DIMSHO
 70
     0
  9
$DIMPOST
  1

  9
$DIMAPOST
  1

  9
$DIMALT
 70
     0
  9
$DIMALTD
 70
     2
  9
$DIMALTF
 40
25.399999999999999
  9
$DIMLFAC
 40
1.0
  9
$DIMTOFL
 70
     0
  9
$DIMTVP
 40
1.6000000000000001
  9
$DIMTIX
 70
     1
  9
$DIMSOXD
 70
     0
  9
$DIMSAH
 70
     0
  9
$DIMBLK1
  1

  9
$DIMBLK2
  1

  9
$DIMSTYLE
  2
STANDARD
  9
$DIMCLRD
 70
     0
  9
$DIMCLRE
 70
     0
  9
$DIMCLRT
 70
     0
  9
$DIMTFAC
 40
1.0
  9
$DIMGAP
 40
0.09
  9
$LUNITS
 70
     2
  9
$LUPREC
 70
     4
  9
$SKETCHINC
 40
0.1
  9
$FILLETRAD
 40
0.4
  9
$AUNITS
 70
     0
  9
$AUPREC
 70
     0
  9
$MENU
  1
E:\r13\win\SUPPORT\ACAD
  9
$ELEVATION
 40
0.0
  9
$PELEVATION
 40
0.0
  9
$THICKNESS
 40
0.0
  9
$LIMCHECK
 70
     0
  9
$BLIPMODE
 70
     0
  9
$CHAMFERA
 40
0.0
  9
$CHAMFERB
 40
0.0
  9
$SKPOLY
 70
     0
  9
$TDCREATE
 40
2449840.6005787039
  9
$TDUPDATE
 40
2456598.5984201161
  9
$TDINDWG
 40
0.0009255324
  9
$TDUSRTIMER
 40
0.0009255324
  9
$USRTIMER
 70
     1
  9
$ANGBASE
 50
0.0
  9
$ANGDIR
 70
     0
  9
$PDMODE
 70
     0
  9
$PDSIZE
 40
0.0
  9
$PLINEWID
 40
0.0
  9
$COORDS
 70
     1
  9
$SPLFRAME
 70
     0
  9
$SPLINETYPE
 70
     6
  9
$SPLINESEGS
 70
     8
  9
$ATTDIA
 70
     0
  9
$ATTREQ
 70
     1
  9
$HANDLING
 70
     1
  9
$HANDSEED
  5
288
  9
$SURFTAB1
 70
     6
  9
$SURFTAB2
 70
     6
  9
$SURFTYPE
 70
     6
  9
$SURFU
 70
     6
  9
$SURFV
 70
     6
  9
$UCSNAME
  2

  9
$UCSORG
 10
0.0
 20
0.0
 30
0.0
  9
$UCSXDIR
 10
1.0
 20
0.0
 30
0.0
  9
$UCSYDIR
 10
0.0
 20
1.0
 30
0.0
  9
$PUCSNAME
  2

  9
$PUCSORG
 10
0.0
 20
0.0
 30
0.0
  9
$PUCSXDIR
 10
1.0
 20
0.0
 30
0.0
  9
$PUCSYDIR
 10
0.0
 20
1.0
 30
0.0
  9
$USERI1
 70
     0
  9
$USERI2
 70
     1
  9
$USERI3
 70
     0
  9
$USERI4
 70
     0
  9
$USERI5
 70
     0
  9
$USERR1
 40
0.0
  9
$USERR2
 40
0.0
  9
$USERR3
 40
0.0
  9
$USERR4
 40
0.0
  9
$USERR5
 40
0.0
  9
$WORLDVIEW
 70
     1
  9
$SHADEDGE
 70
     3
  9
$SHADEDIF
 70
    70
  9
$TILEMODE
 70
     1
  9
$MAXACTVP
 70
    16
  9
$PLIMCHECK
 70
     0
  9
$PEXTMIN
 10
1.0000000000000000E+020
 20
1.0000000000000000E+020
 30
1.0000000000000000E+020
  9
$PEXTMAX
 10
-1.0000000000000000E+020
 20
-1.0000000000000000E+020
 30
-1.0000000000000000E+020
  9
$PLIMMIN
 10
0.0
 20
0.0
  9
$PLIMMAX
 10
12.0
 20
9.0
  9
$UNITMODE
 70
     0
  9
$VISRETAIN
 70
     0
  9
$PLINEGEN
 70
     0
  9
$PSLTSCALE
 70
     0
  0
ENDSEC
  0
SECTION
  2
TABLES
  0
TABLE
  2
VPORT
 70
     1
  0
VPORT
  2
*ACTIVE
 70
     0
 10
0.0
 20
0.0
 11
1.0
 21
1.0
 12
93.747139195326156
 22
96.983959220318994
 13
0.0
 23
0.0
 14
5.0
 24
5.0
 15
5.0
 25
5.0
 16
0.0
 26
0.0
 36
1.0
 17
0.0
 27
0.0
 37
0.0
 40
201.84293963319561
 41
1.7807262569832401
 42
50.0
 43
0.0
 44
0.0
 50
0.0
 51
0.0
 71
     0
 72
   500
 73
     1
 74
     0
 75
     0
 76
     0
 77
     0
 78
     2
  0
ENDTAB
  0
TABLE
  2
LTYPE
 70
     4
  0
LTYPE
  2
CONTINUOUS
 70
     0
  3
Solid Line
 72
    65
 73
     0
 40
0.0
  0
LTYPE
  2
CENTER
 70
     0
  3
____ _ ____ _ ____ _ ____ _ ____ _ ____ _ ____
 72
    65
 73
     4
 40
2.0
 49
1.25
 49
-0.25
 49
0.25
 49
-0.25
  0
LTYPE
  2
HIDDEN
 70
     0
  3
_ _ _ _ _ _ _ _ _ _ _ _ _ _ _ _ _ _ _ _ _ _ _
 72
    65
 73
     2
 40
0.375
 49
0.25
 49
-0.125
  0
LTYPE
  2
PHANTOM2
 70
     0
  3
___ _ _ ___ _ _ ___ _ _ ___ _ _
 72
    65
 73
     6
 40
1.25
 49
0.625
 49
-0.125
 49
0.125
 49
-0.125
 49
0.125
 49
-0.125
  0
ENDTAB
  0
TABLE
  2
LAYER
 70
     4
  0
LAYER
  2
0
 70
     0
 62
     7
  6
CONTINUOUS
  0
LAYER
  2
1
 70
     0
 62
     1
  6
CENTER
  0
LAYER
  2
3
 70
     0
 62
     3
  6
CONTINUOUS
  0
LAYER
  2
2
 70
     0
 62
     2
  6
HIDDEN
  0
ENDTAB
  0
TABLE
  2
STYLE
 70
     2
  0
STYLE
  2
STANDARD
 70
     0
 40
0.0
 41
1.0
 50
0.0
 71
     0
 42
0.2
  3
TXT
  4
BIGFONT
  0
STYLE
  2
STANDARD1
 70
     0
 40
0.0
 41
1.0
 50
0.0
 71
     0
 42
3.0
  3
txt
  4

  0
ENDTAB
  0
TABLE
  2
VIEW
 70
     1
  0
VIEW
  2
ALL
 70
     0
 40
135.0
 10
110.4957983193277
 20
67.5
 41
0.0
 11
0.0
 21
0.0
 31
1.0
 12
0.0
 22
0.0
 32
0.0
 42
0.0
 43
0.0
 44
0.0
 50
0.0
 71
     0
  0
ENDTAB
  0
TABLE
  2
UCS
 70
     0
  0
ENDTAB
  0
TABLE
  2
APPID
 70
     3
  0
APPID
  2
ACAD
 70
     0
  0
APPID
  2
ACAD_MLEADERVER
 70
     0
  0
APPID
  2
ACAD_NAV_VCDISPLAY
 70
     0
  0
ENDTAB
  0
TABLE
  2
DIMSTYLE
 70
     1
  0
DIMSTYLE
  2
STANDARD
 70
     0
  3

  4

  5

  6

  7

 40
1.0
 41
0.18
 42
0.0625
 43
0.38
 44
0.18
 45
0.0
 46
0.0
 47
0.0
 48
0.0
140
0.18
141
0.09
142
0.0
143
25.399999999999999
144
1.0
145
0.0
146
1.0
147
0.09
 71
     0
 72
     0
 73
     1
 74
     1
 75
     0
 76
     0
 77
     0
 78
     0
170
     0
171
     2
172
     0
173
     0
174
     0
175
     0
176
     0
177
     0
178
     0
  0
ENDTAB
  0
ENDSEC
  0
SECTION
  2
BLOCKS
  0
BLOCK
  8
0
  2
$MODEL_SPACE
 70
     0
 10
0.0
 20
0.0
 30
0.0
  3
$MODEL_SPACE
  1

  0
ENDBLK
  5
13C
  8
0
  0
BLOCK
 67
     1
  8
0
  2
$PAPER_SPACE
 70
     0
 10
0.0
 20
0.0
 30
0.0
  3
$PAPER_SPACE
  1

  0
ENDBLK
  5
13A
 67
     1
  8
0
  0
ENDSEC
  0
SECTION
  2
ENTITIES
  0
CIRCLE
  5
BC
  8
0
 10
45.428957056783247
 20
72.450980194400927
 30
0.0
 40
5.0
  0
CIRCLE
  5
BD
  8
0
 10
45.428957056783247
 20
72.450980194400927
 30
0.0
 40
8.0
  0
CIRCLE
  5
BE
  8
1
 10
45.428957056783247
 20
72.450980194400927
 30
0.0
 40
11.5
  0
LINE
  5
BF
  8
1
 10
64.428957056783247
 20
72.450980194400927
 30
0.0
 11
26.428957056783251
 21
72.450980194400927
 31
0.0
  0
CIRCLE
  5
C0
  8
0
 10
45.428957056783247
 20
72.450980194400927
 30
0.0
 40
16.0
  0
CIRCLE
  5
C1
  8
3
 10
33.928957056783247
 20
72.450980194400927
 30
0.0
 40
2.0
  0
CIRCLE
  5
C2
  8
0
 10
33.928957056783247
 20
72.450980194400927
 30
0.0
 40
1.649999999999999
  0
CIRCLE
  5
C3
  8
0
 10
33.928957056783247
 20
72.450980194400927
 30
0.0
 40
3.25
  0
CIRCLE
  5
C4
  8
3
 10
56.92895705678324
 20
72.450980194400927
 30
0.0
 40
1.9999999999999989
  0
CIRCLE
  5
C5
  8
0
 10
56.92895705678324
 20
72.450980194400927
 30
0.0
 40
1.649999999999999
  0
CIRCLE
  5
C6
  8
0
 10
56.92895705678324
 20
72.450980194400927
 30
0.0
 40
3.25
  0
LINE
  5
C7
  8
1
 10
45.428957056783247
 20
91.450980194400927
 30
0.0
 11
45.428957056783247
 21
53.450980194400927
 31
0.0
  0
CIRCLE
  5
C8
  8
3
 10
45.428957056783247
 20
60.950980194400927
 30
0.0
 40
2.0
  0
CIRCLE
  5
C9
  8
0
 10
45.428957056783247
 20
60.950980194400927
 30
0.0
 40
1.649999999999999
  0
CIRCLE
  5
CA
  8
0
 10
45.428957056783247
 20
60.950980194400927
 30
0.0
 40
3.25
  0
CIRCLE
  5
CB
  8
3
 10
45.428957056783247
 20
83.950980194400927
 30
0.0
 40
2.0
  0
CIRCLE
  5
CC
  8
0
 10
45.428957056783247
 20
83.950980194400927
 30
0.0
 40
3.25
  0
CIRCLE
  5
CD
  8
0
 10
45.428957056783247
 20
83.950980194400927
 30
0.0
 40
1.649999999999999
  0
LINE
  5
D9
  8
0
 10
122.9289570567831
 20
67.450980194400955
 30
0.0
 11
130.92895705678319
 21
67.450980194400927
 31
0.0
  0
LINE
  5
DA
  8
0
 10
130.92895705678319
 20
77.450980194400927
 30
0.0
 11
122.9289570567831
 21
77.450980194400913
 31
0.0
  0
LINE
  5
DB
  8
1
 10
113.7625685854361
 20
72.450980194400927
 30
0.0
 11
152.1390000676995
 21
72.450980194400927
 31
0.0
  0
LINE
  5
DC
  8
0
 10
123.2289570567831
 20
77.450980194400927
 30
0.0
 11
130.62895705678321
 21
77.450980194400927
 31
0.0
  0
LINE
  5
DD
  8
0
 10
123.2289570567831
 20
67.450980194400927
 30
0.0
 11
130.62895705678321
 21
67.450980194400927
 31
0.0
  0
LINE
  5
DE
  8
0
 10
121.778957056783
 20
77.450980194400913
 30
0.0
 11
121.778957056783
 21
67.450980194400955
 31
0.0
  0
LINE
  5
DF
  8
0
 10
119.42895705678301
 20
76.950980194400913
 30
0.0
 11
119.42895705678301
 21
67.950980194400955
 31
0.0
  0
POLYLINE
  5
E0
  8
0
 66
     1
 10
0.0
 20
0.0
 30
0.0
 70
     1
  0
VERTEX
  5
E1
  8
0
 10
121.9289570567831
 20
66.200980194400927
 30
0.0
  0
VERTEX
  5
E2
  8
0
 10
122.9289570567831
 20
66.200980194400927
 30
0.0
  0
VERTEX
  5
E3
  8
0
 10
122.9289570567831
 20
78.700980194400927
 30
0.0
  0
VERTEX
  5
E4
  8
0
 10
121.9289570567831
 20
78.700980194400927
 30
0.0
  0
SEQEND
  5
E5
  8
0
  0
LINE
  5
E6
  8
0
 10
119.9289570567831
 20
67.450980194400969
 30
0.0
 11
121.778957056783
 21
67.450980194400969
 31
0.0
  0
LINE
  5
E7
  8
0
 10
119.42895705678301
 20
67.950980194400955
 30
0.0
 11
119.9289570567831
 21
67.450980194400955
 31
0.0
  0
LINE
  5
E8
  8
0
 10
121.778957056783
 20
67.65098019440093
 30
0.0
 11
121.9289570567831
 21
67.65098019440093
 31
0.0
  0
LINE
  5
E9
  8
0
 10
121.778957056783
 20
77.450980194400913
 30
0.0
 11
119.9289570567831
 21
77.450980194400913
 31
0.0
  0
LINE
  5
EA
  8
0
 10
119.42895705678301
 20
76.950980194400913
 30
0.0
 11
119.9289570567831
 21
77.450980194400913
 31
0.0
  0
LINE
  5
EB
  8
0
 10
121.778957056783
 20
77.250980194400924
 30
0.0
 11
121.9289570567831
 21
77.250980194400924
 31
0.0
  0
LINE
  5
EC
  8
0
 10
145.42895705678319
 20
56.95098019440092
 30
0.0
 11
145.42895705678319
 21
87.950980194400927
 31
0.0
  0
LINE
  5
ED
  8
0
 10
137.42895705678319
 20
87.950980194400927
 30
0.0
 11
137.42895705678319
 21
56.95098019440092
 31
0.0
  0
LINE
  5
EE
  8
0
 10
130.92895705678319
 20
79.950980194400927
 30
0.0
 11
130.92895705678319
 21
64.950980194400927
 31
0.0
  0
LINE
  5
EF
  8
0
 10
137.92895705678319
 20
56.450980194400927
 30
0.0
 11
144.92895705678319
 21
56.450980194400927
 31
0.0
  0
LINE
  5
F0
  8
2
 10
140.7289570567832
 20
59.300980194400978
 30
0.0
 11
145.42895705678319
 21
59.300980194400957
 31
0.0
  0
LINE
  5
F1
  8
2
 10
145.42895705678319
 20
58.950980194400913
 30
0.0
 11
140.7289570567832
 21
58.950980194400927
 31
0.0
  0
LINE
  5
F2
  8
2
 10
145.42895705678319
 20
62.950980194400927
 30
0.0
 11
140.7289570567832
 21
62.950980194400927
 31
0.0
  0
LINE
  5
F3
  8
2
 10
140.7289570567832
 20
62.600980194400869
 30
0.0
 11
145.42895705678319
 21
62.60098019440089
 31
0.0
  0
LINE
  5
F4
  8
1
 10
135.38037692659461
 20
60.950980194400927
 30
0.0
 11
149.62354790811639
 21
60.950980194400927
 31
0.0
  0
LINE
  5
F5
  8
2
 10
140.7289570567832
 20
64.200980194400927
 30
0.0
 11
140.7289570567832
 21
57.700980194400927
 31
0.0
  0
LINE
  5
F6
  8
2
 10
140.7289570567832
 20
57.700980194400927
 30
0.0
 11
137.42895705678319
 21
57.700980194400927
 31
0.0
  0
LINE
  5
F7
  8
0
 10
137.42895705678319
 20
56.95098019440092
 30
0.0
 11
137.92895705678319
 21
56.450980194400927
 31
0.0
  0
LINE
  5
F8
  8
0
 10
131.42895705678319
 20
64.450980194400927
 30
0.0
 11
137.42895705678319
 21
64.450980194400927
 31
0.0
  0
LINE
  5
F9
  8
0
 10
131.42895705678319
 20
64.450980194400927
 30
0.0
 11
130.92895705678319
 21
64.950980194400927
 31
0.0
  0
LINE
  5
FA
  8
2
 10
137.42895705678319
 20
64.200980194400927
 30
0.0
 11
140.7289570567832
 21
64.200980194400927
 31
0.0
  0
LINE
  5
FB
  8
0
 10
144.92895705678319
 20
56.450980194400927
 30
0.0
 11
145.42895705678319
 21
56.95098019440092
 31
0.0
  0
LINE
  5
FC
  8
0
 10
144.92895705678319
 20
88.450980194400927
 30
0.0
 11
137.92895705678319
 21
88.450980194400927
 31
0.0
  0
LINE
  5
FD
  8
1
 10
135.38037692659461
 20
83.950980194400927
 30
0.0
 11
149.62354790811639
 21
83.950980194400927
 31
0.0
  0
LINE
  5
FE
  8
2
 10
145.42895705678319
 20
85.950980194400941
 30
0.0
 11
140.7289570567832
 21
85.950980194400927
 31
0.0
  0
LINE
  5
FF
  8
2
 10
140.7289570567832
 20
85.600980194400876
 30
0.0
 11
145.42895705678319
 21
85.600980194400876
 31
0.0
  0
LINE
  5
100
  8
2
 10
140.7289570567832
 20
82.300980194400964
 30
0.0
 11
145.42895705678319
 21
82.300980194400964
 31
0.0
  0
LINE
  5
101
  8
2
 10
145.42895705678319
 20
81.950980194400927
 30
0.0
 11
140.7289570567832
 21
81.950980194400927
 31
0.0
  0
LINE
  5
102
  8
2
 10
140.7289570567832
 20
80.700980194400927
 30
0.0
 11
140.7289570567832
 21
87.200980194400927
 31
0.0
  0
LINE
  5
103
  8
0
 10
137.42895705678319
 20
80.450980194400927
 30
0.0
 11
131.42895705678319
 21
80.450980194400927
 31
0.0
  0
LINE
  5
104
  8
0
 10
130.92895705678319
 20
79.950980194400927
 30
0.0
 11
131.42895705678319
 21
80.450980194400927
 31
0.0
  0
LINE
  5
105
  8
2
 10
137.42895705678319
 20
80.700980194400927
 30
0.0
 11
140.7289570567832
 21
80.700980194400927
 31
0.0
  0
LINE
  5
106
  8
2
 10
140.7289570567832
 20
87.200980194400927
 30
0.0
 11
137.42895705678319
 21
87.200980194400927
 31
0.0
  0
LINE
  5
107
  8
0
 10
137.92895705678319
 20
88.450980194400927
 30
0.0
 11
137.42895705678319
 21
87.950980194400927
 31
0.0
  0
LINE
  5
108
  8
0
 10
145.42895705678319
 20
87.950980194400927
 30
0.0
 11
144.92895705678319
 21
88.450980194400927
 31
0.0
  0
TEXT
  5
1EF
  8
0
 62
     3
 10
0.0
 20
0.0
 30
0.0
 40
10.0
  1
RLP1008F
  7
STANDARD1
  0
ENDSEC
  0
EOF
