  0
SECTION
  2
HEADER
  9
$ACADVER
  1
AC1009
  9
$INSBASE
 10
0.0
 20
0.0
 30
0.0
  9
$EXTMIN
 10
0.0
 20
-2.960436562073669
 30
0.0
  9
$EXTMAX
 10
115.5798497760395
 20
70.790258547159453
 30
0.0
  9
$LIMMIN
 10
0.0
 20
0.0
  9
$LIMMAX
 10
187.5
 20
135.0
  9
$ORTHOMODE
 70
     0
  9
$REGENMODE
 70
     1
  9
$FILLMODE
 70
     1
  9
$QTEXTMODE
 70
     0
  9
$MIRRTEXT
 70
     0
  9
$DRAGMODE
 70
     2
  9
$LTSCALE
 40
5.0
  9
$OSMODE
 70
    37
  9
$ATTMODE
 70
     1
  9
$TEXTSIZE
 40
0.2
  9
$TRACEWID
 40
0.05
  9
$TEXTSTYLE
  7
STANDARD
  9
$CLAYER
  8
0
  9
$CELTYPE
  6
BYLAYER
  9
$CECOLOR
 62
   256
  9
$DIMSCALE
 40
0.5
  9
$DIMASZ
 40
3.0
  9
$DIMEXO
 40
2.0
  9
$DIMDLI
 40
0.3799999999999999
  9
$DIMRND
 40
0.0
  9
$DIMDLE
 40
0.0
  9
$DIMEXE
 40
2.0
  9
$DIMTP
 40
0.0
  9
$DIMTM
 40
0.0
  9
$DIMTXT
 40
3.2000000000000002
  9
$DIMCEN
 40
0.09
  9
$DIMTSZ
 40
0.0
  9
$DIMTOL
 70
     0
  9
$DIMLIM
 70
     0
  9
$DIMTIH
 70
     0
  9
$DIMTOH
 70
     0
  9
$DIMSE1
 70
     0
  9
$DIMSE2
 70
     0
  9
$DIMTAD
 70
     1
  9
$DIMZIN
 70
     0
  9
$DIMBLK
  1

  9
$DIMASO
 70
     0
  9
$DIMSHO
 70
     0
  9
$DIMPOST
  1

  9
$DIMAPOST
  1

  9
$DIMALT
 70
     0
  9
$DIMALTD
 70
     2
  9
$DIMALTF
 40
25.399999999999999
  9
$DIMLFAC
 40
1.0
  9
$DIMTOFL
 70
     0
  9
$DIMTVP
 40
1.6000000000000001
  9
$DIMTIX
 70
     1
  9
$DIMSOXD
 70
     0
  9
$DIMSAH
 70
     0
  9
$DIMBLK1
  1

  9
$DIMBLK2
  1

  9
$DIMSTYLE
  2
STANDARD
  9
$DIMCLRD
 70
     0
  9
$DIMCLRE
 70
     0
  9
$DIMCLRT
 70
     0
  9
$DIMTFAC
 40
1.0
  9
$DIMGAP
 40
0.09
  9
$LUNITS
 70
     2
  9
$LUPREC
 70
     4
  9
$SKETCHINC
 40
0.1
  9
$FILLETRAD
 40
0.4
  9
$AUNITS
 70
     0
  9
$AUPREC
 70
     0
  9
$MENU
  1
E:\r13\win\SUPPORT\ACAD
  9
$ELEVATION
 40
0.0
  9
$PELEVATION
 40
0.0
  9
$THICKNESS
 40
0.0
  9
$LIMCHECK
 70
     0
  9
$BLIPMODE
 70
     0
  9
$CHAMFERA
 40
0.0
  9
$CHAMFERB
 40
0.0
  9
$SKPOLY
 70
     0
  9
$TDCREATE
 40
2451824.6906229062
  9
$TDUPDATE
 40
2457162.3702177661
  9
$TDINDWG
 40
0.0258688194
  9
$TDUSRTIMER
 40
0.0258688194
  9
$USRTIMER
 70
     1
  9
$ANGBASE
 50
0.0
  9
$ANGDIR
 70
     0
  9
$PDMODE
 70
     0
  9
$PDSIZE
 40
0.0
  9
$PLINEWID
 40
0.0
  9
$COORDS
 70
     1
  9
$SPLFRAME
 70
     0
  9
$SPLINETYPE
 70
     6
  9
$SPLINESEGS
 70
     8
  9
$ATTDIA
 70
     0
  9
$ATTREQ
 70
     1
  9
$HANDLING
 70
     1
  9
$HANDSEED
  5
441
  9
$SURFTAB1
 70
     6
  9
$SURFTAB2
 70
     6
  9
$SURFTYPE
 70
     6
  9
$SURFU
 70
     6
  9
$SURFV
 70
     6
  9
$UCSNAME
  2

  9
$UCSORG
 10
0.0
 20
0.0
 30
0.0
  9
$UCSXDIR
 10
1.0
 20
0.0
 30
0.0
  9
$UCSYDIR
 10
0.0
 20
1.0
 30
0.0
  9
$PUCSNAME
  2

  9
$PUCSORG
 10
0.0
 20
0.0
 30
0.0
  9
$PUCSXDIR
 10
1.0
 20
0.0
 30
0.0
  9
$PUCSYDIR
 10
0.0
 20
1.0
 30
0.0
  9
$USERI1
 70
     0
  9
$USERI2
 70
     1
  9
$USERI3
 70
     0
  9
$USERI4
 70
     0
  9
$USERI5
 70
     0
  9
$USERR1
 40
0.0
  9
$USERR2
 40
0.0
  9
$USERR3
 40
0.0
  9
$USERR4
 40
0.0
  9
$USERR5
 40
0.0
  9
$WORLDVIEW
 70
     1
  9
$SHADEDGE
 70
     3
  9
$SHADEDIF
 70
    70
  9
$TILEMODE
 70
     1
  9
$MAXACTVP
 70
    16
  9
$PLIMCHECK
 70
     0
  9
$PEXTMIN
 10
1.0000000000000000E+020
 20
1.0000000000000000E+020
 30
1.0000000000000000E+020
  9
$PEXTMAX
 10
-1.0000000000000000E+020
 20
-1.0000000000000000E+020
 30
-1.0000000000000000E+020
  9
$PLIMMIN
 10
0.0
 20
0.0
  9
$PLIMMAX
 10
12.0
 20
9.0
  9
$UNITMODE
 70
     0
  9
$VISRETAIN
 70
     0
  9
$PLINEGEN
 70
     0
  9
$PSLTSCALE
 70
     0
  0
ENDSEC
  0
SECTION
  2
TABLES
  0
TABLE
  2
VPORT
 70
     1
  0
VPORT
  2
*ACTIVE
 70
     0
 10
0.0
 20
0.0
 11
1.0
 21
1.0
 12
57.793331337296181
 22
33.914173678580191
 13
0.0
 23
0.0
 14
5.0
 24
5.0
 15
5.0
 25
5.0
 16
0.0
 26
0.0
 36
1.0
 17
0.0
 27
0.0
 37
0.0
 40
84.969548590281889
 41
1.368715083798882
 42
50.0
 43
0.0
 44
0.0
 50
0.0
 51
0.0
 71
     0
 72
   500
 73
     1
 74
     0
 75
     0
 76
     0
 77
     0
 78
     2
  0
ENDTAB
  0
TABLE
  2
LTYPE
 70
     4
  0
LTYPE
  2
CONTINUOUS
 70
     0
  3
Solid Line
 72
    65
 73
     0
 40
0.0
  0
LTYPE
  2
CENTER
 70
     0
  3
____ _ ____ _ ____ _ ____ _ ____ _ ____ _ ____
 72
    65
 73
     4
 40
2.0
 49
1.25
 49
-0.25
 49
0.25
 49
-0.25
  0
LTYPE
  2
HIDDEN
 70
     0
  3
__ __ __ __ __ __ __ __ __ __ __ __ __ __ __ __
 72
    65
 73
     2
 40
0.375
 49
0.25
 49
-0.125
  0
LTYPE
  2
PHANTOM2
 70
     0
  3
___ _ _ ___ _ _ ___ _ _ ___ _ _
 72
    65
 73
     6
 40
1.25
 49
0.625
 49
-0.125
 49
0.125
 49
-0.125
 49
0.125
 49
-0.125
  0
ENDTAB
  0
TABLE
  2
LAYER
 70
     4
  0
LAYER
  2
0
 70
     0
 62
     7
  6
CONTINUOUS
  0
LAYER
  2
1
 70
     0
 62
     1
  6
CENTER
  0
LAYER
  2
2
 70
     0
 62
     2
  6
HIDDEN
  0
LAYER
  2
3
 70
     0
 62
     3
  6
CONTINUOUS
  0
ENDTAB
  0
TABLE
  2
STYLE
 70
     2
  0
STYLE
  2
STANDARD
 70
     0
 40
0.0
 41
1.0
 50
0.0
 71
     0
 42
0.2
  3
TXT
  4
BIGFONT
  0
STYLE
  2
STANDARD1
 70
     0
 40
0.0
 41
1.0
 50
0.0
 71
     0
 42
3.0
  3
txt
  4

  0
ENDTAB
  0
TABLE
  2
VIEW
 70
     0
  0
ENDTAB
  0
TABLE
  2
UCS
 70
     0
  0
ENDTAB
  0
TABLE
  2
APPID
 70
     4
  0
APPID
  2
ACAD
 70
     0
  0
APPID
  2
ACAD_MLEADERVER
 70
     0
  0
APPID
  2
ACAD_EXEMPT_FROM_CAD_STANDARDS
 70
     0
  0
APPID
  2
ACAD_NAV_VCDISPLAY
 70
     0
  0
ENDTAB
  0
TABLE
  2
DIMSTYLE
 70
     1
  0
DIMSTYLE
  2
STANDARD
 70
     0
  3

  4

  5

  6

  7

 40
1.0
 41
0.18
 42
0.0625
 43
0.38
 44
0.18
 45
0.0
 46
0.0
 47
0.0
 48
0.0
140
0.18
141
0.09
142
0.0
143
25.399999999999999
144
1.0
145
0.0
146
1.0
147
0.09
 71
     0
 72
     0
 73
     1
 74
     1
 75
     0
 76
     0
 77
     0
 78
     0
170
     0
171
     2
172
     0
173
     0
174
     0
175
     0
176
     0
177
     0
178
     0
  0
ENDTAB
  0
ENDSEC
  0
SECTION
  2
BLOCKS
  0
BLOCK
  8
0
  2
$MODEL_SPACE
 70
     0
 10
0.0
 20
0.0
 30
0.0
  3
$MODEL_SPACE
  1

  0
ENDBLK
  5
9
  8
0
  0
BLOCK
 67
     1
  8
0
  2
$PAPER_SPACE
 70
     0
 10
0.0
 20
0.0
 30
0.0
  3
$PAPER_SPACE
  1

  0
ENDBLK
  5
E
 67
     1
  8
0
  0
ENDSEC
  0
SECTION
  2
ENTITIES
  0
LINE
  5
170
  8
0
 10
74.379849776039705
 20
36.909060700676491
 30
0.0
 11
74.379849776039649
 21
27.671456393642419
 31
0.0
  0
LINE
  5
171
  8
0
 10
77.964849159213102
 20
36.909060700676491
 30
0.0
 11
78.379849776039649
 21
36.190258547162273
 31
0.0
  0
ARC
  5
172
  8
0
 10
76.277456550375533
 20
35.754360162297253
 30
0.0
 40
2.044658198744437
 50
325.615752532074
 51
25.615752533319782
  0
ARC
  5
173
  8
0
 10
70.679380339083949
 20
32.290258547146671
 30
0.0
 40
7.6427344100359971
 50
342.412046225974
 51
17.58795377422754
  0
ARC
  5
174
  8
0
 10
76.277456550375533
 20
28.826156932021782
 30
0.0
 40
2.044658198744437
 50
334.38424746668022
 51
34.384247467926009
  0
LINE
  5
175
  8
0
 10
77.964849159213102
 20
27.671456393642529
 30
0.0
 11
78.379849776039649
 21
28.390258547156751
 31
0.0
  0
LINE
  5
176
  8
0
 10
77.964849159213102
 20
36.909060700676491
 30
0.0
 11
74.379849776039705
 21
36.909060700676491
 31
0.0
  0
LINE
  5
177
  8
0
 10
78.379849776039705
 20
36.190258547160511
 30
0.0
 11
78.379849776039649
 21
28.390258547156922
 31
0.0
  0
LINE
  5
178
  8
0
 10
77.964849159202984
 20
34.599659623918001
 30
0.0
 11
74.379849776039677
 21
34.599659623905723
 31
0.0
  0
LINE
  5
179
  8
0
 10
74.379849776039649
 20
29.98085747040102
 30
0.0
 11
77.964849159204974
 21
29.98085747040102
 31
0.0
  0
LINE
  5
17A
  8
0
 10
77.964849159213045
 20
27.6714563936427
 30
0.0
 11
74.379849776039649
 21
27.671456393642419
 31
0.0
  0
LINE
  5
17B
  8
0
 10
59.57984977603968
 20
38.290258547159461
 30
0.0
 11
70.57984977603968
 21
38.290258547159461
 31
0.0
  0
LINE
  5
17C
  8
0
 10
71.07984977603968
 20
37.790258547159453
 30
0.0
 11
71.07984977603968
 21
26.79025854715945
 31
0.0
  0
LINE
  5
17D
  8
0
 10
70.57984977603968
 20
26.29025854715945
 30
0.0
 11
59.57984977603968
 21
26.29025854715945
 31
0.0
  0
LINE
  5
17E
  8
0
 10
59.57984977603968
 20
38.290258547159461
 30
0.0
 11
59.07984977603968
 21
37.790258547159453
 31
0.0
  0
LINE
  5
17F
  8
0
 10
70.57984977603968
 20
38.290258547159461
 30
0.0
 11
71.07984977603968
 21
37.790258547159453
 31
0.0
  0
LINE
  5
180
  8
0
 10
71.07984977603968
 20
26.79025854715945
 30
0.0
 11
70.57984977603968
 21
26.29025854715945
 31
0.0
  0
LINE
  5
181
  8
0
 10
59.57984977603968
 20
26.29025854715945
 30
0.0
 11
59.07984977603968
 21
26.79025854715945
 31
0.0
  0
LINE
  5
182
  8
0
 10
59.57984977603968
 20
38.290258547159461
 30
0.0
 11
59.57984977603968
 21
26.29025854715945
 31
0.0
  0
LINE
  5
183
  8
0
 10
70.57984977603968
 20
38.290258547159461
 30
0.0
 11
70.57984977603968
 21
26.29025854715945
 31
0.0
  0
LINE
  5
184
  8
1
 10
83.579849776039552
 20
32.290258547159461
 30
0.0
 11
45.179849776039539
 21
32.290258547159461
 31
0.0
  0
LINE
  5
185
  8
0
 10
58.779849776039683
 20
36.290258547159453
 30
0.0
 11
53.079849776039453
 21
36.290258547159397
 31
0.0
  0
LINE
  5
186
  8
0
 10
58.779849776039647
 20
28.290258547159461
 30
0.0
 11
53.079849776039623
 21
28.290258547159461
 31
0.0
  0
ARC
  5
187
  8
0
 10
58.779849776039683
 20
36.590258547159443
 30
0.0
 40
0.3
 50
269.99999999999977
 51
0.0
  0
LINE
  5
188
  8
0
 10
59.079849776039417
 20
37.790258547159198
 30
0.0
 11
59.07984977603968
 21
26.79025854715945
 31
0.0
  0
ARC
  5
189
  8
0
 10
58.779849776039647
 20
27.99025854715947
 30
0.0
 40
0.3
 50
0.0000000000008142
 51
90.0
  0
LINE
  5
18A
  8
0
 10
58.779849776039683
 20
36.290258547159453
 30
0.0
 11
58.779849776039647
 21
28.290258547159461
 31
0.0
  0
LINE
  5
18B
  8
0
 10
52.57984977603946
 20
35.790258547159397
 30
0.0
 11
52.579849776039602
 21
28.790258547159461
 31
0.0
  0
LINE
  5
18C
  8
0
 10
53.079849776039623
 20
28.290258547159461
 30
0.0
 11
52.579849776039602
 21
28.790258547159461
 31
0.0
  0
LINE
  5
18D
  8
0
 10
53.079849776039453
 20
36.290258547159397
 30
0.0
 11
52.57984977603946
 21
35.790258547159397
 31
0.0
  0
LINE
  5
18E
  8
0
 10
53.079849776039453
 20
36.290258547159397
 30
0.0
 11
53.079849776039623
 21
28.290258547159461
 31
0.0
  0
LINE
  5
18F
  8
0
 10
50.579849776039808
 20
27.5402585471594
 30
0.0
 11
51.079849776039516
 21
27.5402585471594
 31
0.0
  0
ARC
  5
190
  8
0
 10
50.678236032760047
 20
30.538644803879951
 30
0.0
 40
3.0
 50
181.8793760836227
 51
268.12062391601881
  0
ARC
  5
191
  8
0
 10
50.678236032760047
 20
34.041872290438882
 30
0.0
 40
3.0
 50
91.879376083981214
 51
178.12062391637721
  0
LINE
  5
192
  8
0
 10
47.679849776039539
 20
30.440258547178189
 30
0.0
 11
47.679849776039539
 21
34.140258547159142
 31
0.0
  0
LINE
  5
193
  8
0
 10
50.579849776039552
 20
27.5402585471594
 30
0.0
 11
50.579849776039516
 21
37.040258547159397
 31
0.0
  0
LINE
  5
194
  8
0
 10
50.579849776039808
 20
37.040258547159397
 30
0.0
 11
51.079849776039516
 21
37.040258547159397
 31
0.0
  0
LINE
  5
195
  8
2
 10
57.079849776039531
 20
30.223258547159279
 30
0.0
 11
56.329871776362587
 21
29.790258547159478
 31
0.0
  0
LINE
  5
199
  8
2
 10
57.079849776039531
 20
34.35725854715966
 30
0.0
 11
56.329871776362587
 21
34.790258547159461
 31
0.0
  0
LINE
  5
19A
  8
2
 10
57.079849776039531
 20
34.790258547159461
 30
0.0
 11
57.079849776039531
 21
29.790258547159461
 31
0.0
  0
LINE
  5
19C
  8
2
 10
51.079849776039538
 20
34.790258547159397
 30
0.0
 11
52.079849776039531
 21
34.790258547159418
 31
0.0
  0
LINE
  5
19D
  8
2
 10
57.079849776039531
 20
34.357258547159631
 30
0.0
 11
71.079849776039666
 21
34.357258547159631
 31
0.0
  0
LINE
  5
19E
  8
2
 10
57.079849776039552
 20
30.223258547159219
 30
0.0
 11
71.079849776039666
 21
30.223258547159219
 31
0.0
  0
LINE
  5
19F
  8
2
 10
51.079849776039538
 20
29.7902585471594
 30
0.0
 11
52.079849776039531
 21
29.790258547159372
 31
0.0
  0
LINE
  5
1A0
  8
0
 10
51.079849776039538
 20
27.5402585471594
 30
0.0
 11
51.079849776039516
 21
37.040258547159397
 31
0.0
  0
LINE
  5
1A1
  8
0
 10
51.079849776039538
 20
27.2902585471594
 30
0.0
 11
52.079849776039531
 21
27.2902585471594
 31
0.0
  0
LINE
  5
1A2
  8
0
 10
51.079849776039538
 20
37.290258547159397
 30
0.0
 11
52.079849776039531
 21
37.290258547159397
 31
0.0
  0
LINE
  5
1A3
  8
0
 10
51.079849776039538
 20
37.290258547159397
 30
0.0
 11
51.079849776039538
 21
27.2902585471594
 31
0.0
  0
LINE
  5
1A4
  8
0
 10
52.079849776039531
 20
37.290258547159397
 30
0.0
 11
52.079849776039531
 21
27.2902585471594
 31
0.0
  0
LINE
  5
1A5
  8
0
 10
74.379849776039677
 20
36.890258547159448
 30
0.0
 11
74.379849776039677
 21
27.690258547159431
 31
0.0
  0
LINE
  5
1A6
  8
0
 10
73.07984977603968
 20
36.890258547159448
 30
0.0
 11
74.379849776039677
 21
36.890258547159448
 31
0.0
  0
LINE
  5
1A7
  8
0
 10
73.07984977603968
 20
27.690258547159431
 30
0.0
 11
73.07984977603968
 21
36.890258547159448
 31
0.0
  0
LINE
  5
1A8
  8
0
 10
74.379849776039677
 20
27.690258547159431
 30
0.0
 11
73.07984977603968
 21
27.690258547159431
 31
0.0
  0
LINE
  5
1A9
  8
2
 10
52.579849776039502
 20
34.790258547159418
 30
0.0
 11
71.079849776039666
 21
34.790258547159368
 31
0.0
  0
LINE
  5
1AA
  8
2
 10
52.57984977603958
 20
29.7902585471594
 30
0.0
 11
71.07984977603968
 21
29.7902585471594
 31
0.0
  0
LINE
  5
1AB
  8
0
 10
52.079849776039531
 20
34.790258547159418
 30
0.0
 11
52.579849776039481
 21
34.790258547159461
 31
0.0
  0
LINE
  5
1AC
  8
0
 10
52.079849776039531
 20
29.790258547159372
 30
0.0
 11
52.579849776039588
 21
29.7902585471594
 31
0.0
  0
LINE
  5
1AD
  8
0
 10
71.07984977603968
 20
34.790258547159397
 30
0.0
 11
73.07984977603968
 21
34.790258547159397
 31
0.0
  0
LINE
  5
1AE
  8
3
 10
71.079849776039666
 20
34.35725854715966
 30
0.0
 11
73.07984977603968
 21
34.357258547159631
 31
0.0
  0
LINE
  5
1AF
  8
3
 10
71.079849776039666
 20
30.223258547159158
 30
0.0
 11
73.07984977603968
 21
30.22325854715919
 31
0.0
  0
LINE
  5
1B0
  8
0
 10
71.07984977603968
 20
29.7902585471594
 30
0.0
 11
73.07984977603968
 21
29.790258547159372
 31
0.0
  0
ARC
  5
1B5
  8
0
 10
107.0798497760395
 20
62.290258547159461
 30
0.0
 40
4.5999999999999508
 50
180.4081542060502
 51
239.59184579394849
  0
ARC
  5
1B6
  8
0
 10
107.0798497760395
 20
62.290258547159461
 30
0.0
 40
4.5999999999999508
 50
240.40815420605119
 51
299.59184579394878
  0
ARC
  5
1B7
  8
0
 10
107.0798497760395
 20
62.290258547159461
 30
0.0
 40
4.5999999999999508
 50
300.40815420605003
 51
359.5918457939506
  0
ARC
  5
1B8
  8
0
 10
107.0798497760395
 20
62.290258547159461
 30
0.0
 40
4.5999999999999508
 50
0.4081542060477796
 51
59.591845793950782
  0
ARC
  5
1B9
  8
0
 10
107.0798497760395
 20
62.290258547159461
 30
0.0
 40
4.5999999999999508
 50
60.408154206049922
 51
119.5918457939491
  0
ARC
  5
1BA
  8
0
 10
107.0798497760395
 20
62.290258547159461
 30
0.0
 40
4.5999999999999508
 50
120.4081542060499
 51
179.59184579395139
  0
LINE
  5
1BB
  8
1
 10
98.579849776039552
 20
62.290258547159461
 30
0.0
 11
115.5798497760395
 21
62.290258547159461
 31
0.0
  0
CIRCLE
  5
1BC
  8
0
 10
107.0798497760395
 20
62.290258547159461
 30
0.0
 40
5.4999999999997442
  0
CIRCLE
  5
1BD
  8
0
 10
107.0798497760395
 20
62.290258547159461
 30
0.0
 40
6.0
  0
LINE
  5
1BE
  8
1
 10
107.0798497760395
 20
53.790258547159453
 30
0.0
 11
107.0798497760395
 21
70.790258547159453
 31
0.0
  0
LINE
  5
1BF
  8
2
 10
73.079849776039694
 20
59.79025854715934
 30
0.0
 11
78.379849776039677
 21
59.790258547159489
 31
0.0
  0
LINE
  5
1C0
  8
2
 10
73.07984977603968
 20
60.223258547159219
 30
0.0
 11
78.379849776039677
 21
60.223258547159162
 31
0.0
  0
LINE
  5
1C1
  8
2
 10
73.079849776039694
 20
64.357258547159631
 30
0.0
 11
78.379849776039677
 21
64.357258547159503
 31
0.0
  0
LINE
  5
1C2
  8
2
 10
73.079849776039694
 20
64.790258547159397
 30
0.0
 11
78.379849776039677
 21
64.790258547159382
 31
0.0
  0
LINE
  5
1C3
  8
0
 10
71.07984977603968
 20
59.790258547159389
 30
0.0
 11
73.07984977603968
 21
59.790258547159368
 31
0.0
  0
LINE
  5
1C4
  8
3
 10
71.079849776039666
 20
60.223258547159162
 30
0.0
 11
73.07984977603968
 21
60.22325854715919
 31
0.0
  0
LINE
  5
1C5
  8
3
 10
71.079849776039666
 20
64.35725854715966
 30
0.0
 11
73.07984977603968
 21
64.357258547159631
 31
0.0
  0
LINE
  5
1C6
  8
0
 10
71.07984977603968
 20
64.790258547159397
 30
0.0
 11
73.07984977603968
 21
64.790258547159397
 31
0.0
  0
LINE
  5
1C7
  8
0
 10
52.079849776039531
 20
59.790258547159368
 30
0.0
 11
52.579849776039588
 21
59.790258547159389
 31
0.0
  0
LINE
  5
1C8
  8
0
 10
52.079849776039531
 20
64.790258547159425
 30
0.0
 11
52.579849776039481
 21
64.790258547159453
 31
0.0
  0
LINE
  5
1C9
  8
2
 10
52.57984977603958
 20
59.790258547159389
 30
0.0
 11
71.07984977603968
 21
59.790258547159389
 31
0.0
  0
LINE
  5
1CA
  8
2
 10
52.579849776039502
 20
64.790258547159425
 30
0.0
 11
71.079849776039666
 21
64.790258547159368
 31
0.0
  0
CIRCLE
  5
1CB
  8
3
 10
107.0798497760395
 20
62.290258547159461
 30
0.0
 40
2.5
  0
CIRCLE
  5
1CC
  8
0
 10
107.0798497760395
 20
62.290258547159461
 30
0.0
 40
2.0669999999999988
  0
LINE
  5
1CD
  8
0
 10
104.770448699281
 20
58.290258547159453
 30
0.0
 11
109.389250852798
 21
58.290258547159453
 31
0.0
  0
LINE
  5
1CE
  8
0
 10
109.389250852798
 20
58.290258547159453
 30
0.0
 11
111.6986519295565
 21
62.290258547159389
 31
0.0
  0
LINE
  5
1CF
  8
0
 10
111.6986519295565
 20
62.290258547159389
 30
0.0
 11
109.389250852798
 21
66.290258547159397
 31
0.0
  0
LINE
  5
1D0
  8
0
 10
109.389250852798
 20
66.290258547159397
 30
0.0
 11
104.770448699281
 21
66.290258547159453
 31
0.0
  0
LINE
  5
1D1
  8
0
 10
104.770448699281
 20
66.290258547159453
 30
0.0
 11
102.4610476225225
 21
62.290258547159389
 31
0.0
  0
LINE
  5
1D2
  8
0
 10
102.4610476225225
 20
62.290258547159389
 30
0.0
 11
104.770448699281
 21
58.290258547159453
 31
0.0
  0
CIRCLE
  5
1D3
  8
0
 10
107.0798497760395
 20
62.290258547159461
 30
0.0
 40
3.8999999999999999
  0
LINE
  5
1D4
  8
0
 10
74.379849776039705
 20
62.290258547163262
 30
0.0
 11
77.964849159213131
 21
62.29025854715217
 31
0.0
  0
LINE
  5
1D5
  8
0
 10
78.379849776039677
 20
58.39025854716084
 30
0.0
 11
78.379849776039677
 21
66.190258547158123
 31
0.0
  0
LINE
  5
1D6
  8
0
 10
78.322114749119962
 20
66.290258547159453
 30
0.0
 11
78.379849776039677
 21
66.190258547158066
 31
0.0
  0
ARC
  5
1D7
  8
0
 10
72.54540574279234
 20
64.290258547159453
 30
0.0
 40
5.7767090063276196
 50
339.74384199965777
 51
20.2561580003422
  0
LINE
  5
1D8
  8
0
 10
78.322114749119962
 20
66.290258547159624
 30
0.0
 11
74.379849776039677
 21
66.290258547159326
 31
0.0
  0
LINE
  5
1D9
  8
0
 10
78.322114749119962
 20
58.290258547159283
 30
0.0
 11
74.379849776039677
 21
58.290258547159567
 31
0.0
  0
ARC
  5
1DA
  8
0
 10
72.54540574279234
 20
60.290258547159453
 30
0.0
 40
5.7767090063276196
 50
339.74384199965777
 51
20.2561580003422
  0
LINE
  5
1DB
  8
0
 10
78.322114749119962
 20
58.290258547159453
 30
0.0
 11
78.379849776039677
 21
58.39025854716084
 31
0.0
  0
LINE
  5
1DC
  8
0
 10
74.379849776039677
 20
58.290258547159567
 30
0.0
 11
74.379849776039677
 21
66.290258547159326
 31
0.0
  0
LINE
  5
1DD
  8
0
 10
74.379849776039677
 20
57.690258547159431
 30
0.0
 11
73.07984977603968
 21
57.690258547159431
 31
0.0
  0
LINE
  5
1DE
  8
0
 10
73.07984977603968
 20
57.690258547159431
 30
0.0
 11
73.07984977603968
 21
66.890258547159448
 31
0.0
  0
LINE
  5
1DF
  8
0
 10
73.07984977603968
 20
66.890258547159448
 30
0.0
 11
74.379849776039677
 21
66.890258547159448
 31
0.0
  0
LINE
  5
1E0
  8
0
 10
74.379849776039677
 20
66.890258547159448
 30
0.0
 11
74.379849776039677
 21
57.690258547159431
 31
0.0
  0
LINE
  5
1E1
  8
0
 10
74.379849776039691
 20
62.464425522239672
 30
0.0
 11
73.079849776039666
 21
62.116091572079227
 31
0.0
  0
LINE
  5
1E2
  8
1
 10
21.67984977603955
 20
53.790258547159453
 30
0.0
 11
21.67984977603955
 21
70.790258547159453
 31
0.0
  0
CIRCLE
  5
1E3
  8
0
 10
21.67984977603955
 20
62.290258547159461
 30
0.0
 40
6.0
  0
CIRCLE
  5
1E4
  8
0
 10
21.67984977603955
 20
62.290258547159461
 30
0.0
 40
5.4999999999997442
  0
LINE
  5
1E5
  8
1
 10
13.179849776039539
 20
62.290258547159461
 30
0.0
 11
30.17984977603955
 21
62.290258547159461
 31
0.0
  0
LINE
  5
1E6
  8
0
 10
52.079849776039531
 20
67.290258547159397
 30
0.0
 11
52.079849776039531
 21
57.290258547159389
 31
0.0
  0
LINE
  5
1E7
  8
0
 10
51.079849776039538
 20
67.290258547159397
 30
0.0
 11
51.079849776039538
 21
57.290258547159389
 31
0.0
  0
LINE
  5
1E8
  8
0
 10
51.079849776039538
 20
67.290258547159397
 30
0.0
 11
52.079849776039531
 21
67.290258547159397
 31
0.0
  0
LINE
  5
1E9
  8
0
 10
51.079849776039538
 20
57.290258547159389
 30
0.0
 11
52.079849776039531
 21
57.290258547159389
 31
0.0
  0
CIRCLE
  5
1EA
  8
0
 10
21.67984977603955
 20
62.290258547159461
 30
0.0
 40
5.0
  0
LINE
  5
1EB
  8
0
 10
51.079849776039538
 20
57.540258547159397
 30
0.0
 11
51.079849776039516
 21
67.040258547159397
 31
0.0
  0
LINE
  5
1EC
  8
2
 10
51.079849776039538
 20
59.790258547159389
 30
0.0
 11
52.079849776039531
 21
59.790258547159368
 31
0.0
  0
LINE
  5
1ED
  8
2
 10
57.079849776039552
 20
60.223258547159219
 30
0.0
 11
71.079849776039666
 21
60.223258547159219
 31
0.0
  0
LINE
  5
1EE
  8
2
 10
57.079849776039531
 20
64.357258547159631
 30
0.0
 11
71.079849776039666
 21
64.357258547159631
 31
0.0
  0
LINE
  5
1EF
  8
2
 10
51.079849776039538
 20
64.790258547159397
 30
0.0
 11
52.079849776039531
 21
64.790258547159425
 31
0.0
  0
LINE
  5
1F0
  8
0
 10
81.079849776039552
 20
63.890258547159391
 30
0.0
 11
81.079849776039552
 21
60.690258547159367
 31
0.0
  0
LINE
  5
1F1
  8
2
 10
57.079849776039531
 20
64.790258547159453
 30
0.0
 11
57.079849776039531
 21
59.790258547159461
 31
0.0
  0
LINE
  5
1F2
  8
2
 10
57.079849776039531
 20
64.35725854715966
 30
0.0
 11
56.329871776362587
 21
64.790258547159453
 31
0.0
  0
LINE
  5
1F3
  8
0
 10
80.179849776039546
 20
64.790258547159397
 30
0.0
 11
81.079849776039552
 21
63.890258547159391
 31
0.0
  0
LINE
  5
1F4
  8
0
 10
81.079849776039552
 20
60.690258547159367
 30
0.0
 11
80.179849776039546
 21
59.790258547159389
 31
0.0
  0
LINE
  5
1F5
  8
0
 10
80.179849776039504
 20
64.790258547159397
 30
0.0
 11
80.179849776039504
 21
59.790258547159389
 31
0.0
  0
LINE
  5
1F6
  8
2
 10
57.079849776039531
 20
60.223258547159269
 30
0.0
 11
56.329871776362587
 21
59.790258547159482
 31
0.0
  0
LINE
  5
1F7
  8
0
 10
50.579849776039808
 20
67.040258547159397
 30
0.0
 11
51.079849776039516
 21
67.040258547159397
 31
0.0
  0
LINE
  5
1F8
  8
0
 10
50.579849776039552
 20
57.540258547159397
 30
0.0
 11
50.579849776039516
 21
67.040258547159397
 31
0.0
  0
LINE
  5
1F9
  8
0
 10
47.679849776039539
 20
60.440258547178189
 30
0.0
 11
47.679849776039539
 21
64.140258547159135
 31
0.0
  0
ARC
  5
1FA
  8
0
 10
50.678236032760047
 20
64.041872290438874
 30
0.0
 40
3.0
 50
91.879376083981214
 51
178.12062391637721
  0
ARC
  5
1FB
  8
0
 10
50.678236032760047
 20
60.538644803879947
 30
0.0
 40
3.0
 50
181.8793760836227
 51
268.12062391601881
  0
LINE
  5
1FC
  8
0
 10
50.579849776039808
 20
57.540258547159397
 30
0.0
 11
51.079849776039516
 21
57.540258547159397
 31
0.0
  0
LINE
  5
1FD
  8
0
 10
20.17984977603972
 20
61.424233143375147
 30
0.0
 11
21.67984977603972
 21
60.558207739590671
 31
0.0
  0
LINE
  5
1FE
  8
0
 10
21.67984977603972
 20
60.558207739590671
 30
0.0
 11
23.17984977603955
 21
61.424233143375147
 31
0.0
  0
LINE
  5
1FF
  8
0
 10
23.17984977603955
 20
61.424233143375147
 30
0.0
 11
23.17984977603955
 21
63.156283950944271
 31
0.0
  0
LINE
  5
200
  8
0
 10
23.17984977603955
 20
63.156283950944271
 30
0.0
 11
21.67984977603955
 21
64.022309354728407
 31
0.0
  0
LINE
  5
201
  8
0
 10
21.67984977603955
 20
64.022309354728407
 30
0.0
 11
20.179849776039379
 21
63.156283950943759
 31
0.0
  0
LINE
  5
202
  8
0
 10
20.179849776039379
 20
63.156283950943759
 30
0.0
 11
20.17984977603972
 21
61.424233143375147
 31
0.0
  0
CIRCLE
  5
203
  8
0
 10
21.67984977603955
 20
62.290258547159461
 30
0.0
 40
4.75
  0
CIRCLE
  5
204
  8
0
 10
21.67984977603955
 20
62.290258547159461
 30
0.0
 40
1.8499999999997241
  0
LINE
  5
205
  8
0
 10
53.079849776039453
 20
66.290258547159397
 30
0.0
 11
53.079849776039623
 21
58.290258547159453
 31
0.0
  0
LINE
  5
206
  8
0
 10
53.079849776039453
 20
66.290258547159397
 30
0.0
 11
52.57984977603946
 21
65.790258547159397
 31
0.0
  0
LINE
  5
207
  8
0
 10
53.079849776039623
 20
58.290258547159453
 30
0.0
 11
52.579849776039602
 21
58.790258547159453
 31
0.0
  0
LINE
  5
208
  8
0
 10
52.57984977603946
 20
65.790258547159397
 30
0.0
 11
52.579849776039602
 21
58.790258547159453
 31
0.0
  0
LINE
  5
209
  8
0
 10
58.779849776039683
 20
66.290258547159453
 30
0.0
 11
58.779849776039647
 21
58.290258547159453
 31
0.0
  0
ARC
  5
20A
  8
0
 10
58.779849776039647
 20
57.99025854715947
 30
0.0
 40
0.3
 50
0.0000000000008142
 51
90.0
  0
LINE
  5
20B
  8
0
 10
59.079849776039417
 20
67.790258547159198
 30
0.0
 11
59.07984977603968
 21
56.790258547159453
 31
0.0
  0
ARC
  5
20C
  8
0
 10
58.779849776039683
 20
66.590258547159436
 30
0.0
 40
0.3
 50
269.99999999999977
 51
0.0
  0
LINE
  5
20D
  8
0
 10
58.779849776039647
 20
58.290258547159453
 30
0.0
 11
53.079849776039623
 21
58.290258547159453
 31
0.0
  0
LINE
  5
20E
  8
0
 10
58.779849776039683
 20
66.290258547159453
 30
0.0
 11
53.079849776039453
 21
66.290258547159397
 31
0.0
  0
LINE
  5
20F
  8
1
 10
83.579849776039552
 20
62.290258547159453
 30
0.0
 11
45.179849776039539
 21
62.290258547159461
 31
0.0
  0
LINE
  5
210
  8
0
 10
70.57984977603968
 20
68.290258547159453
 30
0.0
 11
70.57984977603968
 21
56.290258547159453
 31
0.0
  0
LINE
  5
211
  8
0
 10
59.57984977603968
 20
68.290258547159453
 30
0.0
 11
59.57984977603968
 21
56.290258547159453
 31
0.0
  0
LINE
  5
212
  8
0
 10
59.57984977603968
 20
56.290258547159453
 30
0.0
 11
59.07984977603968
 21
56.790258547159453
 31
0.0
  0
LINE
  5
213
  8
0
 10
71.07984977603968
 20
56.790258547159453
 30
0.0
 11
70.57984977603968
 21
56.290258547159453
 31
0.0
  0
LINE
  5
214
  8
0
 10
70.57984977603968
 20
68.290258547159453
 30
0.0
 11
71.07984977603968
 21
67.790258547159453
 31
0.0
  0
LINE
  5
215
  8
0
 10
59.57984977603968
 20
68.290258547159453
 30
0.0
 11
59.07984977603968
 21
67.790258547159453
 31
0.0
  0
LINE
  5
216
  8
0
 10
70.57984977603968
 20
56.290258547159453
 30
0.0
 11
59.57984977603968
 21
56.290258547159453
 31
0.0
  0
LINE
  5
217
  8
0
 10
71.07984977603968
 20
67.790258547159453
 30
0.0
 11
71.07984977603968
 21
56.790258547159453
 31
0.0
  0
LINE
  5
218
  8
0
 10
59.57984977603968
 20
68.290258547159453
 30
0.0
 11
70.57984977603968
 21
68.290258547159453
 31
0.0
  0
TEXT
  5
2BE
  8
0
 62
     3
 10
0.0
 20
0.0
 30
0.0
 40
10.0
  1
RLP08S
  7
STANDARD1
  0
LINE
  5
310
  8
0
 10
78.379849776039677
 20
59.790258547159411
 30
0.0
 11
80.179849776039504
 21
59.790258547159382
 31
0.0
  0
LINE
  5
311
  8
3
 10
78.379849776039663
 20
60.223258547159169
 30
0.0
 11
80.612849776039369
 21
60.223258547159197
 31
0.0
  0
LINE
  5
312
  8
3
 10
78.379849776039663
 20
64.357258547159674
 30
0.0
 11
80.612849776039297
 21
64.357258547159631
 31
0.0
  0
LINE
  5
313
  8
0
 10
78.379849776039677
 20
64.790258547159411
 30
0.0
 11
80.179849776039504
 21
64.790258547159411
 31
0.0
  0
LINE
  5
314
  8
2
 10
73.079849776039694
 20
29.79025854715934
 30
0.0
 11
78.379849776039677
 21
29.790258547159489
 31
0.0
  0
LINE
  5
315
  8
2
 10
73.07984977603968
 20
30.223258547159219
 30
0.0
 11
78.379849776039677
 21
30.223258547159158
 31
0.0
  0
LINE
  5
316
  8
2
 10
73.079849776039694
 20
34.357258547159631
 30
0.0
 11
78.379849776039677
 21
34.35725854715951
 31
0.0
  0
LINE
  5
317
  8
2
 10
73.079849776039694
 20
34.790258547159397
 30
0.0
 11
78.379849776039677
 21
34.790258547159382
 31
0.0
  0
LINE
  5
318
  8
0
 10
81.079849776039552
 20
33.890258547159391
 30
0.0
 11
81.079849776039552
 21
30.69025854715937
 31
0.0
  0
LINE
  5
31A
  8
0
 10
80.179849776039546
 20
34.790258547159397
 30
0.0
 11
81.079849776039552
 21
33.890258547159391
 31
0.0
  0
LINE
  5
31B
  8
0
 10
81.079849776039552
 20
30.69025854715937
 30
0.0
 11
80.179849776039546
 21
29.7902585471594
 31
0.0
  0
LINE
  5
31C
  8
0
 10
80.179849776039504
 20
34.790258547159397
 30
0.0
 11
80.179849776039504
 21
29.7902585471594
 31
0.0
  0
LINE
  5
31D
  8
0
 10
78.379849776039677
 20
29.79025854715935
 30
0.0
 11
80.179849776039504
 21
29.790258547159318
 31
0.0
  0
LINE
  5
31E
  8
3
 10
78.379849776039663
 20
30.223258547159109
 30
0.0
 11
80.612849776039369
 21
30.223258547159141
 31
0.0
  0
LINE
  5
31F
  8
3
 10
78.379849776039663
 20
34.35725854715961
 30
0.0
 11
80.612849776039297
 21
34.357258547159567
 31
0.0
  0
LINE
  5
320
  8
0
 10
78.379849776039677
 20
34.790258547159347
 30
0.0
 11
80.179849776039504
 21
34.790258547159347
 31
0.0
  0
ENDSEC
  0
EOF
