  0
SECTION
  2
HEADER
  9
$ACADVER
  1
AC1009
  9
$INSBASE
 10
0.0
 20
0.0
 30
0.0
  9
$EXTMIN
 10
0.0
 20
-2.960436562073669
 30
0.0
  9
$EXTMAX
 10
103.54978855713181
 20
66.394718140953501
 30
0.0
  9
$LIMMIN
 10
0.0
 20
0.0
  9
$LIMMAX
 10
187.5
 20
135.0
  9
$ORTHOMODE
 70
     1
  9
$REGENMODE
 70
     1
  9
$FILLMODE
 70
     1
  9
$QTEXTMODE
 70
     0
  9
$MIRRTEXT
 70
     0
  9
$DRAGMODE
 70
     2
  9
$LTSCALE
 40
5.0
  9
$OSMODE
 70
    37
  9
$ATTMODE
 70
     1
  9
$TEXTSIZE
 40
0.2
  9
$TRACEWID
 40
0.05
  9
$TEXTSTYLE
  7
STANDARD
  9
$CLAYER
  8
0
  9
$CELTYPE
  6
BYLAYER
  9
$CECOLOR
 62
   256
  9
$DIMSCALE
 40
0.5
  9
$DIMASZ
 40
3.0
  9
$DIMEXO
 40
2.0
  9
$DIMDLI
 40
0.3799999999999999
  9
$DIMRND
 40
0.0
  9
$DIMDLE
 40
0.0
  9
$DIMEXE
 40
2.0
  9
$DIMTP
 40
0.0
  9
$DIMTM
 40
0.0
  9
$DIMTXT
 40
3.2000000000000002
  9
$DIMCEN
 40
0.09
  9
$DIMTSZ
 40
0.0
  9
$DIMTOL
 70
     0
  9
$DIMLIM
 70
     0
  9
$DIMTIH
 70
     0
  9
$DIMTOH
 70
     0
  9
$DIMSE1
 70
     0
  9
$DIMSE2
 70
     0
  9
$DIMTAD
 70
     1
  9
$DIMZIN
 70
     0
  9
$DIMBLK
  1

  9
$DIMASO
 70
     0
  9
$DIMSHO
 70
     0
  9
$DIMPOST
  1

  9
$DIMAPOST
  1

  9
$DIMALT
 70
     0
  9
$DIMALTD
 70
     2
  9
$DIMALTF
 40
25.399999999999999
  9
$DIMLFAC
 40
1.0
  9
$DIMTOFL
 70
     0
  9
$DIMTVP
 40
1.6000000000000001
  9
$DIMTIX
 70
     1
  9
$DIMSOXD
 70
     0
  9
$DIMSAH
 70
     0
  9
$DIMBLK1
  1

  9
$DIMBLK2
  1

  9
$DIMSTYLE
  2
STANDARD
  9
$DIMCLRD
 70
     0
  9
$DIMCLRE
 70
     0
  9
$DIMCLRT
 70
     0
  9
$DIMTFAC
 40
1.0
  9
$DIMGAP
 40
0.09
  9
$LUNITS
 70
     2
  9
$LUPREC
 70
     4
  9
$SKETCHINC
 40
0.1
  9
$FILLETRAD
 40
0.4
  9
$AUNITS
 70
     0
  9
$AUPREC
 70
     0
  9
$MENU
  1
E:\r13\win\SUPPORT\ACAD
  9
$ELEVATION
 40
0.0
  9
$PELEVATION
 40
0.0
  9
$THICKNESS
 40
0.0
  9
$LIMCHECK
 70
     0
  9
$BLIPMODE
 70
     0
  9
$CHAMFERA
 40
0.0
  9
$CHAMFERB
 40
0.0
  9
$SKPOLY
 70
     0
  9
$TDCREATE
 40
2451824.6906229062
  9
$TDUPDATE
 40
2457162.370196817
  9
$TDINDWG
 40
0.0251471296
  9
$TDUSRTIMER
 40
0.0251471296
  9
$USRTIMER
 70
     1
  9
$ANGBASE
 50
0.0
  9
$ANGDIR
 70
     0
  9
$PDMODE
 70
     0
  9
$PDSIZE
 40
0.0
  9
$PLINEWID
 40
0.0
  9
$COORDS
 70
     1
  9
$SPLFRAME
 70
     0
  9
$SPLINETYPE
 70
     6
  9
$SPLINESEGS
 70
     8
  9
$ATTDIA
 70
     0
  9
$ATTREQ
 70
     1
  9
$HANDLING
 70
     1
  9
$HANDSEED
  5
38F
  9
$SURFTAB1
 70
     6
  9
$SURFTAB2
 70
     6
  9
$SURFTYPE
 70
     6
  9
$SURFU
 70
     6
  9
$SURFV
 70
     6
  9
$UCSNAME
  2

  9
$UCSORG
 10
0.0
 20
0.0
 30
0.0
  9
$UCSXDIR
 10
1.0
 20
0.0
 30
0.0
  9
$UCSYDIR
 10
0.0
 20
1.0
 30
0.0
  9
$PUCSNAME
  2

  9
$PUCSORG
 10
0.0
 20
0.0
 30
0.0
  9
$PUCSXDIR
 10
1.0
 20
0.0
 30
0.0
  9
$PUCSYDIR
 10
0.0
 20
1.0
 30
0.0
  9
$USERI1
 70
     0
  9
$USERI2
 70
     1
  9
$USERI3
 70
     0
  9
$USERI4
 70
     0
  9
$USERI5
 70
     0
  9
$USERR1
 40
0.0
  9
$USERR2
 40
0.0
  9
$USERR3
 40
0.0
  9
$USERR4
 40
0.0
  9
$USERR5
 40
0.0
  9
$WORLDVIEW
 70
     1
  9
$SHADEDGE
 70
     3
  9
$SHADEDIF
 70
    70
  9
$TILEMODE
 70
     1
  9
$MAXACTVP
 70
    16
  9
$PLIMCHECK
 70
     0
  9
$PEXTMIN
 10
1.0000000000000000E+020
 20
1.0000000000000000E+020
 30
1.0000000000000000E+020
  9
$PEXTMAX
 10
-1.0000000000000000E+020
 20
-1.0000000000000000E+020
 30
-1.0000000000000000E+020
  9
$PLIMMIN
 10
0.0
 20
0.0
  9
$PLIMMAX
 10
12.0
 20
9.0
  9
$UNITMODE
 70
     0
  9
$VISRETAIN
 70
     0
  9
$PLINEGEN
 70
     0
  9
$PSLTSCALE
 70
     0
  0
ENDSEC
  0
SECTION
  2
TABLES
  0
TABLE
  2
VPORT
 70
     1
  0
VPORT
  2
*ACTIVE
 70
     0
 10
0.0
 20
0.0
 11
1.0
 21
1.0
 12
51.777663457148542
 22
31.714275954279302
 13
0.0
 23
0.0
 14
5.0
 24
5.0
 15
5.0
 25
5.0
 16
0.0
 26
0.0
 36
1.0
 17
0.0
 27
0.0
 37
0.0
 40
76.125564617586875
 41
1.368715083798882
 42
50.0
 43
0.0
 44
0.0
 50
0.0
 51
0.0
 71
     0
 72
   500
 73
     1
 74
     0
 75
     0
 76
     0
 77
     0
 78
     2
  0
ENDTAB
  0
TABLE
  2
LTYPE
 70
     4
  0
LTYPE
  2
CONTINUOUS
 70
     0
  3
Solid Line
 72
    65
 73
     0
 40
0.0
  0
LTYPE
  2
CENTER
 70
     0
  3
____ _ ____ _ ____ _ ____ _ ____ _ ____ _ ____
 72
    65
 73
     4
 40
2.0
 49
1.25
 49
-0.25
 49
0.25
 49
-0.25
  0
LTYPE
  2
HIDDEN
 70
     0
  3
__ __ __ __ __ __ __ __ __ __ __ __ __ __ __ __
 72
    65
 73
     2
 40
0.375
 49
0.25
 49
-0.125
  0
LTYPE
  2
PHANTOM2
 70
     0
  3
___ _ _ ___ _ _ ___ _ _ ___ _ _
 72
    65
 73
     6
 40
1.25
 49
0.625
 49
-0.125
 49
0.125
 49
-0.125
 49
0.125
 49
-0.125
  0
ENDTAB
  0
TABLE
  2
LAYER
 70
     4
  0
LAYER
  2
0
 70
     0
 62
     7
  6
CONTINUOUS
  0
LAYER
  2
1
 70
     0
 62
     1
  6
CENTER
  0
LAYER
  2
2
 70
     0
 62
     2
  6
HIDDEN
  0
LAYER
  2
3
 70
     0
 62
     3
  6
CONTINUOUS
  0
ENDTAB
  0
TABLE
  2
STYLE
 70
     2
  0
STYLE
  2
STANDARD
 70
     0
 40
0.0
 41
1.0
 50
0.0
 71
     0
 42
0.2
  3
TXT
  4
BIGFONT
  0
STYLE
  2
STANDARD1
 70
     0
 40
0.0
 41
1.0
 50
0.0
 71
     0
 42
3.0
  3
txt
  4

  0
ENDTAB
  0
TABLE
  2
VIEW
 70
     0
  0
ENDTAB
  0
TABLE
  2
UCS
 70
     0
  0
ENDTAB
  0
TABLE
  2
APPID
 70
     4
  0
APPID
  2
ACAD
 70
     0
  0
APPID
  2
ACAD_MLEADERVER
 70
     0
  0
APPID
  2
ACAD_EXEMPT_FROM_CAD_STANDARDS
 70
     0
  0
APPID
  2
ACAD_NAV_VCDISPLAY
 70
     0
  0
ENDTAB
  0
TABLE
  2
DIMSTYLE
 70
     1
  0
DIMSTYLE
  2
STANDARD
 70
     0
  3

  4

  5

  6

  7

 40
1.0
 41
0.18
 42
0.0625
 43
0.38
 44
0.18
 45
0.0
 46
0.0
 47
0.0
 48
0.0
140
0.18
141
0.09
142
0.0
143
25.399999999999999
144
1.0
145
0.0
146
1.0
147
0.09
 71
     0
 72
     0
 73
     1
 74
     1
 75
     0
 76
     0
 77
     0
 78
     0
170
     0
171
     2
172
     0
173
     0
174
     0
175
     0
176
     0
177
     0
178
     0
  0
ENDTAB
  0
ENDSEC
  0
SECTION
  2
BLOCKS
  0
BLOCK
  8
0
  2
$MODEL_SPACE
 70
     0
 10
0.0
 20
0.0
 30
0.0
  3
$MODEL_SPACE
  1

  0
ENDBLK
  5
9
  8
0
  0
BLOCK
 67
     1
  8
0
  2
$PAPER_SPACE
 70
     0
 10
0.0
 20
0.0
 30
0.0
  3
$PAPER_SPACE
  1

  0
ENDBLK
  5
E
 67
     1
  8
0
  0
ENDSEC
  0
SECTION
  2
ENTITIES
  0
LINE
  5
B9
  8
0
 10
55.466690237061243
 20
38.894718140953501
 30
0.0
 11
62.966690237061243
 21
38.894718140953529
 31
0.0
  0
LINE
  5
BA
  8
0
 10
63.466690237061243
 20
38.394718140953529
 30
0.0
 11
63.466690237061229
 21
29.394718140953469
 31
0.0
  0
LINE
  5
BB
  8
0
 10
62.966690237061222
 20
28.894718140953469
 30
0.0
 11
55.466690237061258
 21
28.894718140953561
 31
0.0
  0
LINE
  5
BC
  8
0
 10
54.966690237061343
 20
29.394718140953469
 30
0.0
 11
54.966690237061343
 21
38.394718140953607
 31
0.0
  0
LINE
  5
BD
  8
0
 10
55.466690237061243
 20
38.894718140953501
 30
0.0
 11
54.966690237061243
 21
38.394718140953501
 31
0.0
  0
LINE
  5
BE
  8
0
 10
62.966690237061243
 20
38.894718140953529
 30
0.0
 11
63.466690237061243
 21
38.394718140953529
 31
0.0
  0
LINE
  5
BF
  8
0
 10
63.466690237061229
 20
29.394718140953469
 30
0.0
 11
62.966690237061222
 21
28.894718140953469
 31
0.0
  0
LINE
  5
C0
  8
0
 10
55.466690237061258
 20
28.894718140953561
 30
0.0
 11
54.96669023706125
 21
29.394718140953561
 31
0.0
  0
LINE
  5
C1
  8
0
 10
62.966690237061243
 20
38.894718140953529
 30
0.0
 11
62.96669023706113
 21
28.894718140953501
 31
0.0
  0
LINE
  5
C2
  8
0
 10
55.466690237061258
 20
28.894718140953561
 30
0.0
 11
55.466690237061243
 21
38.894718140953501
 31
0.0
  0
LINE
  5
C3
  8
1
 10
43.06669023706128
 20
33.894718140953557
 30
0.0
 11
75.666690237061246
 21
33.894718140953429
 31
0.0
  0
LINE
  5
C4
  8
0
 10
49.966690237061272
 20
36.894718140953472
 30
0.0
 11
54.66669023706126
 21
36.894718140953472
 31
0.0
  0
LINE
  5
C5
  8
0
 10
49.96669023706125
 20
30.894718140953469
 30
0.0
 11
54.666690237061353
 21
30.894718140953501
 31
0.0
  0
LINE
  5
C6
  8
0
 10
49.46669023706125
 20
31.394718140953469
 30
0.0
 11
49.466690237061272
 21
36.394718140953472
 31
0.0
  0
LINE
  5
C7
  8
0
 10
49.966690237061272
 20
36.894718140953472
 30
0.0
 11
49.466690237061272
 21
36.394718140953472
 31
0.0
  0
LINE
  5
C8
  8
0
 10
49.46669023706125
 20
31.394718140953469
 30
0.0
 11
49.96669023706125
 21
30.894718140953469
 31
0.0
  0
LINE
  5
C9
  8
0
 10
49.966690237061272
 20
36.894718140953472
 30
0.0
 11
49.966690237061272
 21
30.89471814095344
 31
0.0
  0
ARC
  5
CA
  8
0
 10
54.66669023706126
 20
37.194718140953483
 30
0.0
 40
0.3
 50
270.0
 51
0.0
  0
ARC
  5
CB
  8
0
 10
54.666690237061353
 20
30.594718140953489
 30
0.0
 40
0.3
 50
0.0
 51
90.0
  0
LINE
  5
CC
  8
0
 10
54.66669023706126
 20
36.894718140953472
 30
0.0
 11
54.666690237061353
 21
30.894718140953529
 31
0.0
  0
LINE
  5
CD
  8
0
 10
47.766690237062072
 20
30.144718140953469
 30
0.0
 11
48.16669023706126
 21
30.144718140953469
 31
0.0
  0
ARC
  5
CE
  8
0
 10
48.05052548737072
 20
32.628553391262933
 30
0.0
 40
2.5
 50
186.51908140987749
 51
263.48091859023219
  0
ARC
  5
CF
  8
0
 10
48.05052548737072
 20
35.160882890644018
 30
0.0
 40
2.5
 50
96.519081409767821
 51
173.48091859012251
  0
LINE
  5
D0
  8
0
 10
45.566690237061273
 20
32.344718140952693
 30
0.0
 11
45.566690237061273
 21
35.444718140957463
 31
0.0
  0
LINE
  5
D1
  8
0
 10
47.766690237061262
 20
30.144718140953191
 30
0.0
 11
47.766690237061262
 21
37.644718140954147
 31
0.0
  0
LINE
  5
D2
  8
0
 10
47.766690237062072
 20
37.644718140953472
 30
0.0
 11
48.16669023706126
 21
37.644718140953472
 31
0.0
  0
LINE
  5
D3
  8
2
 10
48.16669023706126
 20
31.894718140953469
 30
0.0
 11
48.9666902370613
 21
31.894718140953469
 31
0.0
  0
LINE
  5
D4
  8
0
 10
72.366690237061263
 20
31.894718140953469
 30
0.0
 11
73.16669023706126
 21
32.694718140953491
 31
0.0
  0
LINE
  5
D5
  8
2
 10
49.46669023706125
 20
32.273718140954863
 30
0.0
 11
63.466690237061229
 21
32.273718140954799
 31
0.0
  0
LINE
  5
D6
  8
3
 10
49.16669023706126
 20
32.273718140954912
 30
0.0
 11
48.9666902370613
 21
32.158248087117052
 31
0.0
  0
LINE
  5
D7
  8
3
 10
49.166690237061289
 20
35.515718140952117
 30
0.0
 11
48.966690237061258
 21
35.631188194790042
 31
0.0
  0
LINE
  5
D8
  8
2
 10
49.466690237061272
 20
35.515718140952089
 30
0.0
 11
63.466690237061243
 21
35.515718140952089
 31
0.0
  0
LINE
  5
D9
  8
0
 10
49.166690237061268
 20
35.894718140953529
 30
0.0
 11
49.16669023706126
 21
31.894718140953529
 31
0.0
  0
LINE
  5
DA
  8
0
 10
72.366690237061306
 20
31.894718140953529
 30
0.0
 11
72.366690237061235
 21
35.894718140953472
 31
0.0
  0
LINE
  5
DB
  8
0
 10
72.366690237061263
 20
35.894718140953472
 30
0.0
 11
73.16669023706126
 21
35.094718140953461
 31
0.0
  0
LINE
  5
DC
  8
0
 10
73.16669023706126
 20
35.094718140953461
 30
0.0
 11
73.16669023706126
 21
32.694718140953491
 31
0.0
  0
LINE
  5
DD
  8
2
 10
48.16669023706126
 20
35.894718140953472
 30
0.0
 11
48.966690237061272
 21
35.894718140953529
 31
0.0
  0
LINE
  5
DE
  8
0
 10
48.16669023706126
 20
30.144718140953469
 30
0.0
 11
48.16669023706126
 21
37.644718140953472
 31
0.0
  0
LINE
  5
DF
  8
0
 10
48.966690237061243
 20
29.394718140953469
 30
0.0
 11
48.166690237061289
 21
29.394718140953469
 31
0.0
  0
LINE
  5
E0
  8
0
 10
48.966690237061243
 20
38.394718140953422
 30
0.0
 11
48.166690237061232
 21
38.394718140953472
 31
0.0
  0
LINE
  5
E1
  8
0
 10
48.9666902370613
 20
29.394718140953469
 30
0.0
 11
48.966690237061243
 21
38.394718140953472
 31
0.0
  0
LINE
  5
E2
  8
0
 10
48.166690237061289
 20
29.394718140953469
 30
0.0
 11
48.166690237061232
 21
38.394718140953472
 31
0.0
  0
LINE
  5
E3
  8
0
 10
63.466690237061258
 20
35.894718140953501
 30
0.0
 11
64.966690237061243
 21
35.894718140953501
 31
0.0
  0
LINE
  5
E4
  8
3
 10
63.466690237061243
 20
35.515718140952089
 30
0.0
 11
64.966690237061243
 21
35.515718140952089
 31
0.0
  0
LINE
  5
E5
  8
3
 10
63.466690237061243
 20
32.273718140954863
 30
0.0
 11
64.966690237061243
 21
32.273718140954891
 31
0.0
  0
LINE
  5
E6
  8
0
 10
63.466690237061258
 20
31.894718140953501
 30
0.0
 11
64.966690237061243
 21
31.894718140953529
 31
0.0
  0
LINE
  5
E7
  8
2
 10
49.466690237061272
 20
35.894718140953557
 30
0.0
 11
63.466690237061258
 21
35.894718140953501
 31
0.0
  0
LINE
  5
E8
  8
2
 10
49.46669023706125
 20
31.894718140953469
 30
0.0
 11
63.466690237061229
 21
31.894718140953501
 31
0.0
  0
LINE
  5
E9
  8
2
 10
48.966690237061272
 20
35.631188194790099
 30
0.0
 11
48.510242980990277
 21
35.894718140953529
 31
0.0
  0
LINE
  5
EA
  8
2
 10
48.966690237061279
 20
32.158248087116931
 30
0.0
 11
48.510242980990277
 21
31.894718140953529
 31
0.0
  0
LINE
  5
EB
  8
0
 10
48.966690237061272
 20
35.894718140953529
 30
0.0
 11
49.466690237061272
 21
35.894718140953557
 31
0.0
  0
LINE
  5
EC
  8
0
 10
48.966690237061272
 20
31.894718140953469
 30
0.0
 11
49.46669023706125
 21
31.894718140953469
 31
0.0
  0
LINE
  5
ED
  8
0
 10
64.966690237061243
 20
30.094718140953521
 30
0.0
 11
64.966690237061243
 21
37.694718140953512
 31
0.0
  0
LINE
  5
EE
  8
0
 10
65.966690237061243
 20
30.094718140953521
 30
0.0
 11
64.966690237061243
 21
30.094718140953521
 31
0.0
  0
LINE
  5
EF
  8
0
 10
65.966690237061243
 20
37.694718140953512
 30
0.0
 11
65.966690237061243
 21
30.094718140953521
 31
0.0
  0
LINE
  5
F0
  8
0
 10
64.966690237061243
 20
37.694718140953512
 30
0.0
 11
65.966690237061243
 21
37.694718140953512
 31
0.0
  0
LINE
  5
F2
  8
2
 10
64.966690237061229
 20
35.894718140953529
 30
0.0
 11
69.166690237061218
 21
35.894718140953429
 31
0.0
  0
LINE
  5
F3
  8
2
 10
64.966690237061243
 20
35.515718140952089
 30
0.0
 11
69.166690237061232
 21
35.515718140952089
 31
0.0
  0
LINE
  5
F4
  8
2
 10
64.966690237061243
 20
32.273718140954912
 30
0.0
 11
69.166690237061232
 21
32.273718140954827
 31
0.0
  0
LINE
  5
F5
  8
2
 10
64.966690237061229
 20
31.894718140953529
 30
0.0
 11
69.166690237061218
 21
31.894718140953429
 31
0.0
  0
LINE
  5
F6
  8
0
 10
49.166690237061268
 20
35.515718140952117
 30
0.0
 11
49.466690237061272
 21
35.515718140952089
 31
0.0
  0
LINE
  5
F7
  8
0
 10
49.16669023706126
 20
32.273718140954912
 30
0.0
 11
49.46669023706125
 21
32.273718140954912
 31
0.0
  0
LINE
  5
F8
  8
0
 10
49.16669023706126
 20
57.273718140954912
 30
0.0
 11
49.46669023706125
 21
57.273718140954912
 31
0.0
  0
LINE
  5
F9
  8
0
 10
49.166690237061268
 20
60.51571814095211
 30
0.0
 11
49.466690237061272
 21
60.515718140952089
 31
0.0
  0
ARC
  5
FA
  8
0
 10
96.049788557133397
 20
58.894718140953493
 30
0.0
 40
3.7999999999984482
 50
127.0804577381607
 51
172.91954226185231
  0
ARC
  5
FB
  8
0
 10
96.049788557133397
 20
58.894718140953493
 30
0.0
 40
3.7999999999984482
 50
187.08045773822971
 51
232.91954226183151
  0
ARC
  5
FC
  8
0
 10
96.049788557133397
 20
58.894718140953493
 30
0.0
 40
3.7999999999984482
 50
247.08045773821021
 51
292.91954226178979
  0
ARC
  5
FD
  8
0
 10
96.049788557133397
 20
58.894718140953493
 30
0.0
 40
3.7999999999984482
 50
307.0804577381669
 51
352.91954226184572
  0
ARC
  5
FE
  8
0
 10
96.049788557133397
 20
58.894718140953493
 30
0.0
 40
3.7999999999984482
 50
7.0804577382231706
 51
52.919542261785757
  0
ARC
  5
FF
  8
0
 10
96.049788557133397
 20
58.894718140953493
 30
0.0
 40
3.7999999999984482
 50
67.080457738189054
 51
112.9195422618109
  0
CIRCLE
  5
100
  8
0
 10
96.049788557133397
 20
58.894718140953493
 30
0.0
 40
4.5
  0
LINE
  5
101
  8
1
 10
88.549788557134946
 20
58.894718140953493
 30
0.0
 11
103.54978855713181
 21
58.894718140953493
 31
0.0
  0
LINE
  5
102
  8
1
 10
96.049788557133397
 20
51.394718140955057
 30
0.0
 11
96.049788557133397
 21
66.394718140951937
 31
0.0
  0
CIRCLE
  5
103
  8
0
 10
96.049788557133397
 20
58.894718140953493
 30
0.0
 40
4.9999999999984359
  0
CIRCLE
  5
104
  8
0
 10
22.68359191698914
 20
58.894718140955057
 30
0.0
 40
4.9999999999984359
  0
LINE
  5
105
  8
2
 10
64.966690237061229
 20
56.894718140953529
 30
0.0
 11
69.166690237061232
 21
56.894718140953429
 31
0.0
  0
LINE
  5
106
  8
2
 10
64.966690237061243
 20
57.273718140954912
 30
0.0
 11
69.166690237061232
 21
57.27371814095482
 31
0.0
  0
LINE
  5
107
  8
2
 10
64.966690237061243
 20
60.515718140952089
 30
0.0
 11
69.166690237061232
 21
60.515718140952082
 31
0.0
  0
LINE
  5
108
  8
2
 10
64.966690237061229
 20
60.894718140953529
 30
0.0
 11
69.166690237061232
 21
60.894718140953422
 31
0.0
  0
CIRCLE
  5
109
  8
0
 10
96.049788557133397
 20
58.894718140953493
 30
0.0
 40
2.0
  0
CIRCLE
  5
10A
  8
3
 10
96.049788557133397
 20
58.894718140953493
 30
0.0
 40
1.6209999999999991
  0
LINE
  5
10B
  8
0
 10
98.070514497653477
 20
55.39471814380174
 30
0.0
 11
94.029062613326261
 21
55.39471814380174
 31
0.0
  0
LINE
  5
10C
  8
0
 10
94.029062616613615
 20
55.394718143805378
 30
0.0
 11
92.008336674449566
 21
58.894718143801747
 31
0.0
  0
LINE
  5
10D
  8
0
 10
92.008336676096661
 20
58.894718140953209
 30
0.0
 11
94.029062618259815
 21
62.394718140953202
 31
0.0
  0
LINE
  5
10E
  8
0
 10
94.029062616615889
 20
62.394718138104672
 30
0.0
 11
98.070514500942664
 21
62.394718138104672
 31
0.0
  0
LINE
  5
10F
  8
0
 10
98.070514497653036
 20
62.394718138104672
 30
0.0
 11
100.0912404398171
 21
58.894718138104672
 31
0.0
  0
LINE
  5
110
  8
0
 10
100.09124043817
 20
58.894718140953209
 30
0.0
 11
98.070514496006851
 21
55.394718140953209
 31
0.0
  0
CIRCLE
  5
111
  8
0
 10
96.049788557133397
 20
58.894718140953493
 30
0.0
 40
3.399999999999999
  0
LINE
  5
112
  8
0
 10
65.966690237061243
 20
37.936170021992837
 30
0.0
 11
68.796347820871148
 21
37.936170021992837
 31
0.0
  0
ARC
  5
113
  8
0
 10
67.319879289343419
 20
36.925807051731027
 30
0.0
 40
1.7890759224437529
 50
325.61575253197719
 51
25.615752532224601
  0
LINE
  5
114
  8
0
 10
69.166690237061616
 20
37.294718140953108
 30
0.0
 11
68.796347820871148
 21
37.936170021992837
 31
0.0
  0
LINE
  5
115
  8
0
 10
69.166690237061616
 20
30.494718140953839
 30
0.0
 11
68.796347820871148
 21
29.853266259914111
 31
0.0
  0
ARC
  5
116
  8
0
 10
67.319879289343419
 20
30.863629230175921
 30
0.0
 40
1.7890759224437529
 50
334.38424746777542
 51
34.384247468022778
  0
ARC
  5
117
  8
0
 10
62.421562608412671
 20
33.894718140953671
 30
0.0
 40
6.6873926033737083
 50
342.41204622598002
 51
17.58795377402167
  0
LINE
  5
118
  8
0
 10
65.966690237061243
 20
31.87399220043585
 30
0.0
 11
68.796347820871006
 21
31.87399220043585
 31
0.0
  0
LINE
  5
119
  8
0
 10
65.966690237061243
 20
35.915444081471549
 30
0.0
 11
68.796347820870722
 21
35.915444081471549
 31
0.0
  0
LINE
  5
11A
  8
0
 10
69.166690237061232
 20
37.294718140953762
 30
0.0
 11
69.166690237061232
 21
30.494718140953179
 31
0.0
  0
LINE
  5
11B
  8
0
 10
65.966690237061243
 20
29.853266259914111
 30
0.0
 11
68.796347820871148
 21
29.853266259914111
 31
0.0
  0
LINE
  5
11C
  8
0
 10
65.966690237061243
 20
37.936170021992837
 30
0.0
 11
65.966690237061243
 21
29.853266259914111
 31
0.0
  0
LINE
  5
11D
  8
0
 10
68.796347820870778
 20
58.894718140953792
 30
0.0
 11
65.966690237061243
 21
58.894718140953763
 31
0.0
  0
LINE
  5
11E
  8
0
 10
69.166690237061232
 20
62.294718140953421
 30
0.0
 11
69.108955211786849
 21
62.394718138104899
 31
0.0
  0
ARC
  5
11F
  8
0
 10
64.054334835391359
 20
60.64471813952931
 30
0.0
 40
5.054620376395234
 50
339.74384199954341
 51
20.256158000462001
  0
ARC
  5
120
  8
0
 10
64.054334835391359
 20
57.144718142378188
 30
0.0
 40
5.054620376395234
 50
339.74384199953801
 51
20.256158000455109
  0
LINE
  5
121
  8
0
 10
69.166690237061232
 20
55.494718140954092
 30
0.0
 11
69.108955211786508
 21
55.394718143802031
 31
0.0
  0
LINE
  5
122
  8
0
 10
69.108955211786537
 20
55.394718143802031
 30
0.0
 11
65.966690237061243
 21
55.394718143802031
 31
0.0
  0
LINE
  5
123
  8
0
 10
65.966690237061243
 20
62.394718138104899
 30
0.0
 11
69.108955211786849
 21
62.394718138104899
 31
0.0
  0
LINE
  5
124
  8
0
 10
69.166690237061232
 20
55.494718140954092
 30
0.0
 11
69.166690237061232
 21
62.294718140953421
 31
0.0
  0
LINE
  5
125
  8
0
 10
65.966690237061243
 20
55.394718143802031
 30
0.0
 11
65.966690237061243
 21
62.394718138104899
 31
0.0
  0
LINE
  5
126
  8
0
 10
64.966690237061243
 20
62.694718140953512
 30
0.0
 11
65.966690237061243
 21
62.694718140953512
 31
0.0
  0
LINE
  5
127
  8
0
 10
65.966690237061243
 20
62.694718140953512
 30
0.0
 11
65.966690237061243
 21
55.094718140953518
 31
0.0
  0
LINE
  5
128
  8
0
 10
65.966690237061243
 20
55.094718140953518
 30
0.0
 11
64.966690237061243
 21
55.094718140953518
 31
0.0
  0
LINE
  5
129
  8
0
 10
64.966690237061243
 20
55.094718140953518
 30
0.0
 11
64.966690237061243
 21
62.694718140953512
 31
0.0
  0
LINE
  5
12A
  8
0
 10
64.966690237061243
 20
58.76074354473797
 30
0.0
 11
65.966690237061272
 21
59.028692737169109
 31
0.0
  0
LINE
  5
12B
  8
0
 10
48.966690237061272
 20
56.894718140953472
 30
0.0
 11
49.46669023706125
 21
56.894718140953472
 31
0.0
  0
LINE
  5
12C
  8
0
 10
48.966690237061272
 20
60.894718140953529
 30
0.0
 11
49.466690237061272
 21
60.894718140953557
 31
0.0
  0
LINE
  5
12D
  8
2
 10
48.966690237061279
 20
57.158248087116931
 30
0.0
 11
48.510242980990277
 21
56.894718140953529
 31
0.0
  0
LINE
  5
12E
  8
2
 10
48.966690237061272
 20
60.631188194790099
 30
0.0
 11
48.510242980990277
 21
60.894718140953529
 31
0.0
  0
LINE
  5
12F
  8
2
 10
49.46669023706125
 20
56.894718140953472
 30
0.0
 11
63.466690237061229
 21
56.894718140953501
 31
0.0
  0
LINE
  5
130
  8
2
 10
49.466690237061272
 20
60.894718140953557
 30
0.0
 11
63.466690237061258
 21
60.894718140953501
 31
0.0
  0
LINE
  5
131
  8
0
 10
63.466690237061258
 20
56.894718140953501
 30
0.0
 11
64.966690237061243
 21
56.894718140953529
 31
0.0
  0
LINE
  5
132
  8
3
 10
63.466690237061243
 20
57.273718140954848
 30
0.0
 11
64.966690237061243
 21
57.273718140954877
 31
0.0
  0
LINE
  5
133
  8
3
 10
63.466690237061243
 20
60.515718140952089
 30
0.0
 11
64.966690237061243
 21
60.515718140952089
 31
0.0
  0
LINE
  5
134
  8
0
 10
63.466690237061258
 20
60.894718140953501
 30
0.0
 11
64.966690237061243
 21
60.894718140953501
 31
0.0
  0
LINE
  5
135
  8
1
 10
22.68359191698914
 20
51.394718140956627
 30
0.0
 11
22.68359191698914
 21
66.394718140953501
 31
0.0
  0
LINE
  5
136
  8
1
 10
15.183591916990711
 20
58.894718140955057
 30
0.0
 11
30.183591916987581
 21
58.894718140955057
 31
0.0
  0
LINE
  5
137
  8
0
 10
48.166690237061289
 20
54.394718140953472
 30
0.0
 11
48.166690237061232
 21
63.394718140953472
 31
0.0
  0
LINE
  5
138
  8
0
 10
48.9666902370613
 20
54.394718140953472
 30
0.0
 11
48.966690237061243
 21
63.394718140953472
 31
0.0
  0
LINE
  5
139
  8
0
 10
48.966690237061243
 20
63.394718140953408
 30
0.0
 11
48.166690237061232
 21
63.394718140953472
 31
0.0
  0
LINE
  5
13A
  8
0
 10
48.966690237061243
 20
54.394718140953472
 30
0.0
 11
48.166690237061289
 21
54.394718140953472
 31
0.0
  0
CIRCLE
  5
13B
  8
0
 10
22.68359191698914
 20
58.894718140955057
 30
0.0
 40
4.5
  0
LINE
  5
13C
  8
0
 10
21.433591916989279
 20
58.173030304468142
 30
0.0
 11
22.683591916989279
 21
57.451342467981078
 31
0.0
  0
LINE
  5
13D
  8
0
 10
22.683591916989279
 20
57.451342467981078
 30
0.0
 11
23.93359191698914
 21
58.173030304468142
 31
0.0
  0
LINE
  5
13E
  8
0
 10
23.93359191698914
 20
58.173030304468142
 30
0.0
 11
23.93359191698914
 21
59.616405977442412
 31
0.0
  0
LINE
  5
13F
  8
0
 10
23.93359191698914
 20
59.616405977442412
 30
0.0
 11
22.68359191698914
 21
60.338093813929191
 31
0.0
  0
LINE
  5
140
  8
0
 10
22.68359191698914
 20
60.338093813929191
 30
0.0
 11
21.433591916988998
 21
59.616405977441993
 31
0.0
  0
LINE
  5
141
  8
0
 10
21.433591916988998
 20
59.616405977441993
 30
0.0
 11
21.433591916989279
 21
58.173030304468142
 31
0.0
  0
CIRCLE
  5
142
  8
0
 10
22.68359191698914
 20
58.894718140955057
 30
0.0
 40
3.75
  0
CIRCLE
  5
143
  8
0
 10
22.68359191698914
 20
58.894718140955057
 30
0.0
 40
1.55000000000399
  0
LINE
  5
144
  8
0
 10
48.16669023706126
 20
55.144718140953472
 30
0.0
 11
48.16669023706126
 21
62.644718140953472
 31
0.0
  0
LINE
  5
145
  8
2
 10
48.16669023706126
 20
60.894718140953472
 30
0.0
 11
48.966690237061272
 21
60.894718140953529
 31
0.0
  0
LINE
  5
146
  8
0
 10
73.16669023706126
 20
60.094718140953461
 30
0.0
 11
73.16669023706126
 21
57.694718140953483
 31
0.0
  0
LINE
  5
147
  8
0
 10
72.366690237061263
 20
60.894718140953472
 30
0.0
 11
73.16669023706126
 21
60.094718140953461
 31
0.0
  0
LINE
  5
148
  8
0
 10
72.366690237061306
 20
56.894718140953529
 30
0.0
 11
72.366690237061235
 21
60.894718140953472
 31
0.0
  0
LINE
  5
149
  8
0
 10
49.166690237061268
 20
60.894718140953529
 30
0.0
 11
49.16669023706126
 21
56.894718140953529
 31
0.0
  0
LINE
  5
14A
  8
2
 10
49.466690237061272
 20
60.515718140952089
 30
0.0
 11
63.466690237061243
 21
60.515718140952089
 31
0.0
  0
LINE
  5
14B
  8
3
 10
49.166690237061289
 20
60.51571814095211
 30
0.0
 11
48.966690237061258
 21
60.631188194790042
 31
0.0
  0
LINE
  5
14C
  8
3
 10
49.16669023706126
 20
57.273718140954912
 30
0.0
 11
48.9666902370613
 21
57.158248087117052
 31
0.0
  0
LINE
  5
14D
  8
2
 10
49.46669023706125
 20
57.273718140954848
 30
0.0
 11
63.466690237061229
 21
57.273718140954799
 31
0.0
  0
LINE
  5
14E
  8
0
 10
72.366690237061263
 20
56.894718140953472
 30
0.0
 11
73.16669023706126
 21
57.694718140953483
 31
0.0
  0
LINE
  5
14F
  8
2
 10
48.16669023706126
 20
56.894718140953472
 30
0.0
 11
48.9666902370613
 21
56.894718140953472
 31
0.0
  0
LINE
  5
150
  8
0
 10
47.766690237062072
 20
62.644718140953472
 30
0.0
 11
48.16669023706126
 21
62.644718140953472
 31
0.0
  0
LINE
  5
151
  8
0
 10
47.766690237061262
 20
55.144718140953188
 30
0.0
 11
47.766690237061262
 21
62.644718140954147
 31
0.0
  0
LINE
  5
152
  8
0
 10
45.566690237061273
 20
57.344718140952693
 30
0.0
 11
45.566690237061273
 21
60.444718140957463
 31
0.0
  0
ARC
  5
153
  8
0
 10
48.05052548737072
 20
60.160882890644018
 30
0.0
 40
2.5
 50
96.519081409767821
 51
173.48091859012251
  0
ARC
  5
154
  8
0
 10
48.05052548737072
 20
57.628553391262933
 30
0.0
 40
2.5
 50
186.51908140987749
 51
263.48091859023219
  0
LINE
  5
155
  8
0
 10
47.766690237062072
 20
55.144718140953472
 30
0.0
 11
48.16669023706126
 21
55.144718140953472
 31
0.0
  0
LINE
  5
156
  8
0
 10
54.66669023706126
 20
61.894718140953472
 30
0.0
 11
54.666690237061353
 21
55.894718140953529
 31
0.0
  0
ARC
  5
157
  8
0
 10
54.666690237061353
 20
55.594718140953489
 30
0.0
 40
0.3
 50
0.0
 51
90.0
  0
ARC
  5
158
  8
0
 10
54.66669023706126
 20
62.194718140953483
 30
0.0
 40
0.3
 50
270.0
 51
0.0
  0
LINE
  5
159
  8
0
 10
49.966690237061272
 20
61.894718140953472
 30
0.0
 11
49.966690237061272
 21
55.894718140953437
 31
0.0
  0
LINE
  5
15A
  8
0
 10
49.46669023706125
 20
56.394718140953472
 30
0.0
 11
49.96669023706125
 21
55.894718140953472
 31
0.0
  0
LINE
  5
15B
  8
0
 10
49.966690237061272
 20
61.894718140953472
 30
0.0
 11
49.466690237061272
 21
61.394718140953472
 31
0.0
  0
LINE
  5
15C
  8
0
 10
49.46669023706125
 20
56.394718140953472
 30
0.0
 11
49.466690237061272
 21
61.394718140953472
 31
0.0
  0
LINE
  5
15D
  8
0
 10
49.96669023706125
 20
55.894718140953472
 30
0.0
 11
54.666690237061353
 21
55.894718140953501
 31
0.0
  0
LINE
  5
15E
  8
0
 10
49.966690237061272
 20
61.894718140953472
 30
0.0
 11
54.66669023706126
 21
61.894718140953472
 31
0.0
  0
LINE
  5
15F
  8
1
 10
43.06669023706128
 20
58.89471814095355
 30
0.0
 11
75.666690237061246
 21
58.894718140953429
 31
0.0
  0
LINE
  5
160
  8
0
 10
55.466690237061258
 20
53.89471814095355
 30
0.0
 11
55.466690237061243
 21
63.894718140953501
 31
0.0
  0
LINE
  5
161
  8
0
 10
62.966690237061243
 20
63.894718140953529
 30
0.0
 11
62.96669023706113
 21
53.894718140953501
 31
0.0
  0
LINE
  5
162
  8
0
 10
55.466690237061258
 20
53.89471814095355
 30
0.0
 11
54.96669023706125
 21
54.39471814095355
 31
0.0
  0
LINE
  5
163
  8
0
 10
63.466690237061229
 20
54.394718140953472
 30
0.0
 11
62.966690237061222
 21
53.894718140953472
 31
0.0
  0
LINE
  5
164
  8
0
 10
62.966690237061243
 20
63.894718140953529
 30
0.0
 11
63.466690237061243
 21
63.394718140953529
 31
0.0
  0
LINE
  5
165
  8
0
 10
55.466690237061243
 20
63.894718140953501
 30
0.0
 11
54.966690237061243
 21
63.394718140953501
 31
0.0
  0
LINE
  5
166
  8
0
 10
54.966690237061343
 20
54.394718140953472
 30
0.0
 11
54.966690237061343
 21
63.394718140953607
 31
0.0
  0
LINE
  5
167
  8
0
 10
62.966690237061222
 20
53.894718140953472
 30
0.0
 11
55.466690237061258
 21
53.89471814095355
 31
0.0
  0
LINE
  5
168
  8
0
 10
63.466690237061243
 20
63.394718140953529
 30
0.0
 11
63.466690237061229
 21
54.394718140953472
 31
0.0
  0
LINE
  5
169
  8
0
 10
55.466690237061243
 20
63.894718140953501
 30
0.0
 11
62.966690237061243
 21
63.894718140953529
 31
0.0
  0
TEXT
  5
214
  8
0
 62
     3
 10
0.0
 20
0.0
 30
0.0
 40
10.0
  1
RLP06S
  7
STANDARD1
  0
LINE
  5
263
  8
0
 10
69.166690237061232
 20
60.894718140953422
 30
0.0
 11
72.366690237061263
 21
60.894718140953472
 31
0.0
  0
LINE
  5
264
  8
3
 10
69.166690237061232
 20
60.515718140952082
 30
0.0
 11
72.745690237062647
 21
60.515718140952082
 31
0.0
  0
LINE
  5
265
  8
0
 10
69.166690237061232
 20
56.894718140953522
 30
0.0
 11
72.366690237061263
 21
56.894718140953472
 31
0.0
  0
LINE
  5
266
  8
3
 10
69.166690237061232
 20
57.273718140954863
 30
0.0
 11
72.745690237062647
 21
57.273718140954863
 31
0.0
  0
LINE
  5
267
  8
0
 10
69.166690237061232
 20
35.894718140953422
 30
0.0
 11
72.366690237061263
 21
35.894718140953472
 31
0.0
  0
LINE
  5
268
  8
3
 10
69.166690237061232
 20
35.515718140952082
 30
0.0
 11
72.745690237062647
 21
35.515718140952082
 31
0.0
  0
LINE
  5
269
  8
0
 10
69.166690237061232
 20
31.894718140953518
 30
0.0
 11
72.366690237061263
 21
31.894718140953469
 31
0.0
  0
LINE
  5
26A
  8
3
 10
69.166690237061232
 20
32.273718140954863
 30
0.0
 11
72.745690237062647
 21
32.273718140954863
 31
0.0
  0
ENDSEC
  0
EOF
