  0
SECTION
  2
HEADER
  9
$ACADVER
  1
AC1009
  9
$INSBASE
 10
0.0
 20
0.0
 30
0.0
  9
$EXTMIN
 10
0.0
 20
-1.4802182810368341
 30
0.0
  9
$EXTMAX
 10
114.0
 20
125.5
 30
0.0
  9
$LIMMIN
 10
0.0
 20
0.0
  9
$LIMMAX
 10
192.5
 20
135.0
  9
$ORTHOMODE
 70
     1
  9
$REGENMODE
 70
     1
  9
$FILLMODE
 70
     1
  9
$QTEXTMODE
 70
     0
  9
$MIRRTEXT
 70
     0
  9
$DRAGMODE
 70
     2
  9
$LTSCALE
 40
5.0
  9
$OSMODE
 70
    37
  9
$ATTMODE
 70
     1
  9
$TEXTSIZE
 40
1.6000000000000489
  9
$TRACEWID
 40
0.05
  9
$TEXTSTYLE
  7
STANDARD
  9
$CLAYER
  8
0
  9
$CELTYPE
  6
BYLAYER
  9
$CECOLOR
 62
   256
  9
$DIMSCALE
 40
1.0
  9
$DIMASZ
 40
3.0
  9
$DIMEXO
 40
2.0
  9
$DIMDLI
 40
0.38
  9
$DIMRND
 40
0.0
  9
$DIMDLE
 40
0.0
  9
$DIMEXE
 40
2.0
  9
$DIMTP
 40
0.0
  9
$DIMTM
 40
0.0
  9
$DIMTXT
 40
3.0
  9
$DIMCEN
 40
0.0
  9
$DIMTSZ
 40
0.0
  9
$DIMTOL
 70
     0
  9
$DIMLIM
 70
     0
  9
$DIMTIH
 70
     0
  9
$DIMTOH
 70
     0
  9
$DIMSE1
 70
     0
  9
$DIMSE2
 70
     0
  9
$DIMTAD
 70
     1
  9
$DIMZIN
 70
     9
  9
$DIMBLK
  1

  9
$DIMASO
 70
     0
  9
$DIMSHO
 70
     0
  9
$DIMPOST
  1

  9
$DIMAPOST
  1

  9
$DIMALT
 70
     0
  9
$DIMALTD
 70
     2
  9
$DIMALTF
 40
25.399999999999999
  9
$DIMLFAC
 40
1.0
  9
$DIMTOFL
 70
     1
  9
$DIMTVP
 40
1.6000000000000001
  9
$DIMTIX
 70
     1
  9
$DIMSOXD
 70
     0
  9
$DIMSAH
 70
     0
  9
$DIMBLK1
  1

  9
$DIMBLK2
  1

  9
$DIMSTYLE
  2
STANDARD
  9
$DIMCLRD
 70
     0
  9
$DIMCLRE
 70
     0
  9
$DIMCLRT
 70
     0
  9
$DIMTFAC
 40
1.0
  9
$DIMGAP
 40
0.09
  9
$LUNITS
 70
     2
  9
$LUPREC
 70
     1
  9
$SKETCHINC
 40
0.1
  9
$FILLETRAD
 40
0.3
  9
$AUNITS
 70
     0
  9
$AUPREC
 70
     1
  9
$MENU
  1
E:\r13\win\SUPPORT\ACAD
  9
$ELEVATION
 40
0.0
  9
$PELEVATION
 40
0.0
  9
$THICKNESS
 40
0.0
  9
$LIMCHECK
 70
     0
  9
$BLIPMODE
 70
     0
  9
$CHAMFERA
 40
0.0
  9
$CHAMFERB
 40
0.0
  9
$SKPOLY
 70
     0
  9
$TDCREATE
 40
2448328.489641204
  9
$TDUPDATE
 40
2459200.3879274651
  9
$TDINDWG
 40
1.1078356019
  9
$TDUSRTIMER
 40
2456598.9121020609
  9
$USRTIMER
 70
     1
  9
$ANGBASE
 50
0.0
  9
$ANGDIR
 70
     0
  9
$PDMODE
 70
    35
  9
$PDSIZE
 40
0.0
  9
$PLINEWID
 40
0.0
  9
$COORDS
 70
     1
  9
$SPLFRAME
 70
     0
  9
$SPLINETYPE
 70
     6
  9
$SPLINESEGS
 70
     8
  9
$ATTDIA
 70
     0
  9
$ATTREQ
 70
     1
  9
$HANDLING
 70
     1
  9
$HANDSEED
  5
580A
  9
$SURFTAB1
 70
     6
  9
$SURFTAB2
 70
     6
  9
$SURFTYPE
 70
     6
  9
$SURFU
 70
     6
  9
$SURFV
 70
     6
  9
$UCSNAME
  2

  9
$UCSORG
 10
0.0
 20
0.0
 30
0.0
  9
$UCSXDIR
 10
1.0
 20
0.0
 30
0.0
  9
$UCSYDIR
 10
0.0
 20
1.0
 30
0.0
  9
$PUCSNAME
  2

  9
$PUCSORG
 10
0.0
 20
0.0
 30
0.0
  9
$PUCSXDIR
 10
1.0
 20
0.0
 30
0.0
  9
$PUCSYDIR
 10
0.0
 20
1.0
 30
0.0
  9
$USERI1
 70
     3
  9
$USERI2
 70
     1
  9
$USERI3
 70
     1
  9
$USERI4
 70
     0
  9
$USERI5
 70
     0
  9
$USERR1
 40
0.5
  9
$USERR2
 40
3.0
  9
$USERR3
 40
3.0
  9
$USERR4
 40
3.0
  9
$USERR5
 40
10.0
  9
$WORLDVIEW
 70
     1
  9
$SHADEDGE
 70
     3
  9
$SHADEDIF
 70
    70
  9
$TILEMODE
 70
     1
  9
$MAXACTVP
 70
    16
  9
$PLIMCHECK
 70
     0
  9
$PEXTMIN
 10
1.0000000000000000E+020
 20
1.0000000000000000E+020
 30
1.0000000000000000E+020
  9
$PEXTMAX
 10
-1.0000000000000000E+020
 20
-1.0000000000000000E+020
 30
-1.0000000000000000E+020
  9
$PLIMMIN
 10
0.0
 20
0.0
  9
$PLIMMAX
 10
12.0
 20
9.0
  9
$UNITMODE
 70
     0
  9
$VISRETAIN
 70
     0
  9
$PLINEGEN
 70
     1
  9
$PSLTSCALE
 70
     0
  0
ENDSEC
  0
SECTION
  2
TABLES
  0
TABLE
  2
VPORT
 70
     1
  0
VPORT
  2
*ACTIVE
 70
     0
 10
0.0
 20
0.0
 11
1.0
 21
1.0
 12
87.795297563690966
 22
62.011209872120389
 13
0.0
 23
0.0
 14
2.5
 24
2.5
 15
5.0
 25
5.0
 16
0.0
 26
0.0
 36
1.0
 17
0.0
 27
0.0
 37
0.0
 40
128.09585510902841
 41
2.415644171779141
 42
50.0
 43
0.0
 44
0.0
 50
0.0
 51
0.0
 71
     0
 72
   500
 73
     1
 74
     0
 75
     0
 76
     0
 77
     0
 78
     2
  0
ENDTAB
  0
TABLE
  2
LTYPE
 70
     4
  0
LTYPE
  2
CONTINUOUS
 70
     0
  3
Solid Line
 72
    65
 73
     0
 40
0.0
  0
LTYPE
  2
CENTER
 70
     0
  3
____ _ ____ _ ____ _ ____ _ ____ _ ____ _ ____
 72
    65
 73
     4
 40
2.0
 49
1.25
 49
-0.25
 49
0.25
 49
-0.25
  0
LTYPE
  2
HIDDEN
 70
     0
  3
_ _ _ _ _ _ _ _ _ _ _ _ _ _ _ _ _ _ _ _ _ _ _
 72
    65
 73
     2
 40
0.375
 49
0.25
 49
-0.125
  0
LTYPE
  2
PHANTOM2
 70
     0
  3
___ _ _ ___ _ _ ___ _ _ ___ _ _
 72
    65
 73
     6
 40
1.25
 49
0.625
 49
-0.125
 49
0.125
 49
-0.125
 49
0.125
 49
-0.125
  0
ENDTAB
  0
TABLE
  2
LAYER
 70
     5
  0
LAYER
  2
0
 70
     0
 62
     7
  6
CONTINUOUS
  0
LAYER
  2
1
 70
     0
 62
     1
  6
CENTER
  0
LAYER
  2
2
 70
     0
 62
     2
  6
HIDDEN
  0
LAYER
  2
DEFPOINTS
 70
     0
 62
     7
  6
CONTINUOUS
  0
LAYER
  2
3
 70
     0
 62
     3
  6
CONTINUOUS
  0
ENDTAB
  0
TABLE
  2
STYLE
 70
     2
  0
STYLE
  2
STANDARD
 70
     0
 40
0.0
 41
1.0
 50
0.0
 71
     0
 42
1.6000000000000489
  3
SIMPLEX
  4
BIGFONT
  0
STYLE
  2
STANDARD1
 70
     0
 40
0.0
 41
1.0
 50
0.0
 71
     0
 42
3.0
  3
txt
  4

  0
ENDTAB
  0
TABLE
  2
VIEW
 70
     1
  0
VIEW
  2
ALL
 70
     0
 40
87.5
 10
71.617647058823522
 20
43.75
 41
0.0
 11
0.0
 21
0.0
 31
1.0
 12
0.0
 22
0.0
 32
0.0
 42
50.0
 43
0.0
 44
0.0
 50
0.0
 71
     0
  0
ENDTAB
  0
TABLE
  2
UCS
 70
     0
  0
ENDTAB
  0
TABLE
  2
APPID
 70
     7
  0
APPID
  2
ACAD
 70
     0
  0
APPID
  2
ACAD_EXEMPT_FROM_CAD_STANDARDS
 70
     0
  0
APPID
  2
ACAD_DSTYLE_DIMJAG
 70
     0
  0
APPID
  2
ACAD_DSTYLE_DIMTALN
 70
     0
  0
APPID
  2
ACAD_MLEADERVER
 70
     0
  0
APPID
  2
ACAD_NAV_VCDISPLAY
 70
     0
  0
APPID
  2
ACAD_DSTYLE_DIMRADIAL_EXTENSION
 70
     0
  0
ENDTAB
  0
TABLE
  2
DIMSTYLE
 70
     2
  0
DIMSTYLE
  2
STANDARD
 70
     0
  3

  4

  5

  6

  7

 40
1.0
 41
0.18
 42
0.0625
 43
0.38
 44
0.18
 45
0.0
 46
0.0
 47
0.0
 48
0.0
140
0.18
141
0.09
142
0.0
143
25.399999999999999
144
1.0
145
0.0
146
1.0
147
0.09
 71
     0
 72
     0
 73
     1
 74
     1
 75
     0
 76
     0
 77
     0
 78
     0
170
     0
171
     2
172
     0
173
     0
174
     0
175
     0
176
     0
177
     0
178
     0
  0
DIMSTYLE
  2
ISO-25
 70
     0
  3

  4

  5

  6

  7

 40
1.0
 41
2.5
 42
0.625
 43
3.75
 44
1.25
 45
0.0
 46
0.0
 47
0.0
 48
0.0
140
2.5
141
2.5
142
0.0
143
0.03937007874016
144
1.0
145
0.0
146
1.0
147
0.625
 71
     0
 72
     0
 73
     0
 74
     0
 75
     0
 76
     0
 77
     1
 78
     8
170
     0
171
     3
172
     1
173
     0
174
     0
175
     0
176
     0
177
     0
178
     0
  0
ENDTAB
  0
ENDSEC
  0
SECTION
  2
BLOCKS
  0
BLOCK
  8
0
  2
$MODEL_SPACE
 70
     0
 10
0.0
 20
0.0
 30
0.0
  3
$MODEL_SPACE
  1

  0
ENDBLK
  5
BAB
  8
0
  0
BLOCK
 67
     1
  8
0
  2
$PAPER_SPACE
 70
     0
 10
0.0
 20
0.0
 30
0.0
  3
$PAPER_SPACE
  1

  0
ENDBLK
  5
BA9
 67
     1
  8
0
  0
ENDSEC
  0
SECTION
  2
ENTITIES
  0
TEXT
  5
2813
  8
0
 62
     3
 10
0.0
 20
0.0
 30
0.0
 40
5.0
  1
RLES2338ITT-SUS
  7
STANDARD1
  0
CIRCLE
  5
53B0
  8
0
 10
44.0
 20
111.0
 30
0.0
 40
1.2294999999999989
  0
CIRCLE
  5
53B1
  8
0
 10
50.0
 20
111.0
 30
0.0
 40
1.6209999999999991
  0
CIRCLE
  5
53B2
  8
0
 10
56.0
 20
111.0
 30
0.0
 40
1.2294999999999989
  0
CIRCLE
  5
53B3
  8
0
 10
50.0
 20
117.0
 30
0.0
 40
1.4999999999999989
  0
CIRCLE
  5
53B4
  8
3
 10
44.0
 20
111.0
 30
0.0
 40
1.4999999999999989
  0
CIRCLE
  5
53B5
  8
3
 10
56.0
 20
111.0
 30
0.0
 40
1.4999999999999989
  0
CIRCLE
  5
53B6
  8
3
 10
50.0
 20
111.0
 30
0.0
 40
2.0
  0
CIRCLE
  5
53B7
  8
0
 10
50.0
 20
105.0
 30
0.0
 40
1.4999999999999989
  0
CIRCLE
  5
53B8
  8
0
 10
50.0
 20
111.0
 30
0.0
 40
9.0999999999999996
  0
ARC
  5
53B9
  8
0
 10
50.000000004382848
 20
110.9999999471062
 30
0.0
 40
9.8999999469468563
 50
273.08719023126162
 51
276.38649397926321
  0
LINE
  5
53BA
  8
0
 10
50.53317010645651
 20
101.11436751454011
 30
0.0
 11
50.126504958922908
 21
101.7008604432793
 31
0.0
  0
ARC
  5
53BB
  8
0
 10
49.999999999999432
 20
110.9999993139435
 30
0.0
 40
9.2999993140069233
 50
269.22059953622897
 51
270.77940046377739
  0
LINE
  5
53BC
  8
0
 10
49.873495041077042
 20
101.7008604432793
 30
0.0
 11
49.466829893543427
 21
101.11436751454011
 31
0.0
  0
ARC
  5
53BD
  8
0
 10
50.000000002314209
 20
111.00000002792819
 30
0.0
 40
9.9000000280122951
 50
263.61350603424569
 51
266.91280975522892
  0
LINE
  5
53BE
  8
0
 10
48.898776732529647
 20
101.1614377414593
 30
0.0
 11
48.594191530868322
 21
101.8068665544267
 31
0.0
  0
ARC
  5
53BF
  8
0
 10
50.000000203445332
 20
111.0000012191819
 30
0.0
 40
9.3000012359254995
 50
259.74691548677418
 51
261.30571609217179
  0
LINE
  5
53C0
  8
0
 10
48.344632338528008
 20
101.8485106181916
 30
0.0
 11
47.846980010249979
 21
101.3369515719036
 31
0.0
  0
ARC
  5
53C1
  8
0
 10
50.000000002038121
 20
111.0000000080486
 30
0.0
 40
9.9000000082991928
 50
254.13982182042969
 51
257.43912554798862
  0
LINE
  5
53C2
  8
0
 10
47.294421858664521
 20
101.4768782995739
 30
0.0
 11
47.100224893182478
 21
102.16363738125909
 31
0.0
  0
ARC
  5
53C3
  8
0
 10
50.000000013148679
 20
111.0000000383009
 30
0.0
 40
9.3000000404912591
 50
250.27323117605789
 51
251.83203198183671
  0
LINE
  5
53C4
  8
0
 10
46.860923750562499
 20
102.2457895672872
 30
0.0
 11
46.285858899772613
 21
101.82311840069831
 31
0.0
  0
ARC
  5
53C5
  8
0
 10
49.999999998295493
 20
110.9999999961137
 30
0.0
 40
9.8999999957580922
 50
244.66613760781269
 51
247.96544133954711
  0
LINE
  5
53C6
  8
0
 10
45.763868103579171
 20
102.05208479275051
 30
0.0
 11
45.71175661968482
 21
102.5229150817523
 31
0.0
  0
POLYLINE
  5
53C7
  8
0
 66
     1
 10
0.0
 20
0.0
 30
0.0
  0
VERTEX
  5
575C
  8
0
 10
45.71175661968482
 20
102.5229150817523
 30
0.0
  0
VERTEX
  5
575D
  8
0
 10
45.476904333401528
 20
102.5038829954073
 30
0.0
  0
VERTEX
  5
575E
  8
0
 10
45.239467222349496
 20
102.5033771812296
 30
0.0
  0
VERTEX
  5
575F
  8
0
 10
44.994387686415962
 20
102.52267646561501
 30
0.0
  0
VERTEX
  5
5760
  8
0
 10
44.7500480511668
 20
102.5622769079737
 30
0.0
  0
VERTEX
  5
5761
  8
0
 10
44.514611375704987
 20
102.6205258296341
 30
0.0
  0
VERTEX
  5
5762
  8
0
 10
44.283454264943138
 20
102.6980152136901
 30
0.0
  0
VERTEX
  5
5763
  8
0
 10
44.051412658085319
 20
102.7978735263079
 30
0.0
  0
VERTEX
  5
5764
  8
0
 10
43.827824629278837
 20
102.91729690870589
 30
0.0
  0
VERTEX
  5
5765
  8
0
 10
43.61637359885799
 20
103.0543069318438
 30
0.0
  0
VERTEX
  5
5766
  8
0
 10
43.415330594714419
 20
103.21012652072601
 30
0.0
  0
SEQEND
  5
5767
  8
0
  0
ARC
  5
53C8
  8
0
 10
49.999999999842089
 20
110.9999999998418
 30
0.0
 40
10.199999999777241
 50
220.3291771240477
 51
229.7926379528312
  0
POLYLINE
  5
53C9
  8
0
 66
     1
 10
0.0
 20
0.0
 30
0.0
  0
VERTEX
  5
5768
  8
0
 10
42.224143611573588
 20
104.3987836403759
 30
0.0
  0
VERTEX
  5
5769
  8
0
 10
42.079284015411019
 20
104.5836545078142
 30
0.0
  0
VERTEX
  5
576A
  8
0
 10
41.949422579892818
 20
104.77906829464359
 30
0.0
  0
VERTEX
  5
576B
  8
0
 10
41.832330828219767
 20
104.9898543859652
 30
0.0
  0
VERTEX
  5
576C
  8
0
 10
41.732786830515522
 20
105.2086637179661
 30
0.0
  0
VERTEX
  5
576D
  8
0
 10
41.600737989720578
 20
105.6126901400077
 30
0.0
  0
VERTEX
  5
576E
  8
0
 10
41.526550571834257
 20
106.0368301672905
 30
0.0
  0
SEQEND
  5
576F
  8
0
  0
LINE
  5
53CA
  8
0
 10
41.526550571834257
 20
106.0368301672905
 30
0.0
 11
41.43246345905748
 21
106.0394236605395
 31
0.0
  0
ARC
  5
53CB
  8
0
 10
49.99999997082142
 20
110.9999999842093
 30
0.0
 40
9.8999999668364307
 50
206.77140076088961
 51
210.0707045022649
  0
LINE
  5
53CC
  8
0
 10
41.16117344502635
 20
106.54072369872721
 30
0.0
 11
41.53491249630747
 21
107.14872831978469
 31
0.0
  0
ARC
  5
53CD
  8
0
 10
49.999999661762267
 20
110.99999985163529
 30
0.0
 40
9.2999996306876795
 50
202.90481008908159
 51
204.46361096354971
  0
LINE
  5
53CE
  8
0
 10
41.433279569916969
 20
107.3804280539271
 30
0.0
 11
40.732829460375683
 21
107.5172496228527
 31
0.0
  0
ARC
  5
53CF
  8
0
 10
50.00000003520757
 20
111.0000000120867
 30
0.0
 40
9.9000000372090202
 50
197.29771656209331
 51
200.5970202800103
  0
LINE
  5
53D0
  8
0
 10
40.547750762929013
 20
108.0563654506221
 30
0.0
 11
41.016466772174901
 21
108.5945622551056
 31
0.0
  0
ARC
  5
53D1
  8
0
 10
49.999998966802757
 20
110.99999973835889
 30
0.0
 40
9.2999989342877942
 50
193.4311258201873
 51
194.98992681138969
  0
LINE
  5
53D2
  8
0
 10
40.954356509241038
 20
108.83983013675071
 30
0.0
 11
40.285979716304269
 21
109.09007593660191
 31
0.0
  0
ARC
  5
53D3
  8
0
 10
50.000000023092241
 20
111.0000000038534
 30
0.0
 40
9.9000000234018533
 50
187.8240323492675
 51
191.12333607178499
  0
LINE
  5
53D4
  8
0
 10
40.19216079984426
 20
109.6523018795414
 30
0.0
 11
40.743068416174083
 21
110.1060102615991
 31
0.0
  0
ARC
  5
53D5
  8
0
 10
49.99999926635337
 20
110.99999993920819
 30
0.0
 40
9.2999992639071127
 50
183.95744163728631
 51
185.51624257323579
  0
LINE
  5
53D6
  8
0
 10
40.722175022760318
 20
110.3581560223012
 30
0.0
 11
40.104103123011043
 21
110.715
 31
0.0
  0
ARC
  5
53D7
  8
0
 10
50.000000004087148
 20
111.0
 30
0.0
 40
9.9000000040854541
 50
178.35034813551911
 51
181.64965186448089
  0
LINE
  5
53D8
  8
0
 10
40.104103123011043
 20
111.285
 30
0.0
 11
40.722175022760318
 21
111.6418439776988
 31
0.0
  0
ARC
  5
53D9
  8
0
 10
49.999999591852493
 20
111.0000000338201
 30
0.0
 40
9.2999995904915735
 50
174.48375745413151
 51
176.04255833533941
  0
LINE
  5
53DA
  8
0
 10
40.743068416174083
 20
111.8939897384009
 30
0.0
 11
40.192160799844203
 21
112.3476981204586
 31
0.0
  0
ARC
  5
53DB
  8
0
 10
49.9999999907198
 20
111.0000000015486
 30
0.0
 40
9.8999999905953846
 50
168.87666392274491
 51
172.17596765620289
  0
LINE
  5
53DC
  8
0
 10
40.285979716304269
 20
112.90992406339809
 30
0.0
 11
40.954356509241038
 21
113.16016986324929
 31
0.0
  0
ARC
  5
53DD
  8
0
 10
50.000000322173378
 20
110.9999999184146
 30
0.0
 40
9.3000003323122247
 50
165.01007330578079
 51
166.56887406263959
  0
LINE
  5
53DE
  8
0
 10
41.016466772174901
 20
113.4054377448944
 30
0.0
 11
40.547750762929013
 21
113.9436345493779
 31
0.0
  0
ARC
  5
53DF
  8
0
 10
49.999999991322632
 20
111.00000000297899
 30
0.0
 40
9.8999999908293432
 50
159.40297971225871
 51
162.70228344563651
  0
LINE
  5
53E0
  8
0
 10
40.732829460375683
 20
114.4827503771473
 30
0.0
 11
41.433279569916969
 21
114.6195719460729
 31
0.0
  0
ARC
  5
53E1
  8
0
 10
50.000001125707001
 20
110.9999995062191
 30
0.0
 40
9.3000012291282346
 50
155.53638917041829
 51
157.09518977695211
  0
LINE
  5
53E2
  8
0
 10
41.53491249630747
 20
114.8512716802154
 30
0.0
 11
41.16117344502635
 21
115.45927630127279
 31
0.0
  0
ARC
  5
53E3
  8
0
 10
49.999999983854707
 20
111.0000000087374
 30
0.0
 40
9.8999999816497244
 50
149.9292955002029
 51
153.2285992366412
  0
LINE
  5
53E4
  8
0
 10
41.43246345905748
 20
115.9605763394605
 30
0.0
 11
41.526550571834257
 21
115.9631698327095
 31
0.0
  0
POLYLINE
  5
53E5
  8
0
 66
     1
 10
0.0
 20
0.0
 30
0.0
  0
VERTEX
  5
5770
  8
0
 10
41.526550571834257
 20
115.9631698327095
 30
0.0
  0
VERTEX
  5
5771
  8
0
 10
41.558872601750629
 20
116.1925057127789
 30
0.0
  0
VERTEX
  5
5772
  8
0
 10
41.609110664684287
 20
116.42001630738331
 30
0.0
  0
VERTEX
  5
5773
  8
0
 10
41.679472942339892
 20
116.6503526744292
 30
0.0
  0
VERTEX
  5
5774
  8
0
 10
41.7684990165614
 20
116.87533395714181
 30
0.0
  0
VERTEX
  5
5775
  8
0
 10
41.96715258973893
 20
117.2496585958322
 30
0.0
  0
VERTEX
  5
5776
  8
0
 10
42.224143908859787
 20
117.6012167098102
 30
0.0
  0
SEQEND
  5
5777
  8
0
  0
ARC
  5
53E6
  8
0
 10
50.000000000000561
 20
110.9999999999994
 30
0.0
 40
10.20000000000082
 50
130.20736252768879
 51
139.6708202955281
  0
POLYLINE
  5
53E7
  8
0
 66
     1
 10
0.0
 20
0.0
 30
0.0
  0
VERTEX
  5
5778
  8
0
 10
43.415330529397579
 20
118.78987342406261
 30
0.0
  0
VERTEX
  5
5779
  8
0
 10
43.60050905244384
 20
118.93433971522531
 30
0.0
  0
VERTEX
  5
577A
  8
0
 10
43.796198593876163
 20
119.0637854496004
 30
0.0
  0
VERTEX
  5
577B
  8
0
 10
44.007233273480672
 20
119.1804288341793
 30
0.0
  0
VERTEX
  5
577C
  8
0
 10
44.22625387408948
 20
119.2795074273177
 30
0.0
  0
VERTEX
  5
577D
  8
0
 10
44.444992260227359
 20
119.35832152477251
 30
0.0
  0
VERTEX
  5
577E
  8
0
 10
44.668102968961477
 20
119.4197420832073
 30
0.0
  0
VERTEX
  5
577F
  8
0
 10
44.900301516182303
 20
119.4645171384158
 30
0.0
  0
VERTEX
  5
5780
  8
0
 10
45.133822325020454
 20
119.4907901389431
 30
0.0
  0
VERTEX
  5
5781
  8
0
 10
45.423057506224488
 20
119.4978923918116
 30
0.0
  0
VERTEX
  5
5782
  8
0
 10
45.71175661968482
 20
119.4770849182477
 30
0.0
  0
SEQEND
  5
5783
  8
0
  0
LINE
  5
53E8
  8
0
 10
45.71175661968482
 20
119.4770849182477
 30
0.0
 11
45.763868103579227
 21
119.94791520724949
 31
0.0
  0
ARC
  5
53E9
  8
0
 10
50.000000010999941
 20
110.9999999749228
 30
0.0
 40
9.9000000273723305
 50
112.0345586657178
 51
115.3338623869127
  0
LINE
  5
53EA
  8
0
 10
46.285858899772613
 20
120.17688159930169
 30
0.0
 11
46.860923750562499
 21
119.7542104327128
 31
0.0
  0
ARC
  5
53EB
  8
0
 10
49.9999995864789
 20
111.0000012045459
 30
0.0
 40
9.2999987265674662
 50
108.1679679080431
 51
109.72676893406521
  0
LINE
  5
53EC
  8
0
 10
47.100224893182478
 20
119.83636261874091
 30
0.0
 11
47.294421858664521
 21
120.5231217004262
 31
0.0
  0
ARC
  5
53ED
  8
0
 10
50.000000005415359
 20
110.99999997861531
 30
0.0
 40
9.9000000220505537
 50
102.5608744543068
 51
105.86017817727431
  0
LINE
  5
53EE
  8
0
 10
47.846980010249922
 20
120.6630484280964
 30
0.0
 11
48.344632338528008
 21
120.1514893818085
 31
0.0
  0
ARC
  5
53EF
  8
0
 10
50.00000004118516
 20
110.9999997531913
 30
0.0
 40
9.3000002501982504
 50
98.694283825215848
 51
100.253084595837
  0
LINE
  5
53F0
  8
0
 10
48.594191530868322
 20
120.1931334455733
 30
0.0
 11
48.898776732529647
 21
120.8385622585407
 31
0.0
  0
ARC
  5
53F1
  8
0
 10
50.00000000205813
 20
110.99999997516269
 30
0.0
 40
9.900000024912158
 50
93.087190244255893
 51
96.386493966272184
  0
LINE
  5
53F2
  8
0
 10
49.466829893543427
 20
120.88563248545999
 30
0.0
 11
49.873495041077042
 21
120.2991395567207
 31
0.0
  0
ARC
  5
53F3
  8
0
 10
50.000000000000057
 20
110.99999901837199
 30
0.0
 40
9.300000981537174
 50
89.220599675982029
 51
90.779400324017985
  0
LINE
  5
53F4
  8
0
 10
50.126504958922958
 20
120.2991395567207
 30
0.0
 11
50.53317010645651
 21
120.88563248545999
 31
0.0
  0
ARC
  5
53F5
  8
0
 10
49.999999998345849
 20
110.9999999800371
 30
0.0
 40
9.9000000200229792
 50
83.613506032914955
 51
86.912809756559597
  0
LINE
  5
53F6
  8
0
 10
51.101223267470353
 20
120.8385622585407
 30
0.0
 11
51.405808469131671
 21
120.1931334455733
 31
0.0
  0
ARC
  5
53F7
  8
0
 10
50.000000171346642
 20
111.0000010268249
 30
0.0
 40
9.2999989590732657
 50
79.746915295947815
 51
81.305716282997096
  0
LINE
  5
53F8
  8
0
 10
51.655367661471978
 20
120.1514893818085
 30
0.0
 11
52.153019989750071
 21
120.6630484280964
 31
0.0
  0
ARC
  5
53F9
  8
0
 10
49.999999990154947
 20
110.9999999611226
 30
0.0
 40
9.9000000400879138
 50
74.139821825731957
 51
77.439125542689723
  0
LINE
  5
53FA
  8
0
 10
52.705578141335479
 20
120.5231217004262
 30
0.0
 11
52.899775106817508
 21
119.83636261874091
 31
0.0
  0
ARC
  5
53FB
  8
0
 10
49.999999822230343
 20
110.9999994821746
 30
0.0
 40
9.3000005474391934
 50
70.273231218545661
 51
71.832031939345981
  0
LINE
  5
53FC
  8
0
 10
53.139076249437487
 20
119.7542104327128
 30
0.0
 11
53.71414110022738
 21
120.17688159930169
 31
0.0
  0
ARC
  5
53FD
  8
0
 10
50.000000001531362
 20
111.0000000034911
 30
0.0
 40
9.8999999961893703
 50
64.666137607890676
 51
67.965441339477678
  0
LINE
  5
53FE
  8
0
 10
54.236131896420773
 20
119.94791520724949
 30
0.0
 11
54.288243380315173
 21
119.4770849182477
 31
0.0
  0
POLYLINE
  5
53FF
  8
0
 66
     1
 10
0.0
 20
0.0
 30
0.0
  0
VERTEX
  5
5784
  8
0
 10
54.288243380315173
 20
119.4770849182477
 30
0.0
  0
VERTEX
  5
5785
  8
0
 10
54.523095666598458
 20
119.4961170045927
 30
0.0
  0
VERTEX
  5
5786
  8
0
 10
54.760532777650504
 20
119.4966228187704
 30
0.0
  0
VERTEX
  5
5787
  8
0
 10
55.005612313584031
 20
119.47732353438499
 30
0.0
  0
VERTEX
  5
5788
  8
0
 10
55.2499519488332
 20
119.4377230920263
 30
0.0
  0
VERTEX
  5
5789
  8
0
 10
55.485388624295013
 20
119.3794741703659
 30
0.0
  0
VERTEX
  5
578A
  8
0
 10
55.716545735056862
 20
119.3019847863098
 30
0.0
  0
VERTEX
  5
578B
  8
0
 10
55.948587341914667
 20
119.2021264736921
 30
0.0
  0
VERTEX
  5
578C
  8
0
 10
56.172175370721163
 20
119.08270309129421
 30
0.0
  0
VERTEX
  5
578D
  8
0
 10
56.383626382960237
 20
118.9456930810525
 30
0.0
  0
VERTEX
  5
578E
  8
0
 10
56.584669370786457
 20
118.7898735084356
 30
0.0
  0
SEQEND
  5
578F
  8
0
  0
ARC
  5
5400
  8
0
 10
50.00000000003439
 20
111.0000000000344
 30
0.0
 40
10.199999999951469
 50
40.329176521839578
 51
49.792638206496918
  0
POLYLINE
  5
5401
  8
0
 66
     1
 10
0.0
 20
0.0
 30
0.0
  0
VERTEX
  5
5790
  8
0
 10
57.775856457817952
 20
117.6012162778848
 30
0.0
  0
VERTEX
  5
5791
  8
0
 10
57.920716047823639
 20
117.4163454046452
 30
0.0
  0
VERTEX
  5
5792
  8
0
 10
58.050577476651092
 20
117.2209316125776
 30
0.0
  0
VERTEX
  5
5793
  8
0
 10
58.167669220954281
 20
117.01014551649131
 30
0.0
  0
VERTEX
  5
5794
  8
0
 10
58.267213210870523
 20
116.7913361804252
 30
0.0
  0
VERTEX
  5
5795
  8
0
 10
58.39926202393292
 20
116.3873098053799
 30
0.0
  0
VERTEX
  5
5796
  8
0
 10
58.473449428165729
 20
115.9631698327095
 30
0.0
  0
SEQEND
  5
5797
  8
0
  0
LINE
  5
5402
  8
0
 10
58.473449428165729
 20
115.9631698327095
 30
0.0
 11
58.567536540942513
 21
115.9605763394604
 31
0.0
  0
ARC
  5
5403
  8
0
 10
49.999999997952393
 20
110.99999999889179
 30
0.0
 40
9.9000000023272676
 50
26.77140076680638
 51
30.070704496353571
  0
LINE
  5
5404
  8
0
 10
58.838826554973593
 20
115.45927630127279
 30
0.0
 11
58.465087503692523
 21
114.8512716802154
 31
0.0
  0
ARC
  5
5405
  8
0
 10
50.000000386083229
 20
111.00000016935179
 30
0.0
 40
9.2999995784464051
 50
22.904810084704231
 51
24.46361096792981
  0
LINE
  5
5406
  8
0
 10
58.566720430083024
 20
114.6195719460729
 30
0.0
 11
59.26717053962431
 21
114.4827503771473
 31
0.0
  0
ARC
  5
5407
  8
0
 10
49.999999977638709
 20
110.9999999923234
 30
0.0
 40
9.9000000236325274
 50
17.29771655983166
 51
20.59702028227516
  0
LINE
  5
5408
  8
0
 10
59.45224923707098
 20
113.9436345493779
 30
0.0
 11
58.983533227825092
 21
113.4054377448944
 31
0.0
  0
ARC
  5
5409
  8
0
 10
49.999999320365703
 20
110.99999982789321
 30
0.0
 40
9.3000007010225154
 50
13.431125968260099
 51
14.989926663318339
  0
LINE
  5
540A
  8
0
 10
59.045643490758948
 20
113.16016986324929
 30
0.0
 11
59.714020283695731
 21
112.90992406339809
 31
0.0
  0
ARC
  5
540B
  8
0
 10
49.999999986928678
 20
110.9999999978188
 30
0.0
 40
9.9000000132465384
 50
7.8240323475744491
 51
11.123336073477789
  0
LINE
  5
540C
  8
0
 10
59.80783920015574
 20
112.3476981204586
 30
0.0
 11
59.256931583825917
 21
111.8939897384009
 31
0.0
  0
ARC
  5
540D
  8
0
 10
49.999999717331029
 20
110.9999999765775
 30
0.0
 40
9.3000002836114888
 50
3.9574417227521761
 51
5.516242487773364
  0
LINE
  5
540E
  8
0
 10
59.277824977239618
 20
111.6418439776988
 30
0.0
 11
59.895896876988949
 21
111.285
 31
0.0
  0
ARC
  5
540F
  8
0
 10
49.999999997583927
 20
111.0
 30
0.0
 40
9.9000000024150516
 50
358.3503481352422
 51
1.649651864757846
  0
LINE
  5
5410
  8
0
 10
59.895896876988949
 20
110.715
 30
0.0
 11
59.277824977239618
 21
110.3581560223012
 31
0.0
  0
ARC
  5
5411
  8
0
 10
50.000000881549802
 20
110.9999999269527
 30
0.0
 40
9.2999991155107882
 50
354.4837574143238
 51
356.04255837514887
  0
LINE
  5
5412
  8
0
 10
59.256931583825917
 20
110.106010261599
 30
0.0
 11
59.80783920015574
 21
109.6523018795414
 31
0.0
  0
ARC
  5
5413
  8
0
 10
49.99999997739895
 20
111.0000000037715
 30
0.0
 40
9.9000000229040275
 50
348.8766639281319
 51
352.1759676508147
  0
LINE
  5
5414
  8
0
 10
59.714020283695731
 20
109.09007593660181
 30
0.0
 11
59.045643490758948
 21
108.83983013675071
 31
0.0
  0
ARC
  5
5415
  8
0
 10
49.999999540356953
 20
111.0000001163974
 30
0.0
 40
9.3000004741080531
 50
345.01007331766232
 51
346.56887405075588
  0
LINE
  5
5416
  8
0
 10
58.983533227825092
 20
108.5945622551055
 30
0.0
 11
59.45224923707093
 21
108.0563654506221
 31
0.0
  0
ARC
  5
5417
  8
0
 10
50.000000031049858
 20
110.99999998934059
 30
0.0
 40
9.8999999671849626
 50
339.40297970831682
 51
342.70228344957638
  0
LINE
  5
5418
  8
0
 10
59.26717053962426
 20
107.5172496228527
 30
0.0
 11
58.566720430083024
 21
107.3804280539271
 31
0.0
  0
ARC
  5
5419
  8
0
 10
49.99999981211846
 20
111.0000000824125
 30
0.0
 40
9.3000002051426414
 50
335.5363890845972
 51
337.09518986277351
  0
LINE
  5
541A
  8
0
 10
58.465087503692473
 20
107.1487283197846
 30
0.0
 11
58.838826554973593
 21
106.54072369872721
 31
0.0
  0
ARC
  5
541B
  8
0
 10
49.999999981609669
 20
111.0000000099523
 30
0.0
 40
9.9000000209019294
 50
329.9292955067445
 51
333.22859923009668
  0
LINE
  5
541C
  8
0
 10
58.567536540942449
 20
106.0394236605395
 30
0.0
 11
58.473449428165729
 21
106.0368301672905
 31
0.0
  0
POLYLINE
  5
541D
  8
0
 66
     1
 10
0.0
 20
0.0
 30
0.0
  0
VERTEX
  5
5798
  8
0
 10
58.473449428165729
 20
106.0368301672905
 30
0.0
  0
VERTEX
  5
5799
  8
0
 10
58.441127398249357
 20
105.807494287221
 30
0.0
  0
VERTEX
  5
579A
  8
0
 10
58.390889335315649
 20
105.57998369261669
 30
0.0
  0
VERTEX
  5
579B
  8
0
 10
58.320527057660108
 20
105.3496473255708
 30
0.0
  0
VERTEX
  5
579C
  8
0
 10
58.231500983438529
 20
105.1246660428581
 30
0.0
  0
VERTEX
  5
579D
  8
0
 10
58.03284741026107
 20
104.7503414041679
 30
0.0
  0
VERTEX
  5
579E
  8
0
 10
57.775856091140163
 20
104.3987832901898
 30
0.0
  0
SEQEND
  5
579F
  8
0
  0
ARC
  5
541E
  8
0
 10
50.000000000175639
 20
110.9999999998239
 30
0.0
 40
10.19999999975211
 50
310.20736277047621
 51
319.67082029564659
  0
POLYLINE
  5
541F
  8
0
 66
     1
 10
0.0
 20
0.0
 30
0.0
  0
VERTEX
  5
57A0
  8
0
 10
56.584669503627261
 20
103.2101266038529
 30
0.0
  0
VERTEX
  5
57A1
  8
0
 10
56.399490982915381
 20
103.06566031020211
 30
0.0
  0
VERTEX
  5
57A2
  8
0
 10
56.203801443589839
 20
102.9362145731241
 30
0.0
  0
VERTEX
  5
57A3
  8
0
 10
55.99276676590069
 20
102.8195711855689
 30
0.0
  0
VERTEX
  5
57A4
  8
0
 10
55.773746166924639
 20
102.7204925892861
 30
0.0
  0
VERTEX
  5
57A5
  8
0
 10
55.555007782074881
 20
102.641678488645
 30
0.0
  0
VERTEX
  5
57A6
  8
0
 10
55.33189707434201
 20
102.5802579269313
 30
0.0
  0
VERTEX
  5
57A7
  8
0
 10
55.099698527832508
 20
102.5354828682879
 30
0.0
  0
VERTEX
  5
57A8
  8
0
 10
54.86617771940206
 20
102.5092098642962
 30
0.0
  0
VERTEX
  5
57A9
  8
0
 10
54.576942516169773
 20
102.50210760765781
 30
0.0
  0
VERTEX
  5
57AA
  8
0
 10
54.288243380315173
 20
102.5229150817523
 30
0.0
  0
SEQEND
  5
57AB
  8
0
  0
LINE
  5
5420
  8
0
 10
54.288243380315173
 20
102.5229150817523
 30
0.0
 11
54.236131896420773
 21
102.05208479275061
 31
0.0
  0
ARC
  5
5421
  8
0
 10
50.000000001664723
 20
110.99999999620449
 30
0.0
 40
9.8999999958571188
 50
292.0345586604667
 51
295.33386239216622
  0
LINE
  5
5422
  8
0
 10
53.71414110022738
 20
101.82311840069831
 30
0.0
 11
53.139076249437437
 21
102.2457895672872
 31
0.0
  0
ARC
  5
5423
  8
0
 10
49.999999844994477
 20
111.0000004515161
 30
0.0
 40
9.3000004773377771
 50
288.16796805477929
 51
289.72676878732761
  0
LINE
  5
5424
  8
0
 10
52.899775106817508
 20
102.16363738125909
 30
0.0
 11
52.705578141335423
 21
101.4768782995739
 31
0.0
  0
ARC
  5
5425
  8
0
 10
50.000000001990152
 20
110.9999999921413
 30
0.0
 40
9.8999999918965909
 50
282.56087444927499
 51
285.86017818229919
  0
LINE
  5
5426
  8
0
 10
52.153019989749971
 20
101.3369515719036
 30
0.0
 11
51.655367661471928
 21
101.8485106181916
 31
0.0
  0
ARC
  5
5427
  8
0
 10
49.999999968912839
 20
111.00000018629559
 30
0.0
 40
9.30000018885403
 50
278.69428382006942
 51
280.25308460098029
  0
LINE
  5
5428
  8
0
 10
51.405808469131607
 20
101.8068665544267
 30
0.0
 11
51.101223267470289
 21
101.1614377414593
 31
0.0
  0
CIRCLE
  5
5429
  8
0
 10
50.0
 20
111.0
 30
0.0
 40
11.5
  0
CIRCLE
  5
542A
  8
0
 10
50.0
 20
111.0
 30
0.0
 40
10.5
  0
LINE
  5
542E
  8
1
 10
53.0
 20
117.0
 30
0.0
 11
47.0
 21
117.0
 31
0.0
  0
LINE
  5
5431
  8
1
 10
53.0
 20
105.0
 30
0.0
 11
47.0
 21
105.0
 31
0.0
  0
LINE
  5
5432
  8
1
 10
50.0
 20
96.500000000000028
 30
0.0
 11
50.0
 21
125.5
 31
0.0
  0
LINE
  5
5433
  8
1
 10
64.5
 20
111.0
 30
0.0
 11
35.5
 21
111.0
 31
0.0
  0
LINE
  5
5434
  8
2
 10
98.192820322990855
 20
101.7
 30
0.0
 11
99.999999999999986
 21
101.7
 31
0.0
  0
LINE
  5
5435
  8
2
 10
99.999999999999986
 20
120.3
 30
0.0
 11
98.192820323027505
 21
120.3
 31
0.0
  0
LINE
  5
5436
  8
2
 10
99.999999999999986
 20
101.11436751454011
 30
0.0
 11
97.846410161522712
 21
101.11436751454011
 31
0.0
  0
LINE
  5
5437
  8
2
 10
99.999999999999986
 20
101.7008604432793
 30
0.0
 11
98.192820322990855
 21
101.7008604432793
 31
0.0
  0
LINE
  5
5438
  8
2
 10
99.999999999999986
 20
120.88563248545999
 30
0.0
 11
97.846410161513717
 21
120.88563248545999
 31
0.0
  0
LINE
  5
5439
  8
2
 10
99.999999999999986
 20
120.2991395567207
 30
0.0
 11
98.192820322956067
 21
120.2991395567207
 31
0.0
  0
LINE
  5
543A
  8
2
 10
99.999999999999986
 20
101.1614377414593
 30
0.0
 11
97.846410161513717
 21
101.1614377414593
 31
0.0
  0
LINE
  5
543B
  8
2
 10
99.999999999999986
 20
120.8385622585407
 30
0.0
 11
97.846410161532418
 21
120.8385622585407
 31
0.0
  0
LINE
  5
543C
  8
2
 10
99.999999999999986
 20
101.8068665544267
 30
0.0
 11
98.19282032303542
 21
101.8068665544267
 31
0.0
  0
LINE
  5
543D
  8
2
 10
99.999999999999986
 20
120.1931334455733
 30
0.0
 11
98.192820323027505
 21
120.1931334455733
 31
0.0
  0
LINE
  5
543E
  8
2
 10
107.0
 20
115.5
 30
0.0
 11
110.9999999999999
 21
115.5
 31
0.0
  0
LINE
  5
543F
  8
2
 10
110.9999999999999
 20
118.5
 30
0.0
 11
107.0
 21
118.5
 31
0.0
  0
LINE
  5
5440
  8
2
 10
107.0
 20
103.5
 30
0.0
 11
110.9999999999999
 21
103.5
 31
0.0
  0
LINE
  5
5441
  8
2
 10
110.9999999999999
 20
106.5
 30
0.0
 11
107.0
 21
106.5
 31
0.0
  0
LINE
  5
5442
  8
2
 10
107.0
 20
109.3790000000001
 30
0.0
 11
110.9999999999999
 21
109.379
 31
0.0
  0
LINE
  5
5443
  8
2
 10
111.0
 20
112.621
 30
0.0
 11
107.0
 21
112.621
 31
0.0
  0
LINE
  5
544A
  8
2
 10
99.999999999999986
 20
101.3369515719036
 30
0.0
 11
97.846410161497232
 21
101.3369515719036
 31
0.0
  0
LINE
  5
544B
  8
2
 10
99.999999999999986
 20
101.8485106181916
 30
0.0
 11
98.192820323027505
 21
101.8485106181916
 31
0.0
  0
LINE
  5
544C
  8
2
 10
99.999999999999986
 20
120.6630484280964
 30
0.0
 11
97.846410161513717
 21
120.6630484280964
 31
0.0
  0
LINE
  5
544D
  8
2
 10
99.999999999999986
 20
120.1514893818085
 30
0.0
 11
98.192820323029963
 21
120.1514893818085
 31
0.0
  0
LINE
  5
544E
  8
2
 10
99.999999999999986
 20
101.4768782995739
 30
0.0
 11
97.846410161513717
 21
101.4768782995739
 31
0.0
  0
LINE
  5
544F
  8
2
 10
99.999999999999986
 20
120.5231217004262
 30
0.0
 11
97.846410161508373
 21
120.5231217004262
 31
0.0
  0
LINE
  5
5450
  8
2
 10
99.999999999999986
 20
102.16363738125909
 30
0.0
 11
98.192820323029295
 21
102.16363738125909
 31
0.0
  0
LINE
  5
5451
  8
2
 10
99.999999999999986
 20
119.83636261874091
 30
0.0
 11
98.192820323027505
 21
119.83636261874091
 31
0.0
  0
LINE
  5
5452
  8
2
 10
99.999999999999986
 20
101.82311840069831
 30
0.0
 11
97.846410161508203
 21
101.82311840069831
 31
0.0
  0
LINE
  5
5453
  8
2
 10
99.999999999999986
 20
102.2457895672872
 30
0.0
 11
98.192820323027505
 21
102.2457895672872
 31
0.0
  0
LINE
  5
5454
  8
2
 10
99.999999999999986
 20
120.17688159930169
 30
0.0
 11
97.846410161513717
 21
120.17688159930169
 31
0.0
  0
LINE
  5
5455
  8
2
 10
99.999999999999986
 20
119.7542104327128
 30
0.0
 11
98.19282032308692
 21
119.7542104327128
 31
0.0
  0
LINE
  5
5456
  8
2
 10
99.999999999999986
 20
102.05208479275061
 30
0.0
 11
97.846410161513717
 21
102.05208479275061
 31
0.0
  0
LINE
  5
5457
  8
2
 10
99.999999999999986
 20
119.94791520724949
 30
0.0
 11
97.846410161501396
 21
119.94791520724949
 31
0.0
  0
LINE
  5
5458
  8
2
 10
99.999999999999986
 20
119.4770849182478
 30
0.0
 11
98.077350269189566
 21
119.4770849182478
 31
0.0
  0
LINE
  5
5459
  8
2
 10
99.999999999999986
 20
119.4987340876027
 30
0.0
 11
97.970417947390303
 21
119.4987340876027
 31
0.0
  0
POLYLINE
  5
545A
  8
2
 66
     1
 10
0.0
 20
0.0
 30
0.0
  0
VERTEX
  5
57AC
  8
2
 10
97.969612108311566
 20
119.498734079651
 30
0.0
  0
VERTEX
  5
57AD
  8
2
 10
97.939151605331716
 20
119.4966228187705
 30
0.0
  0
VERTEX
  5
57AE
  8
2
 10
97.878244411687405
 20
119.47732353438499
 30
0.0
  0
VERTEX
  5
57AF
  8
2
 10
97.82466482163224
 20
119.4377230920263
 30
0.0
  0
VERTEX
  5
57B0
  8
2
 10
97.779870849405512
 20
119.3794741703659
 30
0.0
  0
VERTEX
  5
57B1
  8
2
 10
97.742617518554894
 20
119.3019847863099
 30
0.0
  0
VERTEX
  5
57B2
  8
2
 10
97.712369735148258
 20
119.2021264736921
 30
0.0
  0
VERTEX
  5
57B3
  8
2
 10
97.69061250229359
 20
119.08270309129421
 30
0.0
  0
VERTEX
  5
57B4
  8
2
 10
97.677601253349138
 20
118.9456930810525
 30
0.0
  0
VERTEX
  5
57B5
  8
2
 10
97.673205080756844
 20
118.7898735084356
 30
0.0
  0
SEQEND
  5
57B6
  8
2
  0
LINE
  5
545B
  8
2
 10
99.999999999999986
 20
102.5229150817523
 30
0.0
 11
98.077350269189623
 21
102.5229150817523
 31
0.0
  0
LINE
  5
545C
  8
2
 10
97.970516026073113
 20
102.5012659123973
 30
0.0
 11
99.999999999999986
 21
102.5012659123973
 31
0.0
  0
POLYLINE
  5
545D
  8
2
 66
     1
 10
0.0
 20
0.0
 30
0.0
  0
VERTEX
  5
57B7
  8
2
 10
97.969636748809165
 20
102.5012659281425
 30
0.0
  0
VERTEX
  5
57B8
  8
2
 10
97.989548946325925
 20
102.50210760765781
 30
0.0
  0
VERTEX
  5
57B9
  8
2
 10
98.077350269189623
 20
102.5229150817523
 30
0.0
  0
SEQEND
  5
57BA
  8
2
  0
LINE
  5
545E
  8
2
 10
107.0
 20
109.7705000000001
 30
0.0
 11
110.9999999999999
 21
109.7705000000001
 31
0.0
  0
LINE
  5
545F
  8
2
 10
110.9999999999999
 20
112.2295
 30
0.0
 11
107.0
 21
112.2295
 31
0.0
  0
LINE
  5
5466
  8
2
 10
99.999999999999986
 20
106.0368301672905
 30
0.0
 11
97.892598183048875
 21
106.0368301672905
 31
0.0
  0
LINE
  5
5467
  8
2
 10
99.999999999999986
 20
115.9631698327096
 30
0.0
 11
97.892598183048875
 21
115.9631698327096
 31
0.0
  0
LINE
  5
5468
  8
2
 10
99.999999999999986
 20
107.3804280539271
 30
0.0
 11
98.192820323027505
 21
107.3804280539271
 31
0.0
  0
LINE
  5
5469
  8
2
 10
99.999999999999986
 20
107.1487283197846
 30
0.0
 11
98.192820323020825
 21
107.1487283197846
 31
0.0
  0
LINE
  5
546A
  8
2
 10
99.999999999999986
 20
114.6195719460729
 30
0.0
 11
98.192820323030205
 21
114.6195719460729
 31
0.0
  0
LINE
  5
546B
  8
2
 10
99.999999999999986
 20
114.8512716802154
 30
0.0
 11
98.192820323027505
 21
114.8512716802154
 31
0.0
  0
LINE
  5
546C
  8
2
 10
99.999999999999986
 20
106.0394236605395
 30
0.0
 11
97.846410161512352
 21
106.0394236605395
 31
0.0
  0
LINE
  5
546D
  8
2
 10
99.999999999999986
 20
115.9605763394605
 30
0.0
 11
97.846410161513717
 21
115.9605763394605
 31
0.0
  0
LINE
  5
546E
  8
2
 10
99.999999999999986
 20
106.54072369872721
 30
0.0
 11
97.846410161513717
 21
106.54072369872721
 31
0.0
  0
LINE
  5
546F
  8
2
 10
99.999999999999986
 20
115.45927630127279
 30
0.0
 11
97.846410161507748
 21
115.45927630127279
 31
0.0
  0
LINE
  5
5470
  8
2
 10
99.999999999999986
 20
108.83983013675071
 30
0.0
 11
98.192820323027505
 21
108.83983013675071
 31
0.0
  0
LINE
  5
5471
  8
2
 10
99.999999999999986
 20
108.5945622551055
 30
0.0
 11
98.192820323082486
 21
108.5945622551055
 31
0.0
  0
LINE
  5
5472
  8
2
 10
99.999999999999986
 20
113.16016986324929
 30
0.0
 11
98.192820323015695
 21
113.16016986324929
 31
0.0
  0
LINE
  5
5473
  8
2
 10
99.999999999999986
 20
113.4054377448944
 30
0.0
 11
98.192820323027505
 21
113.4054377448944
 31
0.0
  0
LINE
  5
5474
  8
2
 10
101.98999999999999
 20
101.90000000000011
 30
0.0
 11
107.0
 21
101.90000000000011
 31
0.0
  0
LINE
  5
5475
  8
2
 10
107.0
 20
120.09999999999999
 30
0.0
 11
101.98999999999999
 21
120.09999999999999
 31
0.0
  0
LINE
  5
5476
  8
2
 10
107.0
 20
120.09999999999999
 30
0.0
 11
107.0
 21
101.90000000000011
 31
0.0
  0
LINE
  5
5477
  8
2
 10
99.999999999999986
 20
107.5172496228527
 30
0.0
 11
97.846410161508032
 21
107.5172496228527
 31
0.0
  0
LINE
  5
5478
  8
2
 10
99.999999999999986
 20
114.4827503771473
 30
0.0
 11
97.846410161513717
 21
114.4827503771473
 31
0.0
  0
LINE
  5
5479
  8
2
 10
99.999999999999986
 20
111.6418439776988
 30
0.0
 11
98.192820323013137
 21
111.6418439776988
 31
0.0
  0
LINE
  5
547A
  8
2
 10
99.999999999999986
 20
111.8939897384009
 30
0.0
 11
98.192820323027505
 21
111.8939897384009
 31
0.0
  0
LINE
  5
547B
  8
2
 10
99.999999999999986
 20
110.3581560223012
 30
0.0
 11
98.192820323027505
 21
110.3581560223012
 31
0.0
  0
LINE
  5
547C
  8
2
 10
99.999999999999986
 20
110.106010261599
 30
0.0
 11
98.19282032298733
 21
110.106010261599
 31
0.0
  0
LINE
  5
547D
  8
2
 10
99.999999999999986
 20
108.0563654506221
 30
0.0
 11
97.846410161513717
 21
108.0563654506221
 31
0.0
  0
LINE
  5
547E
  8
2
 10
99.999999999999986
 20
113.9436345493779
 30
0.0
 11
97.846410161513035
 21
113.9436345493779
 31
0.0
  0
LINE
  5
547F
  8
2
 10
99.999999999999986
 20
109.09007593660181
 30
0.0
 11
97.846410161500316
 21
109.09007593660181
 31
0.0
  0
LINE
  5
5480
  8
2
 10
99.999999999999986
 20
112.90992406339819
 30
0.0
 11
97.846410161513717
 21
112.90992406339819
 31
0.0
  0
LINE
  5
5481
  8
2
 10
99.999999999999986
 20
109.6523018795414
 30
0.0
 11
97.846410161513717
 21
109.6523018795414
 31
0.0
  0
LINE
  5
5482
  8
2
 10
99.999999999999986
 20
112.3476981204586
 30
0.0
 11
97.846410161520353
 21
112.3476981204586
 31
0.0
  0
LINE
  5
5483
  8
2
 10
99.999999999999986
 20
110.715
 30
0.0
 11
97.846410161516104
 21
110.715
 31
0.0
  0
LINE
  5
5484
  8
2
 10
99.999999999999986
 20
111.2850000000001
 30
0.0
 11
97.846410161513717
 21
111.2850000000001
 31
0.0
  0
LINE
  5
5485
  8
2
 10
99.999999999999986
 20
117.6012162778848
 30
0.0
 11
99.999999999999986
 21
104.3987832901898
 31
0.0
  0
LINE
  5
5486
  8
2
 10
99.999999999999986
 20
103.2101266038529
 30
0.0
 11
99.999999999999986
 21
100.8
 31
0.0
  0
LINE
  5
5487
  8
2
 10
99.999999999999986
 20
103.2101266038529
 30
0.0
 11
97.673205080756347
 21
103.2101266038529
 31
0.0
  0
LINE
  5
5488
  8
2
 10
99.999999999999986
 20
104.3987832901898
 30
0.0
 11
97.673205080756844
 21
104.3987832901898
 31
0.0
  0
LINE
  5
5489
  8
2
 10
99.999999999999986
 20
117.6012162778848
 30
0.0
 11
97.673205080756787
 21
117.6012162778848
 31
0.0
  0
LINE
  5
548A
  8
2
 10
99.999999999999986
 20
118.7898735084356
 30
0.0
 11
97.673205080756844
 21
118.7898735084356
 31
0.0
  0
LINE
  5
548B
  8
2
 10
99.999999999999986
 20
100.8
 30
0.0
 11
101.3549147038913
 21
100.8
 31
0.0
  0
LINE
  5
548C
  8
2
 10
101.3549147038913
 20
121.2
 30
0.0
 11
99.999999999999986
 21
121.2
 31
0.0
  0
LINE
  5
548D
  8
2
 10
99.999999999999986
 20
121.2
 30
0.0
 11
99.999999999999986
 21
118.7898735084356
 31
0.0
  0
LINE
  5
548E
  8
2
 10
101.98999999999999
 20
120.09999999999999
 30
0.0
 11
101.3549147038913
 21
121.2
 31
0.0
  0
LINE
  5
548F
  8
2
 10
101.3549147038913
 20
100.8
 30
0.0
 11
101.98999999999999
 21
101.90000000000011
 31
0.0
  0
LINE
  5
5490
  8
2
 10
101.3549147038913
 20
121.2
 30
0.0
 11
101.3549147038913
 21
100.8
 31
0.0
  0
LINE
  5
5491
  8
2
 10
101.98999999999999
 20
120.09999999999999
 30
0.0
 11
101.98999999999999
 21
101.90000000000011
 31
0.0
  0
LINE
  5
5492
  8
2
 10
97.846410161513717
 20
101.1614377414593
 30
0.0
 11
97.846410161522712
 21
101.11436751454011
 31
0.0
  0
LINE
  5
5493
  8
2
 10
98.192820322949714
 20
101.7008604432793
 30
0.0
 11
97.846410161513717
 21
101.11436751454011
 31
0.0
  0
LINE
  5
5494
  8
2
 10
97.846410161519117
 20
101.1614377414593
 30
0.0
 11
98.192820323027505
 21
101.8068665544267
 31
0.0
  0
LINE
  5
5495
  8
2
 10
98.19282032302155
 20
101.8485106181916
 30
0.0
 11
97.846410161513717
 21
101.3369515719036
 31
0.0
  0
LINE
  5
5496
  8
2
 10
97.846410161520083
 20
102.05208479275051
 30
0.0
 11
98.077350269189566
 21
102.5229150817523
 31
0.0
  0
LINE
  5
5497
  8
2
 10
97.972060322105946
 20
102.5012795254995
 30
0.0
 11
97.969612108311566
 21
102.5012659203491
 31
0.0
  0
LINE
  5
5498
  8
2
 10
97.92363436853978
 20
119.49378298179801
 30
0.0
 11
97.969636748810871
 21
119.4987340718576
 31
0.0
  0
LINE
  5
5499
  8
2
 10
98.077350269189566
 20
119.4770849182478
 30
0.0
 11
97.846410161513717
 21
119.94791520724949
 31
0.0
  0
LINE
  5
549A
  8
2
 10
97.846410161513262
 20
120.8856324854607
 30
0.0
 11
98.192820323027505
 21
120.2991395567207
 31
0.0
  0
LINE
  5
549B
  8
2
 10
97.846410161513717
 20
120.88563248545999
 30
0.0
 11
97.846410161532418
 21
120.8385622585407
 31
0.0
  0
LINE
  5
549C
  8
2
 10
97.846410161532418
 20
120.8385622585407
 30
0.0
 11
98.192820323027505
 21
120.1931334455733
 31
0.0
  0
LINE
  5
549D
  8
2
 10
98.192820323027505
 20
120.1931334455733
 30
0.0
 11
98.192820323029963
 21
120.1514893818085
 31
0.0
  0
LINE
  5
549E
  8
2
 10
98.192820323029963
 20
120.1514893818085
 30
0.0
 11
97.846410161513717
 21
120.6630484280964
 31
0.0
  0
LINE
  5
549F
  8
2
 10
97.846410161513717
 20
120.6630484280964
 30
0.0
 11
97.846410161508373
 21
120.5231217004262
 31
0.0
  0
LINE
  5
54A0
  8
2
 10
97.846410161508373
 20
120.5231217004262
 30
0.0
 11
98.192820323027505
 21
119.83636261874091
 31
0.0
  0
LINE
  5
54A1
  8
2
 10
98.192820323027505
 20
119.83636261874091
 30
0.0
 11
98.19282032308692
 21
119.7542104327128
 31
0.0
  0
LINE
  5
54A2
  8
2
 10
98.19282032308692
 20
119.7542104327128
 30
0.0
 11
97.846410161513717
 21
120.17688159930169
 31
0.0
  0
LINE
  5
54A3
  8
2
 10
97.846410161513717
 20
120.17688159930169
 30
0.0
 11
97.846410161501396
 21
119.94791520724949
 31
0.0
  0
POLYLINE
  5
54A4
  8
2
 66
     1
 10
0.0
 20
0.0
 30
0.0
  0
VERTEX
  5
57BB
  8
2
 10
98.077350269189566
 20
119.4770849182478
 30
0.0
  0
VERTEX
  5
57BC
  8
2
 10
98.005125790179605
 20
119.4961170045928
 30
0.0
  0
VERTEX
  5
57BD
  8
2
 10
97.969612108311566
 20
119.498734079651
 30
0.0
  0
SEQEND
  5
57BE
  8
2
  0
LINE
  5
54A5
  8
2
 10
97.673205080756844
 20
118.7898735084356
 30
0.0
 11
97.673205080756787
 21
117.6012162778848
 31
0.0
  0
POLYLINE
  5
54A6
  8
2
 66
     1
 10
0.0
 20
0.0
 30
0.0
  0
VERTEX
  5
57BF
  8
2
 10
97.673205080756787
 20
117.6012162778848
 30
0.0
  0
VERTEX
  5
57C0
  8
2
 10
97.676959500071888
 20
117.4163454046452
 30
0.0
  0
VERTEX
  5
57C1
  8
2
 10
97.688173291368216
 20
117.2209316125776
 30
0.0
  0
VERTEX
  5
57C2
  8
2
 10
97.707469462656803
 20
117.01014551649131
 30
0.0
  0
VERTEX
  5
57C3
  8
2
 10
97.734474189874703
 20
116.7913361804252
 30
0.0
  0
VERTEX
  5
57C4
  8
2
 10
97.764867855867436
 20
116.5912295881738
 30
0.0
  0
VERTEX
  5
57C5
  8
2
 10
97.80108101292555
 20
116.3873098053799
 30
0.0
  0
VERTEX
  5
57C6
  8
2
 10
97.843988117666385
 20
116.1759763509355
 30
0.0
  0
VERTEX
  5
57C7
  8
2
 10
97.892598183048875
 20
115.9631698327096
 30
0.0
  0
SEQEND
  5
57C8
  8
2
  0
LINE
  5
54A7
  8
2
 10
97.892598183048875
 20
115.9631698327096
 30
0.0
 11
97.846410161513717
 21
115.9605763394605
 31
0.0
  0
LINE
  5
54A8
  8
2
 10
97.846410161513717
 20
115.9605763394605
 30
0.0
 11
97.846410161507748
 21
115.45927630127279
 31
0.0
  0
LINE
  5
54A9
  8
2
 10
97.846410161507748
 20
115.45927630127279
 30
0.0
 11
98.192820323027505
 21
114.8512716802154
 31
0.0
  0
LINE
  5
54AA
  8
2
 10
98.192820323027505
 20
114.8512716802154
 30
0.0
 11
98.192820323030205
 21
114.6195719460729
 31
0.0
  0
LINE
  5
54AB
  8
2
 10
98.192820323030205
 20
114.6195719460729
 30
0.0
 11
97.846410161513717
 21
114.4827503771473
 31
0.0
  0
LINE
  5
54AC
  8
2
 10
97.846410161513717
 20
114.4827503771473
 30
0.0
 11
97.846410161513035
 21
113.9436345493779
 31
0.0
  0
LINE
  5
54AD
  8
2
 10
97.846410161513035
 20
113.9436345493779
 30
0.0
 11
98.192820323027505
 21
113.4054377448944
 31
0.0
  0
LINE
  5
54AE
  8
2
 10
98.192820323027505
 20
113.4054377448944
 30
0.0
 11
98.192820323015695
 21
113.16016986324929
 31
0.0
  0
LINE
  5
54AF
  8
2
 10
98.192820323015695
 20
113.16016986324929
 30
0.0
 11
97.846410161513717
 21
112.90992406339819
 31
0.0
  0
LINE
  5
54B0
  8
2
 10
97.846410161513717
 20
112.90992406339819
 30
0.0
 11
97.846410161520353
 21
112.3476981204586
 31
0.0
  0
LINE
  5
54B1
  8
2
 10
97.846410161520353
 20
112.3476981204586
 30
0.0
 11
98.192820323027505
 21
111.8939897384009
 31
0.0
  0
LINE
  5
54B2
  8
2
 10
98.192820323027505
 20
111.8939897384009
 30
0.0
 11
98.192820323013137
 21
111.6418439776988
 31
0.0
  0
LINE
  5
54B3
  8
2
 10
98.192820323013137
 20
111.6418439776988
 30
0.0
 11
97.846410161513717
 21
111.2850000000001
 31
0.0
  0
LINE
  5
54B4
  8
2
 10
97.846410161513717
 20
111.2850000000001
 30
0.0
 11
97.846410161516104
 21
110.715
 31
0.0
  0
LINE
  5
54B5
  8
2
 10
97.846410161516104
 20
110.715
 30
0.0
 11
98.192820323027505
 21
110.3581560223012
 31
0.0
  0
LINE
  5
54B6
  8
2
 10
98.192820323027505
 20
110.3581560223012
 30
0.0
 11
98.19282032298733
 21
110.106010261599
 31
0.0
  0
LINE
  5
54B7
  8
2
 10
98.19282032298733
 20
110.106010261599
 30
0.0
 11
97.846410161513717
 21
109.6523018795414
 31
0.0
  0
LINE
  5
54B8
  8
2
 10
97.846410161513717
 20
109.6523018795414
 30
0.0
 11
97.846410161500316
 21
109.09007593660181
 31
0.0
  0
LINE
  5
54B9
  8
2
 10
97.846410161500316
 20
109.09007593660181
 30
0.0
 11
98.192820323027505
 21
108.83983013675071
 31
0.0
  0
LINE
  5
54BA
  8
2
 10
98.192820323027505
 20
108.83983013675071
 30
0.0
 11
98.192820323082486
 21
108.5945622551055
 31
0.0
  0
LINE
  5
54BB
  8
2
 10
98.192820323082486
 20
108.5945622551055
 30
0.0
 11
97.846410161513717
 21
108.0563654506221
 31
0.0
  0
LINE
  5
54BC
  8
2
 10
97.846410161513717
 20
108.0563654506221
 30
0.0
 11
97.846410161508032
 21
107.5172496228527
 31
0.0
  0
LINE
  5
54BD
  8
2
 10
97.846410161508032
 20
107.5172496228527
 30
0.0
 11
98.192820323027505
 21
107.3804280539271
 31
0.0
  0
LINE
  5
54BE
  8
2
 10
98.192820323027505
 20
107.3804280539271
 30
0.0
 11
98.192820323020825
 21
107.1487283197846
 31
0.0
  0
LINE
  5
54BF
  8
2
 10
98.192820323020825
 20
107.1487283197846
 30
0.0
 11
97.846410161513717
 21
106.54072369872721
 31
0.0
  0
LINE
  5
54C0
  8
2
 10
97.846410161513717
 20
106.54072369872721
 30
0.0
 11
97.846410161512352
 21
106.0394236605395
 31
0.0
  0
LINE
  5
54C1
  8
2
 10
97.846410161512352
 20
106.0394236605395
 30
0.0
 11
97.892598183048875
 21
106.0368301672905
 31
0.0
  0
POLYLINE
  5
54C2
  8
2
 66
     1
 10
0.0
 20
0.0
 30
0.0
  0
VERTEX
  5
57C9
  8
2
 10
97.892598183048875
 20
106.0368301672905
 30
0.0
  0
VERTEX
  5
57CA
  8
2
 10
97.840439865214805
 20
105.807494287221
 30
0.0
  0
VERTEX
  5
57CB
  8
2
 10
97.794925430135251
 20
105.57998369261681
 30
0.0
  0
VERTEX
  5
57CC
  8
2
 10
97.75534838568521
 20
105.3496473255708
 30
0.0
  0
VERTEX
  5
57CD
  8
2
 10
97.723309284604596
 20
105.1246660428581
 30
0.0
  0
VERTEX
  5
57CE
  8
2
 10
97.701704728143312
 20
104.9342289811141
 30
0.0
  0
VERTEX
  5
57CF
  8
2
 10
97.686100050712454
 20
104.7503414041679
 30
0.0
  0
VERTEX
  5
57D0
  8
2
 10
97.676437998506543
 20
104.56997778402381
 30
0.0
  0
VERTEX
  5
57D1
  8
2
 10
97.673205080756844
 20
104.3987832901898
 30
0.0
  0
SEQEND
  5
57D2
  8
2
  0
LINE
  5
54C3
  8
2
 10
97.673205080756844
 20
104.3987832901898
 30
0.0
 11
97.673205080756347
 21
103.2101266038529
 31
0.0
  0
POLYLINE
  5
54C4
  8
2
 66
     1
 10
0.0
 20
0.0
 30
0.0
  0
VERTEX
  5
57D3
  8
2
 10
97.673205080756844
 20
103.2101266038529
 30
0.0
  0
VERTEX
  5
57D4
  8
2
 10
97.676959497470335
 20
103.06566031020211
 30
0.0
  0
VERTEX
  5
57D5
  8
2
 10
97.688173293460665
 20
102.9362145731241
 30
0.0
  0
VERTEX
  5
57D6
  8
2
 10
97.707469477845137
 20
102.8195711855689
 30
0.0
  0
VERTEX
  5
57D7
  8
2
 10
97.734474226039623
 20
102.7204925892862
 30
0.0
  0
VERTEX
  5
57D8
  8
2
 10
97.767934311876417
 20
102.641678488645
 30
0.0
  0
VERTEX
  5
57D9
  8
2
 10
97.808304262001954
 20
102.5802579269313
 30
0.0
  0
VERTEX
  5
57DA
  8
2
 10
97.85676849563319
 20
102.5354828682879
 30
0.0
  0
VERTEX
  5
57DB
  8
2
 10
97.912009607007889
 20
102.5092098642962
 30
0.0
  0
VERTEX
  5
57DC
  8
2
 10
97.969636748809165
 20
102.5012659281425
 30
0.0
  0
SEQEND
  5
57DD
  8
2
  0
LINE
  5
54C5
  8
2
 10
97.846410161513717
 20
102.05208479275061
 30
0.0
 11
97.846410161508203
 21
101.82311840069831
 31
0.0
  0
LINE
  5
54C6
  8
2
 10
97.846410161508203
 20
101.82311840069831
 30
0.0
 11
98.192820323027505
 21
102.2457895672872
 31
0.0
  0
LINE
  5
54C7
  8
2
 10
98.192820323027505
 20
102.2457895672872
 30
0.0
 11
98.192820323029295
 21
102.16363738125909
 31
0.0
  0
LINE
  5
54C8
  8
2
 10
98.192820323029295
 20
102.16363738125909
 30
0.0
 11
97.846410161513717
 21
101.4768782995739
 31
0.0
  0
LINE
  5
54C9
  8
2
 10
97.846410161513717
 20
101.4768782995739
 30
0.0
 11
97.846410161497232
 21
101.3369515719036
 31
0.0
  0
LINE
  5
54CA
  8
2
 10
98.192820323027505
 20
101.8485106181916
 30
0.0
 11
98.19282032303542
 21
101.8068665544267
 31
0.0
  0
LINE
  5
54CB
  8
2
 10
98.192820323079928
 20
120.2999999999092
 30
0.0
 11
97.499999999999986
 21
121.5
 31
0.0
  0
LINE
  5
54CC
  8
2
 10
97.499999999999986
 20
100.5
 30
0.0
 11
98.192820322990855
 21
101.69999999993659
 31
0.0
  0
LINE
  5
54CD
  8
0
 10
97.499999999999986
 20
99.500000000000043
 30
0.0
 11
110.9999999999999
 21
99.500000000000043
 31
0.0
  0
LINE
  5
54CE
  8
0
 10
110.9999999999999
 20
122.5
 30
0.0
 11
97.499999999999986
 21
122.5
 31
0.0
  0
LINE
  5
54CF
  8
0
 10
110.9999999999999
 20
122.5
 30
0.0
 11
110.9999999999999
 21
99.500000000000043
 31
0.0
  0
LINE
  5
54D0
  8
0
 10
97.499999999999986
 20
122.5
 30
0.0
 11
97.499999999999986
 21
99.500000000000043
 31
0.0
  0
LINE
  5
54D1
  8
2
 10
110.9999999999999
 20
113.0
 30
0.0
 11
107.0
 21
113.0
 31
0.0
  0
LINE
  5
54D2
  8
2
 10
110.9999999999999
 20
109.0
 30
0.0
 11
107.0
 21
109.0
 31
0.0
  0
LINE
  5
54D3
  8
2
 10
110.9999999999999
 20
112.5
 30
0.0
 11
107.0
 21
112.5
 31
0.0
  0
LINE
  5
54D4
  8
2
 10
110.9999999999999
 20
109.5
 30
0.0
 11
107.0
 21
109.5
 31
0.0
  0
LINE
  5
54D5
  8
1
 10
94.500000000000014
 20
111.0
 30
0.0
 11
114.0
 21
111.0000000000001
 31
0.0
  0
LINE
  5
54D6
  8
1
 10
105.4999999999999
 20
105.0
 30
0.0
 11
112.5
 21
105.0
 31
0.0
  0
LINE
  5
54D7
  8
1
 10
105.4999999999999
 20
117.0
 30
0.0
 11
112.5
 21
117.0
 31
0.0
  0
LINE
  5
54D8
  8
2
 10
40.104103123011043
 20
61.000000000000028
 30
0.0
 11
40.104103123011043
 21
63.153589838486219
 31
0.0
  0
LINE
  5
54D9
  8
2
 10
40.099999999999987
 20
63.153589838486219
 30
0.0
 11
40.099999999999987
 21
61.000000000000028
 31
0.0
  0
LINE
  5
54DA
  8
2
 10
59.895896876988949
 20
60.999999999999972
 30
0.0
 11
59.895896876988949
 21
63.153589838485317
 31
0.0
  0
LINE
  5
54DB
  8
2
 10
59.899999999999977
 20
60.999999999999972
 30
0.0
 11
59.899999999999977
 21
63.15358983848617
 31
0.0
  0
LINE
  5
54DC
  8
2
 10
59.277824977239618
 20
60.999999999999972
 30
0.0
 11
59.277824977239618
 21
62.807179676972417
 31
0.0
  0
LINE
  5
54DD
  8
2
 10
40.722175022760347
 20
61.000000000000028
 30
0.0
 11
40.722175022760347
 21
62.807179676986863
 31
0.0
  0
LINE
  5
54DE
  8
2
 10
54.770499999999963
 20
53.999999999999979
 30
0.0
 11
54.770499999999977
 21
49.999999999999993
 31
0.0
  0
LINE
  5
54DF
  8
2
 10
57.229499999999973
 20
49.999999999999972
 30
0.0
 11
57.229499999999973
 21
53.999999999999979
 31
0.0
  0
LINE
  5
54E0
  8
2
 10
42.77049999999997
 20
54.000000000000028
 30
0.0
 11
42.770499999999977
 21
50.000000000000007
 31
0.0
  0
LINE
  5
54E1
  8
2
 10
45.229499999999973
 20
50.0
 30
0.0
 11
45.229499999999973
 21
54.000000000000021
 31
0.0
  0
LINE
  5
54E2
  8
2
 10
40.192160799844231
 20
61.000000000000028
 30
0.0
 11
40.192160799844231
 21
63.153589838479569
 31
0.0
  0
LINE
  5
54E3
  8
2
 10
40.743068416174083
 20
61.000000000000028
 30
0.0
 11
40.743068416174083
 21
62.807179676972417
 31
0.0
  0
LINE
  5
54E4
  8
2
 10
59.807839200155769
 20
60.999999999999972
 30
0.0
 11
59.807839200155769
 21
63.15358983848617
 31
0.0
  0
LINE
  5
54E5
  8
2
 10
59.256931583825917
 20
60.999999999999972
 30
0.0
 11
59.256931583825917
 21
62.807179677048538
 31
0.0
  0
LINE
  5
54F2
  8
2
 10
48.378999999999976
 20
54.0
 30
0.0
 11
48.378999999999991
 21
50.0
 31
0.0
  0
LINE
  5
54F3
  8
2
 10
51.620999999999981
 20
50.0
 30
0.0
 11
51.620999999999981
 21
53.999999999999993
 31
0.0
  0
LINE
  5
54F4
  8
2
 10
40.28597971630424
 20
61.000000000000028
 30
0.0
 11
40.28597971630424
 21
63.153589838486219
 31
0.0
  0
LINE
  5
54F5
  8
2
 10
59.714020283695731
 20
60.999999999999972
 30
0.0
 11
59.714020283695731
 21
63.153589838473152
 31
0.0
  0
LINE
  5
54FC
  8
2
 10
40.954356509241038
 20
61.000000000000028
 30
0.0
 11
40.954356509241038
 21
62.807179676984248
 31
0.0
  0
LINE
  5
54FD
  8
2
 10
59.04564349075892
 20
60.999999999999972
 30
0.0
 11
59.04564349075892
 21
62.807179676972417
 31
0.0
  0
LINE
  5
54FE
  8
2
 10
40.547750762929013
 20
61.000000000000028
 30
0.0
 11
40.547750762929013
 21
63.153589838486958
 31
0.0
  0
LINE
  5
54FF
  8
2
 10
41.016466772174901
 20
61.000000000000028
 30
0.0
 11
41.016466772174901
 21
62.807179676972417
 31
0.0
  0
LINE
  5
5500
  8
2
 10
59.45224923707093
 20
60.999999999999972
 30
0.0
 11
59.45224923707093
 21
63.15358983848617
 31
0.0
  0
LINE
  5
5501
  8
2
 10
58.983533227825063
 20
60.999999999999972
 30
0.0
 11
58.983533227825063
 21
62.80717967698402
 31
0.0
  0
LINE
  5
5502
  8
2
 10
40.732829460375683
 20
61.000000000000028
 30
0.0
 11
40.732829460375683
 21
63.153589838486219
 31
0.0
  0
LINE
  5
5503
  8
2
 10
59.267170539624288
 20
60.999999999999972
 30
0.0
 11
59.267170539624288
 21
63.153589838498512
 31
0.0
  0
LINE
  5
5504
  8
2
 10
41.433279569916969
 20
61.000000000000028
 30
0.0
 11
41.433279569916969
 21
62.807179676969753
 31
0.0
  0
LINE
  5
5505
  8
2
 10
58.566720430083024
 20
60.999999999999972
 30
0.0
 11
58.566720430083024
 21
62.807179676972417
 31
0.0
  0
LINE
  5
5506
  8
2
 10
41.16117344502635
 20
61.000000000000028
 30
0.0
 11
41.16117344502635
 21
63.153589838492188
 31
0.0
  0
LINE
  5
5507
  8
2
 10
41.534912496307491
 20
61.000000000000028
 30
0.0
 11
41.534912496307491
 21
62.807179676972417
 31
0.0
  0
LINE
  5
5508
  8
2
 10
58.838826554973622
 20
60.999999999999972
 30
0.0
 11
58.838826554973622
 21
63.15358983848617
 31
0.0
  0
LINE
  5
5509
  8
2
 10
58.465087503692473
 20
60.999999999999972
 30
0.0
 11
58.465087503692473
 21
62.807179677015739
 31
0.0
  0
LINE
  5
550A
  8
2
 10
41.43246345905748
 20
61.000000000000028
 30
0.0
 11
41.43246345905748
 21
63.153589838486219
 31
0.0
  0
LINE
  5
550B
  8
2
 10
58.567536540942513
 20
60.999999999999972
 30
0.0
 11
58.567536540942513
 21
63.153589838489523
 31
0.0
  0
LINE
  5
550C
  8
2
 10
41.526550571834257
 20
61.000000000000028
 30
0.0
 11
41.526550571834257
 21
63.107401816951061
 31
0.0
  0
LINE
  5
550D
  8
2
 10
58.473449428165729
 20
60.999999999999972
 30
0.0
 11
58.473449428165729
 21
63.107401816951011
 31
0.0
  0
LINE
  5
550E
  8
2
 10
48.5
 20
54.000000000000028
 30
0.0
 11
48.5
 21
50.000000000000028
 31
0.0
  0
LINE
  5
550F
  8
2
 10
51.5
 20
50.000000000000028
 30
0.0
 11
51.5
 21
54.000000000000028
 31
0.0
  0
LINE
  5
5510
  8
2
 10
54.288243380315173
 20
61.000000000000028
 30
0.0
 11
54.288243380315173
 21
62.922649730810377
 31
0.0
  0
LINE
  5
5511
  8
2
 10
45.71175661968482
 20
61.000000000000028
 30
0.0
 11
45.71175661968482
 21
62.922649730810377
 31
0.0
  0
LINE
  5
5512
  8
2
 10
47.10022489318245
 20
61.000000000000028
 30
0.0
 11
47.10022489318245
 21
62.807179676972417
 31
0.0
  0
LINE
  5
5513
  8
2
 10
46.860923750562499
 20
61.000000000000028
 30
0.0
 11
46.860923750562499
 21
62.80717967691308
 31
0.0
  0
LINE
  5
5514
  8
2
 10
52.899775106817508
 20
61.000000000000028
 30
0.0
 11
52.899775106817508
 21
62.807179676938212
 31
0.0
  0
LINE
  5
5515
  8
2
 10
53.139076249437437
 20
61.000000000000028
 30
0.0
 11
53.139076249437437
 21
62.807179676972417
 31
0.0
  0
LINE
  5
5516
  8
2
 10
45.763868103579192
 20
61.000000000000028
 30
0.0
 11
45.763868103579192
 21
63.153589838498561
 31
0.0
  0
LINE
  5
5517
  8
2
 10
54.236131896420773
 20
61.000000000000028
 30
0.0
 11
54.236131896420773
 21
63.153589838486219
 31
0.0
  0
LINE
  5
5518
  8
2
 10
59.099999999999959
 20
53.999999999999972
 30
0.0
 11
40.899999999999977
 21
54.000000000000028
 31
0.0
  0
LINE
  5
5519
  8
2
 10
40.899999999999977
 20
59.010000000000019
 30
0.0
 11
40.899999999999977
 21
54.000000000000028
 31
0.0
  0
LINE
  5
551A
  8
2
 10
59.099999999999959
 20
53.999999999999972
 30
0.0
 11
59.099999999999959
 21
59.010000000000019
 31
0.0
  0
LINE
  5
551B
  8
2
 10
46.285858899772592
 20
61.000000000000028
 30
0.0
 11
46.285858899772592
 21
63.153589838486219
 31
0.0
  0
LINE
  5
551C
  8
2
 10
53.71414110022738
 20
61.000000000000028
 30
0.0
 11
53.71414110022738
 21
63.153589838482191
 31
0.0
  0
LINE
  5
551D
  8
2
 10
51.405808469131642
 20
61.000000000000028
 30
0.0
 11
51.405808469131642
 21
62.807179676970833
 31
0.0
  0
LINE
  5
551E
  8
2
 10
51.655367661471949
 20
61.000000000000028
 30
0.0
 11
51.655367661471949
 21
62.807179676972417
 31
0.0
  0
LINE
  5
551F
  8
2
 10
48.594191530868322
 20
61.000000000000028
 30
0.0
 11
48.594191530868322
 21
62.807179676972417
 31
0.0
  0
LINE
  5
5520
  8
2
 10
48.344632338528008
 20
61.000000000000028
 30
0.0
 11
48.344632338528008
 21
62.807179676970037
 31
0.0
  0
LINE
  5
5521
  8
2
 10
50.126504958922943
 20
61.000000000000028
 30
0.0
 11
50.126504958922943
 21
62.807179676972417
 31
0.0
  0
LINE
  5
5522
  8
2
 10
49.873495041077042
 20
61.000000000000028
 30
0.0
 11
49.873495041077042
 21
62.807179677043941
 31
0.0
  0
LINE
  5
5523
  8
2
 10
52.705578141335451
 20
61.000000000000028
 30
0.0
 11
52.705578141335451
 21
63.153589838486219
 31
0.0
  0
LINE
  5
5524
  8
2
 10
47.294421858664521
 20
61.000000000000028
 30
0.0
 11
47.294421858664521
 21
63.153589838491619
 31
0.0
  0
LINE
  5
5525
  8
2
 10
47.846980010249922
 20
61.000000000000028
 30
0.0
 11
47.846980010249922
 21
63.153589838486219
 31
0.0
  0
LINE
  5
5526
  8
2
 10
52.153019989750021
 20
61.000000000000028
 30
0.0
 11
52.153019989750021
 21
63.153589838490319
 31
0.0
  0
LINE
  5
5527
  8
2
 10
51.101223267470353
 20
61.000000000000028
 30
0.0
 11
51.101223267470353
 21
63.153589838486219
 31
0.0
  0
LINE
  5
5528
  8
2
 10
48.898776732529647
 20
61.000000000000028
 30
0.0
 11
48.898776732529647
 21
63.153589838467532
 31
0.0
  0
LINE
  5
5529
  8
2
 10
49.466829893543427
 20
61.000000000000028
 30
0.0
 11
49.466829893543427
 21
63.153589838486219
 31
0.0
  0
LINE
  5
552A
  8
2
 10
50.533170106456531
 20
61.000000000000028
 30
0.0
 11
50.533170106456531
 21
63.1535898384885
 31
0.0
  0
LINE
  5
552B
  8
2
 10
59.099999999999959
 20
59.010000000000019
 30
0.0
 11
40.899999999999977
 21
59.010000000000019
 31
0.0
  0
LINE
  5
552C
  8
2
 10
59.099999999999959
 20
59.010000000000019
 30
0.0
 11
60.199999999999989
 21
59.645085296108533
 31
0.0
  0
LINE
  5
552D
  8
2
 10
39.79999999999999
 20
59.64508529610859
 30
0.0
 11
40.899999999999977
 21
59.010000000000019
 31
0.0
  0
LINE
  5
552E
  8
2
 10
56.584669470602392
 20
60.999999999999972
 30
0.0
 11
43.415330629213543
 21
61.000000000000028
 31
0.0
  0
LINE
  5
552F
  8
2
 10
56.584669470602392
 20
60.999999999999972
 30
0.0
 11
56.584669470602392
 21
63.326794919243092
 31
0.0
  0
LINE
  5
5530
  8
2
 10
57.775856091140177
 20
60.999999999999972
 30
0.0
 11
57.775856091140177
 21
63.326794919243092
 31
0.0
  0
LINE
  5
5531
  8
2
 10
42.224143542182041
 20
61.000000000000028
 30
0.0
 11
39.79999999999999
 21
61.000000000000028
 31
0.0
  0
LINE
  5
5532
  8
2
 10
42.224143542182041
 20
61.000000000000028
 30
0.0
 11
42.224143542182041
 21
63.326794919243213
 31
0.0
  0
LINE
  5
5533
  8
2
 10
43.415330629213543
 20
61.000000000000028
 30
0.0
 11
43.415330629213543
 21
63.326794919243092
 31
0.0
  0
LINE
  5
5534
  8
2
 10
60.199999999999989
 20
59.645085296108533
 30
0.0
 11
39.79999999999999
 21
59.64508529610859
 31
0.0
  0
LINE
  5
5535
  8
2
 10
39.79999999999999
 20
61.000000000000028
 30
0.0
 11
39.79999999999999
 21
59.64508529610859
 31
0.0
  0
LINE
  5
5536
  8
2
 10
60.199999999999989
 20
59.645085296108533
 30
0.0
 11
60.199999999999989
 21
60.999999999999972
 31
0.0
  0
LINE
  5
5537
  8
2
 10
60.199999999999989
 20
60.999999999999972
 30
0.0
 11
57.775856091140177
 21
60.999999999999972
 31
0.0
  0
LINE
  5
5538
  8
2
 10
50.126504958922943
 20
62.807179677050293
 30
0.0
 11
50.533170106456559
 21
63.153589838486219
 31
0.0
  0
LINE
  5
5539
  8
2
 10
53.139076249437437
 20
62.80717967696048
 30
0.0
 11
53.71414110022738
 21
63.153589838486219
 31
0.0
  0
LINE
  5
553A
  8
2
 10
59.45224923707093
 20
63.153589838494298
 30
0.0
 11
58.983533227825063
 21
62.807179676972417
 31
0.0
  0
LINE
  5
553B
  8
2
 10
59.04564349075892
 20
62.807179676953552
 30
0.0
 11
59.714020283695731
 21
63.15358983848617
 31
0.0
  0
LINE
  5
553C
  8
2
 10
59.895896876988949
 20
63.153589838485317
 30
0.0
 11
59.277824977239618
 21
62.807179676972417
 31
0.0
  0
LINE
  5
553D
  8
2
 10
59.277824977239618
 20
62.807179676972417
 30
0.0
 11
59.256931583825917
 21
62.807179677048538
 31
0.0
  0
LINE
  5
553E
  8
2
 10
59.256931583825917
 20
62.807179677048538
 30
0.0
 11
59.807839200155769
 21
63.15358983848617
 31
0.0
  0
LINE
  5
553F
  8
2
 10
59.807839200155769
 20
63.15358983848617
 30
0.0
 11
59.714020283695731
 21
63.153589838473152
 31
0.0
  0
LINE
  5
5540
  8
2
 10
59.04564349075892
 20
62.807179676972417
 30
0.0
 11
58.983533227825063
 21
62.80717967698402
 31
0.0
  0
LINE
  5
5541
  8
2
 10
59.45224923707093
 20
63.15358983848617
 30
0.0
 11
59.267170539624288
 21
63.153589838498512
 31
0.0
  0
LINE
  5
5542
  8
2
 10
59.267170539624288
 20
63.153589838498512
 30
0.0
 11
58.566720430083024
 21
62.807179676972417
 31
0.0
  0
LINE
  5
5543
  8
2
 10
58.566720430083024
 20
62.807179676972417
 30
0.0
 11
58.465087503692473
 21
62.807179677015739
 31
0.0
  0
LINE
  5
5544
  8
2
 10
58.465087503692473
 20
62.807179677015739
 30
0.0
 11
58.838826554973622
 21
63.15358983848617
 31
0.0
  0
LINE
  5
5545
  8
2
 10
58.838826554973622
 20
63.15358983848617
 30
0.0
 11
58.567536540942513
 21
63.153589838489523
 31
0.0
  0
LINE
  5
5546
  8
2
 10
58.567536540942513
 20
63.153589838489523
 30
0.0
 11
58.473449428165729
 21
63.107401816951011
 31
0.0
  0
POLYLINE
  5
5547
  8
2
 66
     1
 10
0.0
 20
0.0
 30
0.0
  0
VERTEX
  5
57DE
  8
2
 10
58.473449428165729
 20
63.107401816951011
 30
0.0
  0
VERTEX
  5
57DF
  8
2
 10
58.441127398249357
 20
63.159560134785153
 30
0.0
  0
VERTEX
  5
57E0
  8
2
 10
58.390889335315649
 20
63.205074569864699
 30
0.0
  0
VERTEX
  5
57E1
  8
2
 10
58.320527057660108
 20
63.244651614314733
 30
0.0
  0
VERTEX
  5
57E2
  8
2
 10
58.231500983438558
 20
63.276690715395397
 30
0.0
  0
VERTEX
  5
57E3
  8
2
 10
58.138904055798889
 20
63.298295271856631
 30
0.0
  0
VERTEX
  5
57E4
  8
2
 10
58.03284741026107
 20
63.313899949287503
 30
0.0
  0
VERTEX
  5
57E5
  8
2
 10
57.910783808394001
 20
63.3235620014934
 30
0.0
  0
VERTEX
  5
57E6
  8
2
 10
57.775856091140177
 20
63.326794919243092
 30
0.0
  0
SEQEND
  5
57E7
  8
2
  0
LINE
  5
5548
  8
2
 10
57.775856091140177
 20
63.326794919243092
 30
0.0
 11
56.584669470602392
 21
63.326794919243092
 31
0.0
  0
POLYLINE
  5
5549
  8
2
 66
     1
 10
0.0
 20
0.0
 30
0.0
  0
VERTEX
  5
57E8
  8
2
 10
56.584669470602392
 20
63.326794919243092
 30
0.0
  0
VERTEX
  5
57E9
  8
2
 10
56.399490947556131
 20
63.3230405011399
 30
0.0
  0
VERTEX
  5
57EA
  8
2
 10
56.20380140612383
 20
63.311826703748089
 30
0.0
  0
VERTEX
  5
57EB
  8
2
 10
55.992766726519328
 20
63.292530517915758
 30
0.0
  0
VERTEX
  5
57EC
  8
2
 10
55.77374612591052
 20
63.265525768278593
 30
0.0
  0
VERTEX
  5
57ED
  8
2
 10
55.555007739772627
 20
63.232065681056639
 30
0.0
  0
VERTEX
  5
57EE
  8
2
 10
55.331897031038523
 20
63.191695729567442
 30
0.0
  0
VERTEX
  5
57EF
  8
2
 10
55.099698483817662
 20
63.143231494567907
 30
0.0
  0
VERTEX
  5
57F0
  8
2
 10
54.866177674979546
 20
63.087990381861722
 30
0.0
  0
VERTEX
  5
57F1
  8
2
 10
54.576942493775448
 20
63.010451047273278
 30
0.0
  0
VERTEX
  5
57F2
  8
2
 10
54.288243380315173
 20
62.922649730810377
 30
0.0
  0
SEQEND
  5
57F3
  8
2
  0
LINE
  5
554A
  8
2
 10
54.288243380315173
 20
62.922649730810377
 30
0.0
 11
54.236131896420773
 21
63.153589838486219
 31
0.0
  0
LINE
  5
554B
  8
2
 10
54.236131896420773
 20
63.153589838486219
 30
0.0
 11
53.71414110022738
 21
63.153589838482191
 31
0.0
  0
LINE
  5
554C
  8
2
 10
53.139076249437437
 20
62.807179676972417
 30
0.0
 11
52.899775106817508
 21
62.807179676938212
 31
0.0
  0
LINE
  5
554D
  8
2
 10
52.899775106817508
 20
62.807179676938212
 30
0.0
 11
52.705578141335451
 21
63.153589838486219
 31
0.0
  0
LINE
  5
554E
  8
2
 10
52.705578141335451
 20
63.153589838486219
 30
0.0
 11
52.153019989750021
 21
63.153589838490319
 31
0.0
  0
LINE
  5
554F
  8
2
 10
52.153019989750021
 20
63.153589838490319
 30
0.0
 11
51.655367661471949
 21
62.807179676972417
 31
0.0
  0
LINE
  5
5550
  8
2
 10
51.655367661471949
 20
62.807179676972417
 30
0.0
 11
51.405808469131642
 21
62.807179676970833
 31
0.0
  0
LINE
  5
5551
  8
2
 10
51.405808469131642
 20
62.807179676970833
 30
0.0
 11
51.101223267470353
 21
63.153589838486219
 31
0.0
  0
LINE
  5
5552
  8
2
 10
51.101223267470353
 20
63.153589838486219
 30
0.0
 11
50.533170106456531
 21
63.1535898384885
 31
0.0
  0
LINE
  5
5553
  8
2
 10
50.126504958922943
 20
62.807179676972417
 30
0.0
 11
49.873495041077042
 21
62.807179677043941
 31
0.0
  0
LINE
  5
5554
  8
2
 10
49.873495041077042
 20
62.807179677043941
 30
0.0
 11
49.466829893543427
 21
63.153589838486219
 31
0.0
  0
LINE
  5
5555
  8
2
 10
49.466829893543427
 20
63.153589838486219
 30
0.0
 11
48.898776732529647
 21
63.153589838467532
 31
0.0
  0
LINE
  5
5556
  8
2
 10
48.898776732529647
 20
63.153589838467532
 30
0.0
 11
48.594191530868322
 21
62.807179676972417
 31
0.0
  0
LINE
  5
5557
  8
2
 10
48.594191530868322
 20
62.807179676972417
 30
0.0
 11
48.344632338528008
 21
62.807179676970037
 31
0.0
  0
LINE
  5
5558
  8
2
 10
48.344632338528008
 20
62.807179676970037
 30
0.0
 11
47.846980010249922
 21
63.153589838486219
 31
0.0
  0
LINE
  5
5559
  8
2
 10
47.846980010249922
 20
63.153589838486219
 30
0.0
 11
47.294421858664521
 21
63.153589838491619
 31
0.0
  0
LINE
  5
555A
  8
2
 10
47.294421858664521
 20
63.153589838491619
 30
0.0
 11
47.10022489318245
 21
62.807179676972417
 31
0.0
  0
LINE
  5
555B
  8
2
 10
47.10022489318245
 20
62.807179676972417
 30
0.0
 11
46.860923750562499
 21
62.80717967691308
 31
0.0
  0
LINE
  5
555C
  8
2
 10
46.860923750562499
 20
62.80717967691308
 30
0.0
 11
46.285858899772592
 21
63.153589838486219
 31
0.0
  0
LINE
  5
555D
  8
2
 10
46.285858899772592
 20
63.153589838486219
 30
0.0
 11
45.763868103579192
 21
63.153589838498561
 31
0.0
  0
LINE
  5
555E
  8
2
 10
45.763868103579192
 20
63.153589838498561
 30
0.0
 11
45.71175661968482
 21
62.922649730810377
 31
0.0
  0
POLYLINE
  5
555F
  8
2
 66
     1
 10
0.0
 20
0.0
 30
0.0
  0
VERTEX
  5
57F4
  8
2
 10
45.71175661968482
 20
62.922649730810377
 30
0.0
  0
VERTEX
  5
57F5
  8
2
 10
45.476904333401471
 20
62.994874209820317
 30
0.0
  0
VERTEX
  5
57F6
  8
2
 10
45.239467222349496
 20
63.060848394668227
 30
0.0
  0
VERTEX
  5
57F7
  8
2
 10
44.994387686415898
 20
63.121755588312539
 30
0.0
  0
VERTEX
  5
57F8
  8
2
 10
44.7500480511668
 20
63.17533517836776
 30
0.0
  0
VERTEX
  5
57F9
  8
2
 10
44.514611375704987
 20
63.220129150594431
 30
0.0
  0
VERTEX
  5
57FA
  8
2
 10
44.283454264943138
 20
63.257382481445028
 30
0.0
  0
VERTEX
  5
57FB
  8
2
 10
44.051412658085319
 20
63.287630264851742
 30
0.0
  0
VERTEX
  5
57FC
  8
2
 10
43.827824629278837
 20
63.309387497706354
 30
0.0
  0
VERTEX
  5
57FD
  8
2
 10
43.616373617039763
 20
63.322398746650862
 30
0.0
  0
VERTEX
  5
57FE
  8
2
 10
43.415330629213543
 20
63.326794919243092
 30
0.0
  0
SEQEND
  5
57FF
  8
2
  0
LINE
  5
5560
  8
2
 10
43.415330629213543
 20
63.326794919243092
 30
0.0
 11
42.224143542182041
 21
63.326794919243213
 31
0.0
  0
POLYLINE
  5
5561
  8
2
 66
     1
 10
0.0
 20
0.0
 30
0.0
  0
VERTEX
  5
5800
  8
2
 10
42.224143542182041
 20
63.326794919243213
 30
0.0
  0
VERTEX
  5
5801
  8
2
 10
42.079283952176347
 20
63.323040499928112
 30
0.0
  0
VERTEX
  5
5802
  8
2
 10
41.949422523348908
 20
63.311826708631678
 30
0.0
  0
VERTEX
  5
5803
  8
2
 10
41.832330779045719
 20
63.29253053734314
 30
0.0
  0
VERTEX
  5
5804
  8
2
 10
41.73278678912947
 20
63.265525810125297
 30
0.0
  0
VERTEX
  5
5805
  8
2
 10
41.659468097233137
 20
63.235132144132571
 30
0.0
  0
VERTEX
  5
5806
  8
2
 10
41.60073797606708
 20
63.19891898707445
 30
0.0
  0
VERTEX
  5
5807
  8
2
 10
41.555932869920582
 20
63.156011882333623
 30
0.0
  0
VERTEX
  5
5808
  8
2
 10
41.526550571834257
 20
63.107401816951061
 30
0.0
  0
SEQEND
  5
5809
  8
2
  0
LINE
  5
5562
  8
2
 10
41.526550571834257
 20
63.107401816951061
 30
0.0
 11
41.43246345905748
 21
63.153589838486219
 31
0.0
  0
LINE
  5
5563
  8
2
 10
41.43246345905748
 20
63.153589838486219
 30
0.0
 11
41.16117344502635
 21
63.153589838492188
 31
0.0
  0
LINE
  5
5564
  8
2
 10
41.16117344502635
 20
63.153589838492188
 30
0.0
 11
41.534912496307491
 21
62.807179676972417
 31
0.0
  0
LINE
  5
5565
  8
2
 10
41.534912496307491
 20
62.807179676972417
 30
0.0
 11
41.433279569916969
 21
62.807179676969753
 31
0.0
  0
LINE
  5
5566
  8
2
 10
41.433279569916969
 20
62.807179676969753
 30
0.0
 11
40.732829460375683
 21
63.153589838486219
 31
0.0
  0
LINE
  5
5567
  8
2
 10
40.732829460375683
 20
63.153589838486219
 30
0.0
 11
40.547750762929013
 21
63.153589838486958
 31
0.0
  0
LINE
  5
5568
  8
2
 10
40.547750762929013
 20
63.153589838486958
 30
0.0
 11
41.016466772174901
 21
62.807179676972417
 31
0.0
  0
LINE
  5
5569
  8
2
 10
41.016466772174901
 20
62.807179676972417
 30
0.0
 11
40.954356509241038
 21
62.807179676984248
 31
0.0
  0
LINE
  5
556A
  8
2
 10
40.954356509241038
 20
62.807179676984248
 30
0.0
 11
40.28597971630424
 21
63.153589838486219
 31
0.0
  0
LINE
  5
556B
  8
2
 10
40.28597971630424
 20
63.153589838486219
 30
0.0
 11
40.192160799844231
 21
63.153589838479569
 31
0.0
  0
LINE
  5
556C
  8
2
 10
40.192160799844231
 20
63.153589838479569
 30
0.0
 11
40.743068416174083
 21
62.807179676972417
 31
0.0
  0
LINE
  5
556D
  8
2
 10
40.743068416174083
 20
62.807179676972417
 30
0.0
 11
40.722175022760347
 21
62.807179676986863
 31
0.0
  0
LINE
  5
556E
  8
2
 10
40.104103123011043
 20
63.153589838486219
 30
0.0
 11
40.100000000000989
 21
63.153589838485651
 31
0.0
  0
LINE
  5
556F
  8
2
 10
40.104103123011043
 20
63.153589838483903
 30
0.0
 11
40.722175022760347
 21
62.807179676972417
 31
0.0
  0
LINE
  5
5570
  8
2
 10
59.899999999998272
 20
63.15358983848526
 30
0.0
 11
60.5
 21
63.499999999999972
 31
0.0
  0
LINE
  5
5571
  8
2
 10
39.5
 20
63.500000000000028
 30
0.0
 11
40.100000000000989
 21
63.153589838485651
 31
0.0
  0
LINE
  5
5572
  8
2
 10
59.899999999998272
 20
63.15358983848526
 30
0.0
 11
59.895896876988949
 21
63.153589838485317
 31
0.0
  0
LINE
  5
5573
  8
0
 10
61.5
 20
49.999999999999972
 30
0.0
 11
38.5
 21
50.000000000000028
 31
0.0
  0
LINE
  5
5574
  8
0
 10
61.5
 20
63.499999999999972
 30
0.0
 11
38.5
 21
63.500000000000028
 31
0.0
  0
LINE
  5
5575
  8
0
 10
38.5
 20
63.500000000000028
 30
0.0
 11
38.5
 21
50.000000000000028
 31
0.0
  0
LINE
  5
5576
  8
0
 10
61.5
 20
49.999999999999972
 30
0.0
 11
61.5
 21
63.499999999999972
 31
0.0
  0
LINE
  5
5577
  8
2
 10
48.0
 20
50.000000000000028
 30
0.0
 11
48.0
 21
54.000000000000028
 31
0.0
  0
LINE
  5
5578
  8
2
 10
52.0
 20
50.000000000000028
 30
0.0
 11
52.0
 21
54.000000000000028
 31
0.0
  0
LINE
  5
5579
  8
2
 10
45.499999999999993
 20
50.000000000000028
 30
0.0
 11
45.499999999999993
 21
54.000000000000028
 31
0.0
  0
LINE
  5
557A
  8
2
 10
42.5
 20
50.000000000000028
 30
0.0
 11
42.5
 21
54.000000000000028
 31
0.0
  0
LINE
  5
557B
  8
2
 10
57.5
 20
49.999999999999972
 30
0.0
 11
57.5
 21
53.999999999999972
 31
0.0
  0
LINE
  5
557C
  8
2
 10
54.5
 20
50.000000000000028
 30
0.0
 11
54.5
 21
54.000000000000028
 31
0.0
  0
LINE
  5
55CB
  8
1
 10
50.0
 20
66.500000000000028
 30
0.0
 11
50.000000000000057
 21
47.000000000000021
 31
0.0
  0
LINE
  5
55CC
  8
1
 10
43.999999999999943
 20
55.500000000000028
 30
0.0
 11
44.0
 21
48.500000000000028
 31
0.0
  0
LINE
  5
55CD
  8
1
 10
56.0
 20
55.500000000000028
 30
0.0
 11
55.999999999999943
 21
48.500000000000028
 31
0.0
  0
LINE
  5
55DA
  8
1
 10
44.00000000000005
 20
114.0
 30
0.0
 11
44.00000000000005
 21
108.0
 31
0.0
  0
LINE
  5
55DB
  8
1
 10
56.00000000000005
 20
114.0
 30
0.0
 11
56.00000000000005
 21
108.0
 31
0.0
  0
ENDSEC
  0
EOF
