  0
SECTION
  2
HEADER
  9
$ACADVER
  1
AC1009
  9
$INSBASE
 10
0.0
 20
0.0
 30
0.0
  9
$EXTMIN
 10
0.0
 20
-1.4802182810368341
 30
0.0
  9
$EXTMAX
 10
108.25
 20
118.0
 30
0.0
  9
$LIMMIN
 10
0.0
 20
0.0
  9
$LIMMAX
 10
192.5
 20
135.0
  9
$ORTHOMODE
 70
     1
  9
$REGENMODE
 70
     1
  9
$FILLMODE
 70
     1
  9
$QTEXTMODE
 70
     0
  9
$MIRRTEXT
 70
     0
  9
$DRAGMODE
 70
     2
  9
$LTSCALE
 40
5.0
  9
$OSMODE
 70
    37
  9
$ATTMODE
 70
     1
  9
$TEXTSIZE
 40
1.6000000000000489
  9
$TRACEWID
 40
0.05
  9
$TEXTSTYLE
  7
STANDARD
  9
$CLAYER
  8
0
  9
$CELTYPE
  6
BYLAYER
  9
$CECOLOR
 62
   256
  9
$DIMSCALE
 40
1.0
  9
$DIMASZ
 40
3.0
  9
$DIMEXO
 40
2.0
  9
$DIMDLI
 40
0.38
  9
$DIMRND
 40
0.0
  9
$DIMDLE
 40
0.0
  9
$DIMEXE
 40
2.0
  9
$DIMTP
 40
0.0
  9
$DIMTM
 40
0.0
  9
$DIMTXT
 40
3.0
  9
$DIMCEN
 40
0.0
  9
$DIMTSZ
 40
0.0
  9
$DIMTOL
 70
     0
  9
$DIMLIM
 70
     0
  9
$DIMTIH
 70
     0
  9
$DIMTOH
 70
     0
  9
$DIMSE1
 70
     0
  9
$DIMSE2
 70
     0
  9
$DIMTAD
 70
     1
  9
$DIMZIN
 70
     9
  9
$DIMBLK
  1

  9
$DIMASO
 70
     0
  9
$DIMSHO
 70
     0
  9
$DIMPOST
  1

  9
$DIMAPOST
  1

  9
$DIMALT
 70
     0
  9
$DIMALTD
 70
     2
  9
$DIMALTF
 40
25.399999999999999
  9
$DIMLFAC
 40
1.0
  9
$DIMTOFL
 70
     1
  9
$DIMTVP
 40
1.6000000000000001
  9
$DIMTIX
 70
     1
  9
$DIMSOXD
 70
     0
  9
$DIMSAH
 70
     0
  9
$DIMBLK1
  1

  9
$DIMBLK2
  1

  9
$DIMSTYLE
  2
STANDARD
  9
$DIMCLRD
 70
     0
  9
$DIMCLRE
 70
     0
  9
$DIMCLRT
 70
     0
  9
$DIMTFAC
 40
1.0
  9
$DIMGAP
 40
0.09
  9
$LUNITS
 70
     2
  9
$LUPREC
 70
     1
  9
$SKETCHINC
 40
0.1
  9
$FILLETRAD
 40
0.3
  9
$AUNITS
 70
     0
  9
$AUPREC
 70
     1
  9
$MENU
  1
E:\r13\win\SUPPORT\ACAD
  9
$ELEVATION
 40
0.0
  9
$PELEVATION
 40
0.0
  9
$THICKNESS
 40
0.0
  9
$LIMCHECK
 70
     0
  9
$BLIPMODE
 70
     0
  9
$CHAMFERA
 40
0.0
  9
$CHAMFERB
 40
0.0
  9
$SKPOLY
 70
     0
  9
$TDCREATE
 40
2448328.489641204
  9
$TDUPDATE
 40
2459200.387874051
  9
$TDINDWG
 40
1.1315370602000001
  9
$TDUSRTIMER
 40
2456598.9358035191
  9
$USRTIMER
 70
     1
  9
$ANGBASE
 50
0.0
  9
$ANGDIR
 70
     0
  9
$PDMODE
 70
    35
  9
$PDSIZE
 40
0.0
  9
$PLINEWID
 40
0.0
  9
$COORDS
 70
     1
  9
$SPLFRAME
 70
     0
  9
$SPLINETYPE
 70
     6
  9
$SPLINESEGS
 70
     8
  9
$ATTDIA
 70
     0
  9
$ATTREQ
 70
     1
  9
$HANDLING
 70
     1
  9
$HANDSEED
  5
5E7A
  9
$SURFTAB1
 70
     6
  9
$SURFTAB2
 70
     6
  9
$SURFTYPE
 70
     6
  9
$SURFU
 70
     6
  9
$SURFV
 70
     6
  9
$UCSNAME
  2

  9
$UCSORG
 10
0.0
 20
0.0
 30
0.0
  9
$UCSXDIR
 10
1.0
 20
0.0
 30
0.0
  9
$UCSYDIR
 10
0.0
 20
1.0
 30
0.0
  9
$PUCSNAME
  2

  9
$PUCSORG
 10
0.0
 20
0.0
 30
0.0
  9
$PUCSXDIR
 10
1.0
 20
0.0
 30
0.0
  9
$PUCSYDIR
 10
0.0
 20
1.0
 30
0.0
  9
$USERI1
 70
     3
  9
$USERI2
 70
     1
  9
$USERI3
 70
     1
  9
$USERI4
 70
     0
  9
$USERI5
 70
     0
  9
$USERR1
 40
0.5
  9
$USERR2
 40
3.0
  9
$USERR3
 40
3.0
  9
$USERR4
 40
3.0
  9
$USERR5
 40
10.0
  9
$WORLDVIEW
 70
     1
  9
$SHADEDGE
 70
     3
  9
$SHADEDIF
 70
    70
  9
$TILEMODE
 70
     1
  9
$MAXACTVP
 70
    16
  9
$PLIMCHECK
 70
     0
  9
$PEXTMIN
 10
1.0000000000000000E+020
 20
1.0000000000000000E+020
 30
1.0000000000000000E+020
  9
$PEXTMAX
 10
-1.0000000000000000E+020
 20
-1.0000000000000000E+020
 30
-1.0000000000000000E+020
  9
$PLIMMIN
 10
0.0
 20
0.0
  9
$PLIMMAX
 10
12.0
 20
9.0
  9
$UNITMODE
 70
     0
  9
$VISRETAIN
 70
     0
  9
$PLINEGEN
 70
     1
  9
$PSLTSCALE
 70
     0
  0
ENDSEC
  0
SECTION
  2
TABLES
  0
TABLE
  2
VPORT
 70
     1
  0
VPORT
  2
*ACTIVE
 70
     0
 10
0.0
 20
0.0
 11
1.0
 21
1.0
 12
83.106133302779654
 22
58.257991583423397
 13
0.0
 23
0.0
 14
2.5
 24
2.5
 15
5.0
 25
5.0
 16
0.0
 26
0.0
 36
1.0
 17
0.0
 27
0.0
 37
0.0
 40
120.52224338905241
 41
2.415644171779141
 42
50.0
 43
0.0
 44
0.0
 50
0.0
 51
0.0
 71
     0
 72
   500
 73
     1
 74
     0
 75
     0
 76
     0
 77
     0
 78
     2
  0
ENDTAB
  0
TABLE
  2
LTYPE
 70
     4
  0
LTYPE
  2
CONTINUOUS
 70
     0
  3
Solid Line
 72
    65
 73
     0
 40
0.0
  0
LTYPE
  2
CENTER
 70
     0
  3
____ _ ____ _ ____ _ ____ _ ____ _ ____ _ ____
 72
    65
 73
     4
 40
2.0
 49
1.25
 49
-0.25
 49
0.25
 49
-0.25
  0
LTYPE
  2
HIDDEN
 70
     0
  3
_ _ _ _ _ _ _ _ _ _ _ _ _ _ _ _ _ _ _ _ _ _ _
 72
    65
 73
     2
 40
0.375
 49
0.25
 49
-0.125
  0
LTYPE
  2
PHANTOM2
 70
     0
  3
___ _ _ ___ _ _ ___ _ _ ___ _ _
 72
    65
 73
     6
 40
1.25
 49
0.625
 49
-0.125
 49
0.125
 49
-0.125
 49
0.125
 49
-0.125
  0
ENDTAB
  0
TABLE
  2
LAYER
 70
     5
  0
LAYER
  2
0
 70
     0
 62
     7
  6
CONTINUOUS
  0
LAYER
  2
1
 70
     0
 62
     1
  6
CENTER
  0
LAYER
  2
2
 70
     0
 62
     2
  6
HIDDEN
  0
LAYER
  2
DEFPOINTS
 70
     0
 62
     7
  6
CONTINUOUS
  0
LAYER
  2
3
 70
     0
 62
     3
  6
CONTINUOUS
  0
ENDTAB
  0
TABLE
  2
STYLE
 70
     2
  0
STYLE
  2
STANDARD
 70
     0
 40
0.0
 41
1.0
 50
0.0
 71
     0
 42
1.6000000000000489
  3
SIMPLEX
  4
BIGFONT
  0
STYLE
  2
STANDARD1
 70
     0
 40
0.0
 41
1.0
 50
0.0
 71
     0
 42
3.0
  3
txt
  4

  0
ENDTAB
  0
TABLE
  2
VIEW
 70
     1
  0
VIEW
  2
ALL
 70
     0
 40
87.5
 10
71.617647058823522
 20
43.75
 41
0.0
 11
0.0
 21
0.0
 31
1.0
 12
0.0
 22
0.0
 32
0.0
 42
50.0
 43
0.0
 44
0.0
 50
0.0
 71
     0
  0
ENDTAB
  0
TABLE
  2
UCS
 70
     0
  0
ENDTAB
  0
TABLE
  2
APPID
 70
     7
  0
APPID
  2
ACAD
 70
     0
  0
APPID
  2
ACAD_EXEMPT_FROM_CAD_STANDARDS
 70
     0
  0
APPID
  2
ACAD_DSTYLE_DIMJAG
 70
     0
  0
APPID
  2
ACAD_DSTYLE_DIMTALN
 70
     0
  0
APPID
  2
ACAD_MLEADERVER
 70
     0
  0
APPID
  2
ACAD_NAV_VCDISPLAY
 70
     0
  0
APPID
  2
ACAD_DSTYLE_DIMRADIAL_EXTENSION
 70
     0
  0
ENDTAB
  0
TABLE
  2
DIMSTYLE
 70
     2
  0
DIMSTYLE
  2
STANDARD
 70
     0
  3

  4

  5

  6

  7

 40
1.0
 41
0.18
 42
0.0625
 43
0.38
 44
0.18
 45
0.0
 46
0.0
 47
0.0
 48
0.0
140
0.18
141
0.09
142
0.0
143
25.399999999999999
144
1.0
145
0.0
146
1.0
147
0.09
 71
     0
 72
     0
 73
     1
 74
     1
 75
     0
 76
     0
 77
     0
 78
     0
170
     0
171
     2
172
     0
173
     0
174
     0
175
     0
176
     0
177
     0
178
     0
  0
DIMSTYLE
  2
ISO-25
 70
     0
  3

  4

  5

  6

  7

 40
1.0
 41
2.5
 42
0.625
 43
3.75
 44
1.25
 45
0.0
 46
0.0
 47
0.0
 48
0.0
140
2.5
141
2.5
142
0.0
143
0.03937007874016
144
1.0
145
0.0
146
1.0
147
0.625
 71
     0
 72
     0
 73
     0
 74
     0
 75
     0
 76
     0
 77
     1
 78
     8
170
     0
171
     3
172
     1
173
     0
174
     0
175
     0
176
     0
177
     0
178
     0
  0
ENDTAB
  0
ENDSEC
  0
SECTION
  2
BLOCKS
  0
BLOCK
  8
0
  2
$MODEL_SPACE
 70
     0
 10
0.0
 20
0.0
 30
0.0
  3
$MODEL_SPACE
  1

  0
ENDBLK
  5
BAB
  8
0
  0
BLOCK
 67
     1
  8
0
  2
$PAPER_SPACE
 70
     0
 10
0.0
 20
0.0
 30
0.0
  3
$PAPER_SPACE
  1

  0
ENDBLK
  5
BA9
 67
     1
  8
0
  0
ENDSEC
  0
SECTION
  2
ENTITIES
  0
TEXT
  5
2813
  8
0
 62
     3
 10
0.0
 20
0.0
 30
0.0
 40
5.0
  1
RLES2338EHT
  7
STANDARD1
  0
LINE
  5
598A
  8
0
 10
102.75
 20
114.98298812519771
 30
0.0
 11
104.75
 21
114.98298812519771
 31
0.0
  0
LINE
  5
598B
  8
0
 10
102.75
 20
95.517011874802236
 30
0.0
 11
104.75
 21
95.517011874802236
 31
0.0
  0
LINE
  5
598C
  8
0
 10
102.75
 20
114.98298812519771
 30
0.0
 11
102.75
 21
114.9450016262805
 31
0.0
  0
LINE
  5
598D
  8
0
 10
102.75
 20
114.98298812519771
 30
0.0
 11
102.25
 21
114.4969201768649
 31
0.0
  0
LINE
  5
598E
  8
0
 10
102.75
 20
95.554998373719513
 30
0.0
 11
102.75
 21
95.517011874802236
 31
0.0
  0
LINE
  5
598F
  8
0
 10
102.25
 20
96.003079823135067
 30
0.0
 11
102.75
 21
95.517011874802236
 31
0.0
  0
LINE
  5
5990
  8
0
 10
102.75
 20
114.9450016262805
 30
0.0
 11
104.75
 21
114.9450016262805
 31
0.0
  0
LINE
  5
5991
  8
0
 10
102.25
 20
114.41008936469809
 30
0.0
 11
102.75
 21
114.9450016262805
 31
0.0
  0
LINE
  5
5992
  8
0
 10
102.75
 20
95.554998373719513
 30
0.0
 11
104.75
 21
95.554998373719513
 31
0.0
  0
LINE
  5
5993
  8
0
 10
102.75
 20
95.554998373719513
 30
0.0
 11
102.25
 21
96.089910635301905
 31
0.0
  0
LINE
  5
5994
  8
2
 10
95.750000000000014
 20
97.75
 30
0.0
 11
105.25
 21
97.75
 31
0.0
  0
LINE
  5
5995
  8
2
 10
105.25
 20
100.75
 30
0.0
 11
95.750000000000014
 21
100.75
 31
0.0
  0
LINE
  5
5996
  8
2
 10
95.750000000000014
 20
109.75
 30
0.0
 11
105.25
 21
109.75
 31
0.0
  0
LINE
  5
5997
  8
2
 10
105.25
 20
112.75
 30
0.0
 11
95.750000000000014
 21
112.75
 31
0.0
  0
LINE
  5
59A4
  8
0
 10
102.75
 20
114.755484080066
 30
0.0
 11
104.75
 21
114.755484080066
 31
0.0
  0
LINE
  5
59A5
  8
0
 10
102.75
 20
95.744515919933946
 30
0.0
 11
104.75
 21
95.744515919933946
 31
0.0
  0
LINE
  5
59A6
  8
0
 10
102.75
 20
114.755484080066
 30
0.0
 11
102.75
 21
114.64256075598129
 31
0.0
  0
LINE
  5
59A7
  8
0
 10
102.75
 20
114.755484080066
 30
0.0
 11
102.25
 21
114.33151911152871
 31
0.0
  0
LINE
  5
59A8
  8
0
 10
102.75
 20
95.857439244018707
 30
0.0
 11
102.75
 21
95.744515919933946
 31
0.0
  0
LINE
  5
59A9
  8
0
 10
102.25
 20
96.168480888471237
 30
0.0
 11
102.75
 21
95.744515919933946
 31
0.0
  0
LINE
  5
59AA
  8
0
 10
102.75
 20
114.64256075598129
 30
0.0
 11
104.75
 21
114.64256075598129
 31
0.0
  0
LINE
  5
59AB
  8
0
 10
102.25
 20
114.0733951932331
 30
0.0
 11
102.75
 21
114.64256075598129
 31
0.0
  0
LINE
  5
59AC
  8
0
 10
102.75
 20
95.857439244018707
 30
0.0
 11
104.75
 21
95.857439244018707
 31
0.0
  0
LINE
  5
59AD
  8
0
 10
102.75
 20
95.857439244018707
 30
0.0
 11
102.25
 21
96.426604806766875
 31
0.0
  0
LINE
  5
59B2
  8
2
 10
95.750000000000014
 20
101.55
 30
0.0
 11
99.250000000000043
 21
101.55
 31
0.0
  0
LINE
  5
59B3
  8
2
 10
99.250000000000043
 20
108.95
 30
0.0
 11
95.750000000000014
 21
108.95
 31
0.0
  0
LINE
  5
59B5
  8
0
 10
102.75
 20
114.2686952081778
 30
0.0
 11
104.75
 21
114.2686952081778
 31
0.0
  0
LINE
  5
59B6
  8
0
 10
102.75
 20
96.231304791822168
 30
0.0
 11
104.75
 21
96.231304791822168
 31
0.0
  0
LINE
  5
59B7
  8
0
 10
102.75
 20
114.2686952081778
 30
0.0
 11
102.75
 21
114.08391531283741
 31
0.0
  0
LINE
  5
59B8
  8
0
 10
102.75
 20
114.2686952081778
 30
0.0
 11
102.25
 21
113.91839787858351
 31
0.0
  0
LINE
  5
59B9
  8
0
 10
102.75
 20
96.416084687162538
 30
0.0
 11
102.75
 21
96.231304791822168
 31
0.0
  0
LINE
  5
59BA
  8
0
 10
102.25
 20
96.581602121416466
 30
0.0
 11
102.75
 21
96.231304791822168
 31
0.0
  0
LINE
  5
59BB
  8
0
 10
102.75
 20
114.08391531283741
 30
0.0
 11
104.75
 21
114.08391531283741
 31
0.0
  0
LINE
  5
59BC
  8
0
 10
102.25
 20
113.49602180177141
 30
0.0
 11
102.75
 21
114.08391531283741
 31
0.0
  0
LINE
  5
59BD
  8
0
 10
102.75
 20
96.416084687162538
 30
0.0
 11
104.75
 21
96.416084687162538
 31
0.0
  0
LINE
  5
59BE
  8
0
 10
102.75
 20
96.416084687162538
 30
0.0
 11
102.25
 21
97.003978198228594
 31
0.0
  0
LINE
  5
59C1
  8
0
 10
102.25
 20
113.3170925227259
 30
0.0
 11
102.3403627559271
 21
113.3170925227259
 31
0.0
  0
LINE
  5
59C4
  8
0
 10
102.25
 20
97.182907477274028
 30
0.0
 11
102.3403627559271
 21
97.182907477274028
 31
0.0
  0
LINE
  5
59C5
  8
0
 10
102.75
 20
113.5358998409943
 30
0.0
 11
104.75
 21
113.5358998409943
 31
0.0
  0
LINE
  5
59C6
  8
0
 10
102.75
 20
113.5358998409943
 30
0.0
 11
102.75
 21
113.28430368825791
 31
0.0
  0
LINE
  5
59C7
  8
0
 10
102.75
 20
113.5358998409943
 30
0.0
 11
102.25
 21
113.2688253483373
 31
0.0
  0
LINE
  5
59C8
  8
0
 10
102.75
 20
113.28430368825791
 30
0.0
 11
104.75
 21
113.28430368825791
 31
0.0
  0
LINE
  5
59C9
  8
0
 10
102.25
 20
112.6937184313319
 30
0.0
 11
102.75
 21
113.28430368825791
 31
0.0
  0
LINE
  5
59CA
  8
0
 10
102.75
 20
96.964100159005753
 30
0.0
 11
104.75
 21
96.964100159005753
 31
0.0
  0
LINE
  5
59CB
  8
0
 10
102.75
 20
97.215696311742036
 30
0.0
 11
104.75
 21
97.215696311742036
 31
0.0
  0
LINE
  5
59CC
  8
0
 10
102.75
 20
97.215696311742036
 30
0.0
 11
102.75
 21
96.964100159005753
 31
0.0
  0
LINE
  5
59CD
  8
0
 10
102.75
 20
97.215696311742036
 30
0.0
 11
102.25
 21
97.80628156866814
 31
0.0
  0
LINE
  5
59CE
  8
0
 10
102.25
 20
97.231174651662656
 30
0.0
 11
102.75
 21
96.964100159005753
 31
0.0
  0
LINE
  5
59D1
  8
0
 10
102.25
 20
112.5139699016279
 30
0.0
 11
102.57126620031799
 21
112.5139699016279
 31
0.0
  0
LINE
  5
59D4
  8
0
 10
102.25
 20
97.986030098372154
 30
0.0
 11
102.57126620031799
 21
97.986030098372154
 31
0.0
  0
LINE
  5
59D5
  8
0
 10
102.75
 20
112.57708672587719
 30
0.0
 11
104.75
 21
112.57708672587719
 31
0.0
  0
LINE
  5
59D6
  8
0
 10
102.75
 20
112.57708672587719
 30
0.0
 11
102.75
 21
112.26553720292939
 31
0.0
  0
LINE
  5
59D7
  8
0
 10
102.75
 20
112.57708672587719
 30
0.0
 11
102.25
 21
112.40052016610611
 31
0.0
  0
LINE
  5
59D8
  8
0
 10
102.75
 20
112.26553720292939
 30
0.0
 11
104.75
 21
112.26553720292939
 31
0.0
  0
LINE
  5
59D9
  8
0
 10
102.25
 20
111.6883698264113
 30
0.0
 11
102.75
 21
112.26553720292939
 31
0.0
  0
LINE
  5
59DA
  8
0
 10
102.75
 20
98.234462797070634
 30
0.0
 11
104.75
 21
98.234462797070591
 31
0.0
  0
LINE
  5
59DB
  8
0
 10
102.75
 20
97.922913274122791
 30
0.0
 11
104.75
 21
97.922913274122791
 31
0.0
  0
LINE
  5
59DC
  8
0
 10
102.75
 20
98.234462797070634
 30
0.0
 11
102.75
 21
97.922913274122791
 31
0.0
  0
LINE
  5
59DD
  8
0
 10
102.75
 20
98.234462797070634
 30
0.0
 11
102.25
 21
98.811630173588668
 31
0.0
  0
LINE
  5
59DE
  8
0
 10
102.25
 20
98.099479833893895
 30
0.0
 11
102.75
 21
97.922913274122791
 31
0.0
  0
LINE
  5
59E0
  8
0
 10
102.25
 20
111.51270511736961
 30
0.0
 11
104.75
 21
111.51270511736961
 31
0.0
  0
LINE
  5
59E2
  8
0
 10
102.25
 20
98.987294882630366
 30
0.0
 11
104.75
 21
98.987294882630366
 31
0.0
  0
LINE
  5
59E3
  8
2
 10
95.750000000000014
 20
104.0205
 30
0.0
 11
105.25
 21
104.0205
 31
0.0
  0
LINE
  5
59E4
  8
2
 10
105.25
 20
106.4795
 30
0.0
 11
95.750000000000014
 21
106.4795
 31
0.0
  0
LINE
  5
59EB
  8
0
 10
102.75
 20
111.4184097851678
 30
0.0
 11
102.25
 21
111.3371674337584
 31
0.0
  0
LINE
  5
59EC
  8
0
 10
102.25
 20
110.3406100631634
 30
0.0
 11
104.75
 21
110.3406100631634
 31
0.0
  0
LINE
  5
59ED
  8
0
 10
102.25
 20
110.5073992762038
 30
0.0
 11
102.75
 21
111.0554051508455
 31
0.0
  0
LINE
  5
59EE
  8
0
 10
102.75
 20
111.4184097851678
 30
0.0
 11
104.75
 21
111.4184097851678
 31
0.0
  0
LINE
  5
59EF
  8
0
 10
102.75
 20
111.4184097851678
 30
0.0
 11
102.75
 21
111.0554051508455
 31
0.0
  0
LINE
  5
59F0
  8
0
 10
102.75
 20
111.0554051508455
 30
0.0
 11
104.75
 21
111.0554051508455
 31
0.0
  0
LINE
  5
59F1
  8
0
 10
102.25
 20
100.1593899368366
 30
0.0
 11
104.75
 21
100.1593899368366
 31
0.0
  0
LINE
  5
59F2
  8
0
 10
102.75
 20
99.444594849154527
 30
0.0
 11
102.25
 21
99.992600723796158
 31
0.0
  0
LINE
  5
59F3
  8
0
 10
102.25
 20
99.162832566241633
 30
0.0
 11
102.75
 21
99.081590214832204
 31
0.0
  0
LINE
  5
59F4
  8
0
 10
102.75
 20
99.444594849154527
 30
0.0
 11
104.75
 21
99.444594849154527
 31
0.0
  0
LINE
  5
59F5
  8
0
 10
102.75
 20
99.444594849154527
 30
0.0
 11
102.75
 21
99.081590214832204
 31
0.0
  0
LINE
  5
59F6
  8
0
 10
102.75
 20
99.081590214832204
 30
0.0
 11
104.75
 21
99.081590214832204
 31
0.0
  0
LINE
  5
59F7
  8
0
 10
102.25
 20
110.1127330266693
 30
0.0
 11
104.75
 21
110.1127330266693
 31
0.0
  0
LINE
  5
59F8
  8
0
 10
102.25
 20
100.3872669733306
 30
0.0
 11
104.75
 21
100.3872669733306
 31
0.0
  0
LINE
  5
59F9
  8
0
 10
102.75
 20
110.0914747053632
 30
0.0
 11
102.25
 21
110.1077726418789
 31
0.0
  0
LINE
  5
59FA
  8
0
 10
102.75
 20
110.0914747053632
 30
0.0
 11
104.75
 21
110.0914747053632
 31
0.0
  0
LINE
  5
59FB
  8
0
 10
102.75
 20
110.0914747053632
 30
0.0
 11
102.75
 21
109.6869167798083
 31
0.0
  0
LINE
  5
59FC
  8
0
 10
102.25
 20
109.029656436664
 30
0.0
 11
104.75
 21
109.029656436664
 31
0.0
  0
LINE
  5
59FD
  8
0
 10
102.75
 20
109.6869167798083
 30
0.0
 11
104.75
 21
109.6869167798083
 31
0.0
  0
LINE
  5
59FE
  8
0
 10
102.25
 20
109.1830205787585
 30
0.0
 11
102.75
 21
109.6869167798083
 31
0.0
  0
LINE
  5
59FF
  8
0
 10
102.25
 20
101.4703435633359
 30
0.0
 11
104.75
 21
101.4703435633359
 31
0.0
  0
LINE
  5
5A00
  8
0
 10
102.75
 20
100.8130832201917
 30
0.0
 11
104.75
 21
100.8130832201917
 31
0.0
  0
LINE
  5
5A01
  8
0
 10
102.75
 20
100.4085252946367
 30
0.0
 11
104.75
 21
100.4085252946367
 31
0.0
  0
LINE
  5
5A02
  8
0
 10
102.75
 20
100.8130832201917
 30
0.0
 11
102.75
 21
100.4085252946367
 31
0.0
  0
LINE
  5
5A03
  8
0
 10
102.75
 20
100.8130832201917
 30
0.0
 11
102.25
 21
101.3169794212414
 31
0.0
  0
LINE
  5
5A04
  8
0
 10
102.25
 20
100.392227358121
 30
0.0
 11
102.75
 21
100.4085252946367
 31
0.0
  0
LINE
  5
5A05
  8
0
 10
95.750000000000014
 20
96.877350269189634
 30
0.0
 11
96.75
 21
96.299999999999983
 31
0.0
  0
LINE
  5
5A06
  8
0
 10
96.75
 20
114.2
 30
0.0
 11
95.750000000000014
 21
113.62264973081029
 31
0.0
  0
LINE
  5
5A07
  8
0
 10
95.750000000000014
 20
113.62264973081029
 30
0.0
 11
95.750000000000014
 21
96.877350269189634
 31
0.0
  0
LINE
  5
5A08
  8
0
 10
96.75
 20
96.299999999999983
 30
0.0
 11
102.25
 21
96.299999999999983
 31
0.0
  0
LINE
  5
5A09
  8
0
 10
102.25
 20
114.2
 30
0.0
 11
96.75
 21
114.2
 31
0.0
  0
LINE
  5
5A0A
  8
0
 10
96.75
 20
114.2
 30
0.0
 11
96.75
 21
96.299999999999983
 31
0.0
  0
LINE
  5
5A0B
  8
0
 10
104.75
 20
96.25
 30
0.0
 11
105.25
 21
96.25
 31
0.0
  0
LINE
  5
5A0C
  8
0
 10
105.25
 20
114.25
 30
0.0
 11
104.75
 21
114.25
 31
0.0
  0
LINE
  5
5A0D
  8
0
 10
105.25
 20
114.25
 30
0.0
 11
105.25
 21
96.25
 31
0.0
  0
LINE
  5
5A0E
  8
0
 10
102.25
 20
108.7803825858864
 30
0.0
 11
104.75
 21
108.7803825858864
 31
0.0
  0
LINE
  5
5A0F
  8
0
 10
102.25
 20
101.7196174141135
 30
0.0
 11
104.75
 21
101.7196174141135
 31
0.0
  0
LINE
  5
5A10
  8
0
 10
102.75
 20
108.6324768163789
 30
0.0
 11
104.75
 21
108.6324768163789
 31
0.0
  0
LINE
  5
5A11
  8
0
 10
102.75
 20
108.6324768163789
 30
0.0
 11
102.75
 21
108.1974008851967
 31
0.0
  0
LINE
  5
5A12
  8
0
 10
102.75
 20
108.6324768163789
 30
0.0
 11
102.25
 21
108.7458704755972
 31
0.0
  0
LINE
  5
5A13
  8
0
 10
102.25
 20
107.6156036354015
 30
0.0
 11
104.75
 21
107.6156036354015
 31
0.0
  0
LINE
  5
5A14
  8
0
 10
102.75
 20
108.1974008851967
 30
0.0
 11
104.75
 21
108.1974008851967
 31
0.0
  0
LINE
  5
5A15
  8
0
 10
102.25
 20
107.7513593325442
 30
0.0
 11
102.75
 21
108.1974008851967
 31
0.0
  0
LINE
  5
5A16
  8
0
 10
102.25
 20
101.7541295244028
 30
0.0
 11
102.75
 21
101.867523183621
 31
0.0
  0
LINE
  5
5A17
  8
0
 10
102.75
 20
102.3025991148033
 30
0.0
 11
102.75
 21
101.867523183621
 31
0.0
  0
LINE
  5
5A18
  8
0
 10
102.75
 20
101.867523183621
 30
0.0
 11
104.75
 21
101.867523183621
 31
0.0
  0
LINE
  5
5A19
  8
0
 10
102.75
 20
102.3025991148033
 30
0.0
 11
104.75
 21
102.3025991148033
 31
0.0
  0
LINE
  5
5A1A
  8
0
 10
102.25
 20
102.8843963645985
 30
0.0
 11
104.75
 21
102.8843963645985
 31
0.0
  0
LINE
  5
5A1B
  8
0
 10
102.75
 20
102.3025991148033
 30
0.0
 11
102.25
 21
102.7486406674558
 31
0.0
  0
LINE
  5
5A1C
  8
0
 10
102.25
 20
107.3517325111811
 30
0.0
 11
104.75
 21
107.3517325111811
 31
0.0
  0
LINE
  5
5A1D
  8
0
 10
102.25
 20
103.1482674888189
 30
0.0
 11
104.75
 21
103.1482674888189
 31
0.0
  0
LINE
  5
5A1E
  8
0
 10
102.75
 20
107.08121377730291
 30
0.0
 11
102.25
 21
107.2886100757954
 31
0.0
  0
LINE
  5
5A1F
  8
0
 10
102.75
 20
107.08121377730291
 30
0.0
 11
104.75
 21
107.08121377730291
 31
0.0
  0
LINE
  5
5A20
  8
0
 10
102.75
 20
107.08121377730291
 30
0.0
 11
102.75
 21
106.6274875777376
 31
0.0
  0
LINE
  5
5A21
  8
0
 10
102.25
 20
96.003079823135067
 30
0.0
 11
102.25
 21
114.4969201768649
 31
0.0
  0
LINE
  5
5A22
  8
0
 10
102.25
 20
106.13702333363361
 30
0.0
 11
104.75
 21
106.13702333363361
 31
0.0
  0
LINE
  5
5A23
  8
0
 10
102.75
 20
106.6274875777376
 30
0.0
 11
104.75
 21
106.6274875777376
 31
0.0
  0
LINE
  5
5A24
  8
0
 10
102.25
 20
106.25146752429509
 30
0.0
 11
102.75
 21
106.6274875777376
 31
0.0
  0
LINE
  5
5A25
  8
0
 10
102.25
 20
104.36297666636629
 30
0.0
 11
104.75
 21
104.36297666636629
 31
0.0
  0
LINE
  5
5A26
  8
0
 10
102.75
 20
103.8725124222624
 30
0.0
 11
104.75
 21
103.8725124222624
 31
0.0
  0
LINE
  5
5A27
  8
0
 10
102.75
 20
103.41878622269709
 30
0.0
 11
104.75
 21
103.41878622269709
 31
0.0
  0
LINE
  5
5A28
  8
0
 10
102.75
 20
103.8725124222624
 30
0.0
 11
102.75
 21
103.41878622269709
 31
0.0
  0
LINE
  5
5A29
  8
0
 10
102.75
 20
103.8725124222624
 30
0.0
 11
102.25
 21
104.24853247570481
 31
0.0
  0
LINE
  5
5A2A
  8
0
 10
102.25
 20
103.2113899242046
 30
0.0
 11
102.75
 21
103.41878622269709
 31
0.0
  0
LINE
  5
5A2B
  8
0
 10
102.25
 20
104.6342473476215
 30
0.0
 11
104.75
 21
104.6342473476215
 31
0.0
  0
LINE
  5
5A2C
  8
0
 10
104.75
 20
114.98298812519771
 30
0.0
 11
104.75
 21
95.517011874802236
 31
0.0
  0
LINE
  5
5A2D
  8
0
 10
102.25
 20
105.8657526523785
 30
0.0
 11
104.75
 21
105.8657526523785
 31
0.0
  0
LINE
  5
5A2E
  8
0
 10
102.75
 20
105.48
 30
0.0
 11
102.25
 21
105.77574170738571
 31
0.0
  0
LINE
  5
5A2F
  8
0
 10
102.25
 20
104.72425829261429
 30
0.0
 11
102.75
 21
105.02
 31
0.0
  0
LINE
  5
5A30
  8
0
 10
102.75
 20
105.48
 30
0.0
 11
104.75
 21
105.48
 31
0.0
  0
LINE
  5
5A31
  8
0
 10
102.75
 20
105.48
 30
0.0
 11
102.75
 21
105.02
 31
0.0
  0
LINE
  5
5A32
  8
0
 10
102.75
 20
105.02
 30
0.0
 11
104.75
 21
105.02
 31
0.0
  0
LINE
  5
5A33
  8
2
 10
105.25
 20
107.3517325111811
 30
0.0
 11
99.249999999999986
 21
107.3517325111811
 31
0.0
  0
LINE
  5
5A34
  8
2
 10
105.25
 20
103.15000000000001
 30
0.0
 11
99.249999999999986
 21
103.15000000000001
 31
0.0
  0
LINE
  5
5A35
  8
2
 10
105.25
 20
106.75
 30
0.0
 11
95.750000000000014
 21
106.75
 31
0.0
  0
LINE
  5
5A36
  8
2
 10
105.25
 20
103.75
 30
0.0
 11
95.750000000000014
 21
103.75
 31
0.0
  0
LINE
  5
5A3A
  8
0
 10
59.75
 20
50.5
 30
0.0
 11
59.75
 21
52.5
 31
0.0
  0
LINE
  5
5A3B
  8
0
 10
40.25
 20
52.5
 30
0.0
 11
40.25
 21
50.5
 31
0.0
  0
LINE
  5
5A3C
  8
0
 10
59.75
 20
52.5
 30
0.0
 11
59.25
 21
53.0
 31
0.0
  0
LINE
  5
5A3D
  8
0
 10
59.75
 20
52.5
 30
0.0
 11
59.747286801977253
 21
52.5
 31
0.0
  0
LINE
  5
5A3E
  8
0
 10
40.25271319802274
 20
52.5
 30
0.0
 11
40.25
 21
52.5
 31
0.0
  0
LINE
  5
5A3F
  8
0
 10
40.75
 20
53.0
 30
0.0
 11
40.25
 21
52.5
 31
0.0
  0
LINE
  5
5A40
  8
0
 10
59.747286801977253
 20
52.5
 30
0.0
 11
59.747286801977253
 21
50.5
 31
0.0
  0
LINE
  5
5A41
  8
0
 10
59.235047138868048
 20
53.0
 30
0.0
 11
59.747286801977253
 21
52.5
 31
0.0
  0
LINE
  5
5A42
  8
0
 10
40.25271319802274
 20
52.5
 30
0.0
 11
40.25271319802274
 21
50.5
 31
0.0
  0
LINE
  5
5A43
  8
0
 10
40.25271319802274
 20
52.5
 30
0.0
 11
40.764952861131938
 21
53.0
 31
0.0
  0
LINE
  5
5A48
  8
2
 10
54.770500000000013
 20
59.5
 30
0.0
 11
54.770500000000013
 21
50.0
 31
0.0
  0
LINE
  5
5A49
  8
2
 10
57.229499999999987
 20
50.0
 30
0.0
 11
57.229499999999987
 21
59.5
 31
0.0
  0
LINE
  5
5A4A
  8
2
 10
42.770499999999998
 20
59.5
 30
0.0
 11
42.770499999999998
 21
50.0
 31
0.0
  0
LINE
  5
5A4B
  8
2
 10
45.229500000000002
 20
50.0
 30
0.0
 11
45.229500000000002
 21
59.5
 31
0.0
  0
LINE
  5
5A5A
  8
0
 10
59.652203270402993
 20
52.5
 30
0.0
 11
59.652203270402993
 21
50.5
 31
0.0
  0
LINE
  5
5A5B
  8
0
 10
40.347796729597
 20
52.5
 30
0.0
 11
40.347796729597
 21
50.5
 31
0.0
  0
LINE
  5
5A62
  8
0
 10
59.652203270402993
 20
52.5
 30
0.0
 11
59.576489758873862
 21
52.5
 31
0.0
  0
LINE
  5
5A63
  8
0
 10
59.652203270402993
 20
52.5
 30
0.0
 11
59.195627373800107
 21
53.0
 31
0.0
  0
LINE
  5
5A64
  8
0
 10
40.42351024112611
 20
52.5
 30
0.0
 11
40.347796729597
 21
52.5
 31
0.0
  0
LINE
  5
5A65
  8
0
 10
40.804372626199893
 20
53.0
 30
0.0
 11
40.347796729597
 21
52.5
 31
0.0
  0
LINE
  5
5A66
  8
0
 10
59.576489758873862
 20
52.5
 30
0.0
 11
59.576489758873862
 21
50.5
 31
0.0
  0
LINE
  5
5A67
  8
0
 10
59.022558891958852
 20
53.0
 30
0.0
 11
59.576489758873862
 21
52.5
 31
0.0
  0
LINE
  5
5A68
  8
0
 10
40.42351024112611
 20
52.5
 30
0.0
 11
40.42351024112611
 21
50.5
 31
0.0
  0
LINE
  5
5A69
  8
0
 10
40.42351024112611
 20
52.5
 30
0.0
 11
40.977441108041141
 21
53.0
 31
0.0
  0
LINE
  5
5A6F
  8
2
 10
46.300000000000011
 20
59.5
 30
0.0
 11
46.30000000000004
 21
55.999999999999993
 31
0.0
  0
LINE
  5
5A70
  8
2
 10
53.699999999999989
 20
55.999999999999993
 30
0.0
 11
53.699999999999989
 21
59.5
 31
0.0
  0
LINE
  5
5A71
  8
0
 10
59.293832795028209
 20
52.5
 30
0.0
 11
59.293832795028209
 21
50.5
 31
0.0
  0
LINE
  5
5A72
  8
0
 10
40.706167204971791
 20
52.5
 30
0.0
 11
40.706167204971791
 21
50.5
 31
0.0
  0
LINE
  5
5A73
  8
0
 10
59.293832795028209
 20
52.5
 30
0.0
 11
59.144471039194059
 21
52.5
 31
0.0
  0
LINE
  5
5A74
  8
0
 10
59.293832795028209
 20
52.5
 30
0.0
 11
58.905374865186417
 21
53.0
 31
0.0
  0
LINE
  5
5A75
  8
0
 10
40.855528960805941
 20
52.5
 30
0.0
 11
40.706167204971791
 21
52.5
 31
0.0
  0
LINE
  5
5A76
  8
0
 10
41.094625134813583
 20
53.0
 30
0.0
 11
40.706167204971791
 21
52.5
 31
0.0
  0
LINE
  5
5A78
  8
0
 10
59.144471039194059
 20
52.5
 30
0.0
 11
59.144471039194059
 21
50.5
 31
0.0
  0
LINE
  5
5A79
  8
0
 10
58.563958758532628
 20
53.0
 30
0.0
 11
59.144471039194059
 21
52.5
 31
0.0
  0
LINE
  5
5A7B
  8
0
 10
40.855528960805941
 20
52.5
 30
0.0
 11
40.855528960805941
 21
50.5
 31
0.0
  0
LINE
  5
5A7C
  8
0
 10
40.855528960805941
 20
52.5
 30
0.0
 11
41.436041241467358
 21
53.0
 31
0.0
  0
LINE
  5
5A7F
  8
0
 10
58.387276005788152
 20
53.0
 30
0.0
 11
58.387276005788152
 21
52.975674962909402
 31
0.0
  0
LINE
  5
5A82
  8
0
 10
41.612723994211848
 20
53.0
 30
0.0
 11
41.612723994211848
 21
52.975674962909402
 31
0.0
  0
LINE
  5
5A83
  8
0
 10
58.681950788218948
 20
52.5
 30
0.0
 11
58.681950788218948
 21
50.5
 31
0.0
  0
LINE
  5
5A84
  8
0
 10
41.318049211781037
 20
52.5
 30
0.0
 11
41.318049211781037
 21
50.5
 31
0.0
  0
LINE
  5
5A85
  8
0
 10
58.681950788218948
 20
52.5
 30
0.0
 11
58.463014987421921
 21
52.5
 31
0.0
  0
LINE
  5
5A86
  8
0
 10
58.681950788218948
 20
52.5
 30
0.0
 11
58.372206944830111
 21
53.0
 31
0.0
  0
LINE
  5
5A87
  8
0
 10
41.536985012578093
 20
52.5
 30
0.0
 11
41.318049211781037
 21
52.5
 31
0.0
  0
LINE
  5
5A88
  8
0
 10
41.627793055169889
 20
53.0
 30
0.0
 11
41.318049211781037
 21
52.5
 31
0.0
  0
LINE
  5
5A89
  8
0
 10
58.463014987421921
 20
52.5
 30
0.0
 11
58.463014987421921
 21
50.5
 31
0.0
  0
LINE
  5
5A8A
  8
0
 10
57.87175615474797
 20
53.0
 30
0.0
 11
58.463014987421921
 21
52.5
 31
0.0
  0
LINE
  5
5A8B
  8
0
 10
41.536985012578093
 20
52.5
 30
0.0
 11
41.536985012578093
 21
50.5
 31
0.0
  0
LINE
  5
5A8C
  8
0
 10
41.536985012578093
 20
52.5
 30
0.0
 11
42.12824384525203
 21
53.0
 31
0.0
  0
LINE
  5
5A8F
  8
0
 10
57.691802617809373
 20
53.0
 30
0.0
 11
57.691802617809373
 21
52.817739015556249
 31
0.0
  0
LINE
  5
5A92
  8
0
 10
42.308197382190627
 20
53.0
 30
0.0
 11
42.308197382190627
 21
52.817739015556249
 31
0.0
  0
LINE
  5
5A93
  8
0
 10
57.833247796063688
 20
52.5
 30
0.0
 11
57.833247796063688
 21
50.5
 31
0.0
  0
LINE
  5
5A95
  8
0
 10
57.550709948226491
 20
52.5
 30
0.0
 11
57.550709948226491
 21
50.5
 31
0.0
  0
LINE
  5
5A96
  8
0
 10
57.833247796063688
 20
52.5
 30
0.0
 11
57.550709948226491
 21
52.5
 31
0.0
  0
LINE
  5
5A97
  8
0
 10
57.833247796063688
 20
52.5
 30
0.0
 11
57.610667043733521
 21
53.0
 31
0.0
  0
LINE
  5
5A98
  8
0
 10
56.964832563198598
 20
53.0
 30
0.0
 11
57.550709948226491
 21
52.5
 31
0.0
  0
LINE
  5
5A99
  8
0
 10
42.389332956266479
 20
53.0
 30
0.0
 11
42.166752203936312
 21
52.5
 31
0.0
  0
LINE
  5
5A9B
  8
0
 10
42.449290051773538
 20
52.5
 30
0.0
 11
43.03516743680143
 21
53.0
 31
0.0
  0
LINE
  5
5A9C
  8
0
 10
42.449290051773538
 20
52.5
 30
0.0
 11
42.449290051773538
 21
50.5
 31
0.0
  0
LINE
  5
5A9D
  8
0
 10
42.449290051773538
 20
52.5
 30
0.0
 11
42.166752203936312
 21
52.5
 31
0.0
  0
LINE
  5
5A9E
  8
0
 10
42.166752203936312
 20
52.5
 30
0.0
 11
42.166752203936312
 21
50.5
 31
0.0
  0
LINE
  5
5AA0
  8
0
 10
56.786516905449673
 20
53.0
 30
0.0
 11
56.786516905449673
 21
50.5
 31
0.0
  0
LINE
  5
5AA2
  8
0
 10
43.21348309455032
 20
53.0
 30
0.0
 11
43.21348309455032
 21
50.5
 31
0.0
  0
LINE
  5
5AA5
  8
0
 10
56.770874223784801
 20
52.5
 30
0.0
 11
56.641527985212122
 21
53.0
 31
0.0
  0
LINE
  5
5AA6
  8
0
 10
56.770874223784801
 20
52.5
 30
0.0
 11
56.770874223784801
 21
50.5
 31
0.0
  0
LINE
  5
5AA7
  8
0
 10
56.770874223784801
 20
52.5
 30
0.0
 11
56.432441224875191
 21
52.5
 31
0.0
  0
LINE
  5
5AA8
  8
0
 10
55.696112703038551
 20
53.0
 30
0.0
 11
55.696112703038551
 21
50.5
 31
0.0
  0
LINE
  5
5AA9
  8
0
 10
56.432441224875191
 20
52.5
 30
0.0
 11
56.432441224875191
 21
50.5
 31
0.0
  0
LINE
  5
5AAA
  8
0
 10
55.8679264952886
 20
53.0
 30
0.0
 11
56.432441224875191
 21
52.5
 31
0.0
  0
LINE
  5
5AAB
  8
0
 10
43.229125776215199
 20
52.5
 30
0.0
 11
43.229125776215199
 21
50.5
 31
0.0
  0
LINE
  5
5AAC
  8
0
 10
43.567558775124809
 20
52.5
 30
0.0
 11
43.567558775124809
 21
50.5
 31
0.0
  0
LINE
  5
5AAD
  8
0
 10
44.303887296961449
 20
53.0
 30
0.0
 11
44.303887296961449
 21
50.5
 31
0.0
  0
LINE
  5
5AAE
  8
0
 10
43.567558775124809
 20
52.5
 30
0.0
 11
43.229125776215199
 21
52.5
 31
0.0
  0
LINE
  5
5AAF
  8
0
 10
43.567558775124809
 20
52.5
 30
0.0
 11
44.132073504711393
 21
53.0
 31
0.0
  0
LINE
  5
5AB0
  8
0
 10
43.358472014787871
 20
53.0
 30
0.0
 11
43.229125776215199
 21
52.5
 31
0.0
  0
LINE
  5
5AB1
  8
2
 10
48.5
 20
59.5
 30
0.0
 11
48.5
 21
50.0
 31
0.0
  0
LINE
  5
5AB2
  8
2
 10
51.5
 20
50.0
 30
0.0
 11
51.5
 21
59.5
 31
0.0
  0
LINE
  5
5AB3
  8
0
 10
54.450333394746139
 20
53.0
 30
0.0
 11
54.450333394746139
 21
50.5
 31
0.0
  0
LINE
  5
5AB4
  8
0
 10
55.523808853032868
 20
52.5
 30
0.0
 11
55.491225356425467
 21
53.0
 31
0.0
  0
LINE
  5
5AB5
  8
0
 10
54.61095868912988
 20
53.0
 30
0.0
 11
55.13871227303212
 21
52.5
 31
0.0
  0
LINE
  5
5AB6
  8
0
 10
55.523808853032868
 20
52.5
 30
0.0
 11
55.523808853032868
 21
50.5
 31
0.0
  0
LINE
  5
5AB7
  8
0
 10
55.523808853032868
 20
52.5
 30
0.0
 11
55.13871227303212
 21
52.5
 31
0.0
  0
LINE
  5
5AB8
  8
0
 10
55.13871227303212
 20
52.5
 30
0.0
 11
55.13871227303212
 21
50.5
 31
0.0
  0
LINE
  5
5AB9
  8
0
 10
45.549666605253861
 20
53.0
 30
0.0
 11
45.549666605253861
 21
50.5
 31
0.0
  0
LINE
  5
5ABA
  8
0
 10
44.861287726967873
 20
52.5
 30
0.0
 11
45.389041310870141
 21
53.0
 31
0.0
  0
LINE
  5
5ABB
  8
0
 10
44.508774643574533
 20
53.0
 30
0.0
 11
44.476191146967132
 21
52.5
 31
0.0
  0
LINE
  5
5ABC
  8
0
 10
44.861287726967873
 20
52.5
 30
0.0
 11
44.861287726967873
 21
50.5
 31
0.0
  0
LINE
  5
5ABD
  8
0
 10
44.861287726967873
 20
52.5
 30
0.0
 11
44.476191146967132
 21
52.5
 31
0.0
  0
LINE
  5
5ABE
  8
0
 10
44.476191146967132
 20
52.5
 30
0.0
 11
44.476191146967132
 21
50.5
 31
0.0
  0
LINE
  5
5ABF
  8
0
 10
54.210940302328993
 20
53.0
 30
0.0
 11
54.210940302328993
 21
50.5
 31
0.0
  0
LINE
  5
5AC0
  8
0
 10
45.789059697671007
 20
53.0
 30
0.0
 11
45.789059697671007
 21
50.5
 31
0.0
  0
LINE
  5
5AC1
  8
0
 10
58.372649730810373
 20
59.5
 30
0.0
 11
41.627350269189627
 21
59.5
 31
0.0
  0
LINE
  5
5AC2
  8
0
 10
41.627350269189627
 20
59.5
 30
0.0
 11
41.050000000000011
 21
58.5
 31
0.0
  0
LINE
  5
5AC3
  8
0
 10
58.950000000000017
 20
58.5
 30
0.0
 11
58.372649730810373
 21
59.5
 31
0.0
  0
LINE
  5
5AC4
  8
0
 10
58.950000000000017
 20
58.5
 30
0.0
 11
41.050000000000011
 21
58.5
 31
0.0
  0
LINE
  5
5AC5
  8
0
 10
41.050000000000011
 20
58.5
 30
0.0
 11
41.050000000000011
 21
53.0
 31
0.0
  0
LINE
  5
5AC6
  8
0
 10
58.950000000000017
 20
53.0
 30
0.0
 11
58.950000000000017
 21
58.5
 31
0.0
  0
LINE
  5
5AC7
  8
0
 10
59.0
 20
50.0
 30
0.0
 11
41.0
 21
50.0
 31
0.0
  0
LINE
  5
5AC8
  8
0
 10
41.0
 20
50.5
 30
0.0
 11
41.0
 21
50.0
 31
0.0
  0
LINE
  5
5AC9
  8
0
 10
59.0
 20
50.0
 30
0.0
 11
59.0
 21
50.5
 31
0.0
  0
LINE
  5
5ACA
  8
0
 10
54.126068376265209
 20
52.5
 30
0.0
 11
54.126068376265209
 21
50.5
 31
0.0
  0
LINE
  5
5ACB
  8
0
 10
53.083160592598368
 20
53.0
 30
0.0
 11
53.083160592598368
 21
50.5
 31
0.0
  0
LINE
  5
5ACC
  8
0
 10
53.704812646003887
 20
52.5
 30
0.0
 11
53.704812646003887
 21
50.5
 31
0.0
  0
LINE
  5
5ACD
  8
0
 10
54.126068376265209
 20
52.5
 30
0.0
 11
53.704812646003887
 21
52.5
 31
0.0
  0
LINE
  5
5ACE
  8
0
 10
54.126068376265209
 20
52.5
 30
0.0
 11
54.191136414471721
 21
53.0
 31
0.0
  0
LINE
  5
5ACF
  8
0
 10
53.228215949803911
 20
53.0
 30
0.0
 11
53.704812646003887
 21
52.5
 31
0.0
  0
LINE
  5
5AD0
  8
0
 10
46.916839407401653
 20
53.0
 30
0.0
 11
46.916839407401653
 21
50.5
 31
0.0
  0
LINE
  5
5AD1
  8
0
 10
46.295187353996113
 20
52.5
 30
0.0
 11
46.295187353996113
 21
50.5
 31
0.0
  0
LINE
  5
5AD2
  8
0
 10
45.873931623734819
 20
52.5
 30
0.0
 11
45.873931623734819
 21
50.5
 31
0.0
  0
LINE
  5
5AD3
  8
0
 10
46.295187353996113
 20
52.5
 30
0.0
 11
45.873931623734819
 21
52.5
 31
0.0
  0
LINE
  5
5AD4
  8
0
 10
46.295187353996113
 20
52.5
 30
0.0
 11
46.771784050196118
 21
53.0
 31
0.0
  0
LINE
  5
5AD5
  8
0
 10
45.808863585528307
 20
53.0
 30
0.0
 11
45.873931623734819
 21
52.5
 31
0.0
  0
LINE
  5
5AD6
  8
0
 10
52.82570877662144
 20
53.0
 30
0.0
 11
52.82570877662144
 21
50.5
 31
0.0
  0
LINE
  5
5AD7
  8
0
 10
47.17429122337856
 20
53.0
 30
0.0
 11
47.17429122337856
 21
50.5
 31
0.0
  0
LINE
  5
5AD8
  8
0
 10
52.615779510050508
 20
52.5
 30
0.0
 11
52.77672419660837
 21
53.0
 31
0.0
  0
LINE
  5
5AD9
  8
0
 10
52.615779510050508
 20
52.5
 30
0.0
 11
52.615779510050508
 21
50.5
 31
0.0
  0
LINE
  5
5ADA
  8
0
 10
52.615779510050508
 20
52.5
 30
0.0
 11
52.169855387718428
 21
52.5
 31
0.0
  0
LINE
  5
5ADB
  8
0
 10
51.631887206684347
 20
53.0
 30
0.0
 11
51.631887206684347
 21
50.5
 31
0.0
  0
LINE
  5
5ADC
  8
0
 10
52.169855387718428
 20
52.5
 30
0.0
 11
52.169855387718428
 21
50.5
 31
0.0
  0
LINE
  5
5ADD
  8
0
 10
51.757415894698191
 20
53.0
 30
0.0
 11
52.169855387718428
 21
52.5
 31
0.0
  0
LINE
  5
5ADE
  8
0
 10
47.223275803391651
 20
53.0
 30
0.0
 11
47.384220489949513
 21
52.5
 31
0.0
  0
LINE
  5
5ADF
  8
0
 10
47.830144612281572
 20
52.5
 30
0.0
 11
47.384220489949513
 21
52.5
 31
0.0
  0
LINE
  5
5AE0
  8
0
 10
47.384220489949513
 20
52.5
 30
0.0
 11
47.384220489949513
 21
50.5
 31
0.0
  0
LINE
  5
5AE1
  8
0
 10
47.830144612281572
 20
52.5
 30
0.0
 11
47.830144612281572
 21
50.5
 31
0.0
  0
LINE
  5
5AE2
  8
0
 10
48.368112793315667
 20
53.0
 30
0.0
 11
48.368112793315667
 21
50.5
 31
0.0
  0
LINE
  5
5AE3
  8
0
 10
47.830144612281572
 20
52.5
 30
0.0
 11
48.24258410530183
 21
53.0
 31
0.0
  0
LINE
  5
5AE4
  8
0
 10
48.636600718439347
 20
53.0
 30
0.0
 11
48.636600718439347
 21
50.5
 31
0.0
  0
LINE
  5
5AE5
  8
0
 10
51.363399281560653
 20
53.0
 30
0.0
 11
51.363399281560653
 21
50.5
 31
0.0
  0
LINE
  5
5AE6
  8
0
 10
50.136100191784401
 20
53.0
 30
0.0
 11
50.136100191784401
 21
50.5
 31
0.0
  0
LINE
  5
5AE7
  8
0
 10
51.034138997629917
 20
52.5
 30
0.0
 11
51.286570181041299
 21
53.0
 31
0.0
  0
LINE
  5
5AE8
  8
0
 10
50.238678115226428
 20
53.0
 30
0.0
 11
50.575710130846858
 21
52.5
 31
0.0
  0
LINE
  5
5AE9
  8
0
 10
51.034138997629917
 20
52.5
 30
0.0
 11
51.034138997629917
 21
50.5
 31
0.0
  0
LINE
  5
5AEA
  8
0
 10
51.034138997629917
 20
52.5
 30
0.0
 11
50.575710130846858
 21
52.5
 31
0.0
  0
LINE
  5
5AEB
  8
0
 10
50.575710130846858
 20
52.5
 30
0.0
 11
50.575710130846858
 21
50.5
 31
0.0
  0
LINE
  5
5AEC
  8
0
 10
49.863899808215592
 20
53.0
 30
0.0
 11
49.863899808215592
 21
50.5
 31
0.0
  0
LINE
  5
5AED
  8
0
 10
49.424289869153142
 20
52.5
 30
0.0
 11
49.761321884773572
 21
53.0
 31
0.0
  0
LINE
  5
5AEE
  8
0
 10
59.25
 20
53.0
 30
0.0
 11
40.75
 21
53.0
 31
0.0
  0
LINE
  5
5AEF
  8
0
 10
48.71342981895873
 20
53.0
 30
0.0
 11
48.965861002370097
 21
52.5
 31
0.0
  0
LINE
  5
5AF0
  8
0
 10
59.75
 20
50.5
 30
0.0
 11
40.25
 21
50.5
 31
0.0
  0
LINE
  5
5AF1
  8
0
 10
49.424289869153142
 20
52.5
 30
0.0
 11
49.424289869153142
 21
50.5
 31
0.0
  0
LINE
  5
5AF2
  8
0
 10
49.424289869153142
 20
52.5
 30
0.0
 11
48.965861002370097
 21
52.5
 31
0.0
  0
LINE
  5
5AF3
  8
0
 10
48.965861002370097
 20
52.5
 30
0.0
 11
48.965861002370097
 21
50.5
 31
0.0
  0
LINE
  5
5AF4
  8
2
 10
47.899999999999999
 20
50.0
 30
0.0
 11
47.899999999999999
 21
55.999999999999993
 31
0.0
  0
LINE
  5
5AF5
  8
2
 10
52.100000000000001
 20
50.0
 30
0.0
 11
52.100000000000001
 21
55.999999999999993
 31
0.0
  0
LINE
  5
5AF6
  8
2
 10
45.499999999999993
 20
50.0
 30
0.0
 11
45.499999999999993
 21
59.5
 31
0.0
  0
LINE
  5
5AF7
  8
2
 10
42.5
 20
50.0
 30
0.0
 11
42.5
 21
59.5
 31
0.0
  0
LINE
  5
5AF8
  8
2
 10
57.5
 20
50.0
 30
0.0
 11
57.5
 21
59.5
 31
0.0
  0
LINE
  5
5AF9
  8
2
 10
54.5
 20
50.0
 30
0.0
 11
54.5
 21
59.5
 31
0.0
  0
ARC
  5
5AFD
  8
0
 10
50.000000000009322
 20
105.25
 30
0.0
 40
9.7500000000093152
 50
178.6482818662904
 51
181.35171813370951
  0
LINE
  5
5AFE
  8
0
 10
40.25271319802274
 20
105.02
 30
0.0
 11
40.920856391096748
 21
104.6342473476215
 31
0.0
  0
LINE
  5
5AFF
  8
0
 10
40.920856391096748
 20
105.8657526523785
 30
0.0
 11
40.25271319802274
 21
105.48
 31
0.0
  0
ARC
  5
5B00
  8
0
 10
49.999999999984048
 20
105.2500000000026
 30
0.0
 40
9.7499999999838458
 50
169.17459765576089
 51
171.87803392318591
  0
LINE
  5
5B01
  8
0
 10
40.347796729597
 20
106.6274875777376
 30
0.0
 11
40.94333452060917
 21
106.13702333363361
 31
0.0
  0
LINE
  5
5B02
  8
0
 10
41.146033631674179
 20
107.3517325111811
 30
0.0
 11
40.42351024112611
 21
107.08121377730281
 31
0.0
  0
LINE
  5
5B03
  8
0
 10
42.166752203936312
 20
111.0554051508455
 30
0.0
 11
42.457076880623838
 21
110.3406100631634
 31
0.0
  0
LINE
  5
5B04
  8
0
 10
43.21348309455032
 20
111.3124407866836
 30
0.0
 11
42.449290051773509
 21
111.4184097851678
 31
0.0
  0
ARC
  5
5B05
  8
0
 10
50.000000000005571
 20
105.24999999999559
 30
0.0
 40
9.7500000000070681
 50
140.7535450241852
 51
143.45698129160539
  0
LINE
  5
5B06
  8
0
 10
42.308197382190627
 20
110.1127330266693
 30
0.0
 11
41.536985012578072
 21
110.0914747053632
 31
0.0
  0
LINE
  5
5B07
  8
0
 10
41.318049211781037
 20
109.6869167798083
 30
0.0
 11
41.722065642880239
 21
109.0296564366641
 31
0.0
  0
ARC
  5
5B08
  8
0
 10
50.000000000004938
 20
105.2499999999973
 30
0.0
 40
9.7500000000056151
 50
150.2272292347119
 51
152.93066550213081
  0
LINE
  5
5B09
  8
0
 10
41.612723994211848
 20
108.7803825858864
 30
0.0
 11
40.855528960805941
 21
108.6324768163789
 31
0.0
  0
LINE
  5
5B0A
  8
0
 10
40.706167204971791
 20
108.1974008851967
 30
0.0
 11
41.212854875434523
 21
107.6156036354015
 31
0.0
  0
ARC
  5
5B0B
  8
0
 10
49.999999999999261
 20
105.2500000000002
 30
0.0
 40
9.749999999999245
 50
159.70091344523661
 51
162.40434971265751
  0
LINE
  5
5B0C
  8
0
 10
40.423510241126138
 20
103.41878622269709
 30
0.0
 11
41.146033631674179
 21
103.1482674888189
 31
0.0
  0
ARC
  5
5B0D
  8
0
 10
50.00000000000432
 20
105.2500000000007
 30
0.0
 40
9.7500000000044018
 50
188.12196607681651
 51
190.82540234423661
  0
LINE
  5
5B0E
  8
0
 10
40.94333452060917
 20
104.36297666636629
 30
0.0
 11
40.347796729597
 21
103.8725124222623
 31
0.0
  0
LINE
  5
5B0F
  8
0
 10
41.212854875434523
 20
102.8843963645985
 30
0.0
 11
40.706167204971791
 21
102.3025991148033
 31
0.0
  0
LINE
  5
5B10
  8
0
 10
40.855528960805941
 20
101.867523183621
 30
0.0
 11
41.612723994211848
 21
101.7196174141135
 31
0.0
  0
ARC
  5
5B11
  8
0
 10
49.999999999997272
 20
105.24999999999901
 30
0.0
 40
9.7499999999971152
 50
197.59565028734161
 51
200.29908655476331
  0
ARC
  5
5B12
  8
0
 10
49.999999999994401
 20
105.2499999999969
 30
0.0
 40
9.7499999999936122
 50
207.06933449786669
 51
209.77277076529069
  0
LINE
  5
5B13
  8
0
 10
41.536985012578093
 20
100.4085252946367
 30
0.0
 11
42.308197382190649
 21
100.3872669733306
 31
0.0
  0
LINE
  5
5B14
  8
0
 10
41.722065642880239
 20
101.4703435633359
 30
0.0
 11
41.318049211781037
 21
100.8130832201917
 31
0.0
  0
ARC
  5
5B15
  8
0
 10
49.999999999998657
 20
105.25000000000151
 30
0.0
 40
9.7499999999979394
 50
131.2798608136568
 51
133.98329708108039
  0
LINE
  5
5B16
  8
0
 10
43.229125776215199
 20
112.26553720292939
 30
0.0
 11
43.397839398130941
 21
111.51270511736971
 31
0.0
  0
LINE
  5
5B17
  8
0
 10
44.303887296961449
 20
112.3467809656409
 30
0.0
 11
43.567558775124809
 21
112.57708672587719
 31
0.0
  0
ARC
  5
5B18
  8
0
 10
49.999999999998799
 20
105.2499999999991
 30
0.0
 40
9.7499999999985185
 50
216.5430187083945
 51
219.2464549758167
  0
LINE
  5
5B19
  8
0
 10
42.449290051773573
 20
99.081590214832175
 30
0.0
 11
43.21348309455032
 21
99.187559213316348
 31
0.0
  0
LINE
  5
5B1A
  8
0
 10
42.457076880623838
 20
100.1593899368366
 30
0.0
 11
42.166752203936312
 21
99.444594849154527
 31
0.0
  0
ARC
  5
5B1B
  8
0
 10
50.000000000001592
 20
105.25000000000171
 30
0.0
 40
9.7500000000023412
 50
226.01670291892151
 51
228.7201391863413
  0
LINE
  5
5B1C
  8
0
 10
43.56755877512483
 20
97.922913274122791
 30
0.0
 11
44.303887296961449
 21
98.153219034359125
 31
0.0
  0
LINE
  5
5B1D
  8
0
 10
43.397839398130941
 20
98.987294882630366
 30
0.0
 11
43.229125776215199
 21
98.234462797070634
 31
0.0
  0
LINE
  5
5B1E
  8
0
 10
44.476191146967132
 20
113.28430368825791
 30
0.0
 11
44.518691646308859
 21
112.5139699016279
 31
0.0
  0
LINE
  5
5B1F
  8
0
 10
45.549666605253861
 20
113.1875394597827
 30
0.0
 11
44.861287726967873
 21
113.5358998409943
 31
0.0
  0
ARC
  5
5B20
  8
0
 10
50.000000000001307
 20
105.249999999998
 30
0.0
 40
9.7500000000024016
 50
121.8061766031319
 51
124.5096128705535
  0
LINE
  5
5B21
  8
0
 10
44.518691646308859
 20
97.986030098372154
 30
0.0
 11
44.476191146967132
 21
97.21569631174205
 31
0.0
  0
ARC
  5
5B22
  8
0
 10
50.000000000000881
 20
105.25000000000141
 30
0.0
 40
9.7500000000016325
 50
235.4903871294465
 51
238.19382339686811
  0
LINE
  5
5B23
  8
0
 10
44.861287726967873
 20
96.964100159005753
 30
0.0
 11
45.54966660525389
 21
97.312460540217316
 31
0.0
  0
LINE
  5
5B24
  8
0
 10
48.965861002370083
 20
114.9450016262805
 30
0.0
 11
48.636600718439318
 21
114.24728527940729
 31
0.0
  0
LINE
  5
5B25
  8
0
 10
49.863899808215557
 20
114.3489821814198
 30
0.0
 11
49.424289869153142
 21
114.98298812519771
 31
0.0
  0
ARC
  5
5B26
  8
0
 10
50.000000000000078
 20
105.24999999999871
 30
0.0
 40
9.7500000000013287
 50
93.385123971552574
 51
96.088560238973329
  0
ARC
  5
5B27
  8
0
 10
49.999999999999041
 20
105.2499999999978
 30
0.0
 40
9.7499999999975664
 50
244.96407133997209
 51
247.66750760739561
  0
LINE
  5
5B28
  8
0
 10
46.295187353996141
 20
96.231304791822168
 30
0.0
 11
46.916839407401653
 21
96.688217430917291
 31
0.0
  0
LINE
  5
5B29
  8
0
 10
45.789059697671007
 20
97.182907477274028
 30
0.0
 11
45.873931623734819
 21
96.416084687162538
 31
0.0
  0
ARC
  5
5B2A
  8
0
 10
49.999999999997669
 20
105.24999999999081
 30
0.0
 40
9.7499999999905231
 50
254.43775555049859
 51
257.14119181792188
  0
LINE
  5
5B2B
  8
0
 10
47.830144612281572
 20
95.744515919933946
 30
0.0
 11
48.368112793315667
 21
96.297517431200461
 31
0.0
  0
LINE
  5
5B2C
  8
0
 10
47.17429122337856
 20
96.599834110855184
 30
0.0
 11
47.384220489949477
 21
95.857439244018707
 31
0.0
  0
LINE
  5
5B2D
  8
0
 10
49.424289869153142
 20
95.517011874802279
 30
0.0
 11
49.863899808215592
 21
96.151017818580144
 31
0.0
  0
LINE
  5
5B2E
  8
0
 10
48.636600718439347
 20
96.252714720592664
 30
0.0
 11
48.965861002370097
 21
95.554998373719542
 31
0.0
  0
ARC
  5
5B2F
  8
0
 10
49.999999999999709
 20
105.249999999997
 30
0.0
 40
9.7499999999969873
 50
263.91143976102489
 51
266.61487602844738
  0
LINE
  5
5B30
  8
0
 10
52.82570877662144
 20
113.9001658891448
 30
0.0
 11
52.61577951005048
 21
114.64256075598129
 31
0.0
  0
LINE
  5
5B31
  8
0
 10
52.169855387718428
 20
114.7554840800661
 30
0.0
 11
51.631887206684333
 21
114.2024825687996
 31
0.0
  0
ARC
  5
5B32
  8
0
 10
50.000000000000647
 20
105.2500000000026
 30
0.0
 40
9.7499999999972928
 50
74.437755550498665
 51
77.141191817921893
  0
ARC
  5
5B33
  8
0
 10
49.99999999999897
 20
105.25000000001231
 30
0.0
 40
9.7500000000123741
 50
273.38512397155432
 51
276.0885602389717
  0
LINE
  5
5B34
  8
0
 10
51.034138997629903
 20
95.554998373719542
 30
0.0
 11
51.363399281560667
 21
96.252714720592664
 31
0.0
  0
LINE
  5
5B35
  8
0
 10
50.136100191784401
 20
96.151017818580144
 30
0.0
 11
50.575710130846858
 21
95.517011874802236
 31
0.0
  0
ARC
  5
5B36
  8
0
 10
50.000000000000391
 20
105.24999999999829
 30
0.0
 40
9.7499999999983071
 50
282.85880818207812
 51
285.5622444494997
  0
LINE
  5
5B37
  8
0
 10
52.615779510050508
 20
95.857439244018707
 30
0.0
 11
52.82570877662144
 21
96.599834110855184
 31
0.0
  0
LINE
  5
5B38
  8
0
 10
51.631887206684333
 20
96.297517431200461
 30
0.0
 11
52.169855387718428
 21
95.744515919933946
 31
0.0
  0
ARC
  5
5B39
  8
0
 10
49.999999999999353
 20
105.2500000000028
 30
0.0
 40
9.7499999999970974
 50
102.8588081820798
 51
105.56224444950141
  0
LINE
  5
5B3A
  8
0
 10
47.384220489949477
 20
114.64256075598129
 30
0.0
 11
47.17429122337856
 21
113.9001658891448
 31
0.0
  0
LINE
  5
5B3B
  8
0
 10
48.368112793315639
 20
114.2024825687996
 30
0.0
 11
47.830144612281572
 21
114.755484080066
 31
0.0
  0
ARC
  5
5B3C
  8
0
 10
49.999999999999538
 20
105.2499999999952
 30
0.0
 40
9.7500000000048708
 50
83.911439761026642
 51
86.614876028447398
  0
LINE
  5
5B3D
  8
0
 10
50.575710130846858
 20
114.98298812519771
 30
0.0
 11
50.136100191784401
 21
114.3489821814198
 31
0.0
  0
LINE
  5
5B3E
  8
0
 10
51.363399281560653
 20
114.24728527940729
 30
0.0
 11
51.034138997629903
 21
114.9450016262805
 31
0.0
  0
ARC
  5
5B3F
  8
0
 10
49.999999999998238
 20
105.25000000000389
 30
0.0
 40
9.749999999995687
 50
112.33249239260439
 51
115.0359286600261
  0
LINE
  5
5B40
  8
0
 10
45.873931623734791
 20
114.08391531283741
 30
0.0
 11
45.789059697671007
 21
113.3170925227259
 31
0.0
  0
LINE
  5
5B41
  8
0
 10
46.916839407401618
 20
113.81178256908269
 30
0.0
 11
46.295187353996113
 21
114.2686952081778
 31
0.0
  0
LINE
  5
5B42
  8
0
 10
59.05666547939083
 20
106.13702333363361
 30
0.0
 11
59.652203270402993
 21
106.6274875777376
 31
0.0
  0
ARC
  5
5B43
  8
0
 10
50.000000000005002
 20
105.2500000000008
 30
0.0
 40
9.7499999999949356
 50
8.1219660768149016
 51
10.825402344237499
  0
LINE
  5
5B44
  8
0
 10
59.576489758873862
 20
107.08121377730291
 30
0.0
 11
58.853966368325807
 21
107.3517325111811
 31
0.0
  0
LINE
  5
5B45
  8
0
 10
54.126068376265209
 20
96.416084687162538
 30
0.0
 11
54.210940302329021
 21
97.182907477274028
 31
0.0
  0
LINE
  5
5B46
  8
0
 10
53.083160592598368
 20
96.688217430917334
 30
0.0
 11
53.704812646003887
 21
96.231304791822197
 31
0.0
  0
ARC
  5
5B47
  8
0
 10
49.999999999999233
 20
105.2500000000018
 30
0.0
 40
9.7500000000020002
 50
292.33249239260618
 51
295.03592866002612
  0
ARC
  5
5B48
  8
0
 10
49.999999999938012
 20
105.25000000007969
 30
0.0
 40
9.1000000001009624
 50
307.03778548797573
 51
308.75168819623508
  0
LINE
  5
5B49
  8
0
 10
58.387276005788152
 20
101.7196174141135
 30
0.0
 11
59.144471039194059
 21
101.867523183621
 31
0.0
  0
LINE
  5
5B4A
  8
0
 10
54.450333394746139
 20
97.312460540217316
 30
0.0
 11
55.13871227303212
 21
96.964100159005753
 31
0.0
  0
LINE
  5
5B4B
  8
0
 10
55.523808853032868
 20
97.21569631174205
 30
0.0
 11
55.481308353691126
 21
97.986030098372154
 31
0.0
  0
LINE
  5
5B4C
  8
0
 10
55.696112703038551
 20
98.153219034359125
 30
0.0
 11
56.432441224875191
 21
97.922913274122791
 31
0.0
  0
LINE
  5
5B4D
  8
0
 10
56.770874223784801
 20
98.234462797070634
 30
0.0
 11
56.602160601869059
 21
98.987294882630366
 31
0.0
  0
ARC
  5
5B4E
  8
0
 10
49.999999999958703
 20
105.2500000000765
 30
0.0
 40
9.1000000000869807
 50
297.56410127744562
 51
299.27800398570929
  0
LINE
  5
5B4F
  8
0
 10
57.833247796063688
 20
99.444594849154527
 30
0.0
 11
57.542923119376177
 21
100.1593899368366
 31
0.0
  0
LINE
  5
5B50
  8
0
 10
58.853966368325807
 20
103.1482674888189
 30
0.0
 11
59.576489758873862
 21
103.41878622269709
 31
0.0
  0
LINE
  5
5B51
  8
0
 10
59.652203270402993
 20
103.8725124222624
 30
0.0
 11
59.05666547939083
 21
104.36297666636629
 31
0.0
  0
ARC
  5
5B52
  8
0
 10
49.999999999883393
 20
105.25000000000971
 30
0.0
 40
9.1000000001169976
 50
354.40620654060791
 51
356.12010924886562
  0
ARC
  5
5B53
  8
0
 10
49.999999999938318
 20
105.2500000000567
 30
0.0
 40
9.1000000000837673
 50
316.51146969849998
 51
318.22537240676292
  0
LINE
  5
5B54
  8
0
 10
56.786516905449673
 20
99.187559213316348
 30
0.0
 11
57.550709948226448
 21
99.081590214832204
 31
0.0
  0
LINE
  5
5B55
  8
0
 10
56.602160601869059
 20
111.51270511736971
 30
0.0
 11
56.770874223784801
 21
112.26553720292939
 31
0.0
  0
ARC
  5
5B56
  8
0
 10
49.999999999940677
 20
105.2500000000387
 30
0.0
 40
9.1000000000708408
 50
325.98515390902418
 51
327.69905661729092
  0
LINE
  5
5B57
  8
0
 10
57.691802617809373
 20
100.3872669733306
 30
0.0
 11
58.463014987421921
 21
100.4085252946367
 31
0.0
  0
LINE
  5
5B58
  8
0
 10
58.681950788218948
 20
100.8130832201917
 30
0.0
 11
58.277934357119761
 21
101.4703435633359
 31
0.0
  0
ARC
  5
5B59
  8
0
 10
49.999999999920483
 20
105.2500000000349
 30
0.0
 40
9.1000000000868244
 50
335.45883811955321
 51
337.17274082781591
  0
ARC
  5
5B5A
  8
0
 10
49.999999999931127
 20
105.2499999998727
 30
0.0
 40
9.1000000001447336
 50
60.721996014294547
 51
62.435898722547087
  0
LINE
  5
5B5B
  8
0
 10
59.293832795028209
 20
102.3025991148033
 30
0.0
 11
58.787145124565477
 21
102.8843963645985
 31
0.0
  0
ARC
  5
5B5C
  8
0
 10
49.999999999913513
 20
105.2500000000219
 30
0.0
 40
9.1000000000892136
 50
344.93252233007922
 51
346.64642503834261
  0
LINE
  5
5B5D
  8
0
 10
58.277934357119761
 20
109.0296564366641
 30
0.0
 11
58.681950788218948
 21
109.6869167798083
 31
0.0
  0
LINE
  5
5B5E
  8
0
 10
58.4630149874219
 20
110.0914747053632
 30
0.0
 11
57.691802617809373
 21
110.1127330266694
 31
0.0
  0
ARC
  5
5B5F
  8
0
 10
49.999999999892793
 20
105.2499999999299
 30
0.0
 40
9.1000000001280483
 50
32.300943382714948
 51
34.01484609097043
  0
LINE
  5
5B60
  8
0
 10
59.079143608903252
 20
104.6342473476215
 30
0.0
 11
59.747286801977253
 21
105.02
 31
0.0
  0
ARC
  5
5B61
  8
0
 10
50.0
 20
105.24999999985479
 30
0.0
 40
9.100000000145112
 50
89.143048645873833
 51
90.856951354126153
  0
ARC
  5
5B63
  8
0
 10
50.00000000002305
 20
105.2499999998622
 30
0.0
 40
9.1000000001396408
 50
98.616732856399395
 51
100.330635564654
  0
ARC
  5
5B65
  8
0
 10
50.000000000043428
 20
105.24999999987369
 30
0.0
 40
9.100000000133587
 50
108.09041706692609
 51
109.80431977517959
  0
ARC
  5
5B67
  8
0
 10
50.000000000071758
 20
105.2499999998673
 30
0.0
 40
9.1000000001508656
 50
117.56410127745291
 51
119.27800398570371
  0
ARC
  5
5B69
  8
0
 10
50.000000000114653
 20
105.2499999998527
 30
0.0
 40
9.1000000001866272
 50
127.0377854879838
 51
128.7516881962286
  0
ARC
  5
5B6B
  8
0
 10
50.0000000001302
 20
105.2499999998802
 30
0.0
 40
9.1000000001769479
 50
136.51146969850731
 51
138.22537240675501
  0
ARC
  5
5B6D
  8
0
 10
50.000000000160469
 20
105.2499999998951
 30
0.0
 40
9.100000000191649
 50
145.9851539090354
 51
147.699056617281
  0
ARC
  5
5B6F
  8
0
 10
50.00000000014245
 20
105.2499999999374
 30
0.0
 40
9.100000000155541
 50
155.4588381195581
 51
157.17274082780841
  0
ARC
  5
5B71
  8
0
 10
50.000000000178261
 20
105.24999999995489
 30
0.0
 40
9.1000000001838774
 50
164.93252233008809
 51
166.64642503833289
  0
ARC
  5
5B73
  8
0
 10
50.000000000174651
 20
105.24999999998541
 30
0.0
 40
9.1000000001752284
 50
174.40620654061269
 51
176.1201092488599
  0
ARC
  5
5B75
  8
0
 10
50.000000000042519
 20
105.2500000000036
 30
0.0
 40
9.1000000000426642
 50
183.8798907511277
 51
185.59379345939959
  0
ARC
  5
5B77
  8
0
 10
50.000000000044231
 20
105.2500000000112
 30
0.0
 40
9.1000000000456076
 50
193.35357496165361
 51
195.0674776699253
  0
ARC
  5
5B79
  8
0
 10
50.000000000040131
 20
105.25000000001739
 30
0.0
 40
9.1000000000437549
 50
202.82725917217979
 51
204.5411618804504
  0
ARC
  5
5B7B
  8
0
 10
50.000000000034902
 20
105.25000000002279
 30
0.0
 40
9.1000000000416712
 50
212.30094338270609
 51
214.01484609097869
  0
ARC
  5
5B7D
  8
0
 10
50.000000000053141
 20
105.2500000000489
 30
0.0
 40
9.1000000000722387
 50
221.7746275932351
 51
223.4885303015003
  0
ARC
  5
5B7F
  8
0
 10
50.000000000046498
 20
105.2500000000597
 30
0.0
 40
9.1000000000756884
 50
231.2483118037627
 51
232.96221451202811
  0
ARC
  5
5B81
  8
0
 10
50.000000000031577
 20
105.25000000005829
 30
0.0
 40
9.1000000000662844
 50
240.7219960142871
 51
242.4358987225545
  0
ARC
  5
5B83
  8
0
 10
50.00000000001446
 20
105.25000000004211
 30
0.0
 40
9.1000000000445436
 50
250.1956802248117
 51
251.90958293308401
  0
ARC
  5
5B85
  8
0
 10
50.000000000015064
 20
105.25000000009059
 30
0.0
 40
9.1000000000918408
 50
259.66936443534257
 51
261.38326714360551
  0
ARC
  5
5B87
  8
0
 10
50.0
 20
105.2500000000653
 30
0.0
 40
9.1000000000653358
 50
269.14304864586569
 51
270.85695135413431
  0
ARC
  5
5B89
  8
0
 10
49.99999999998689
 20
105.2500000000787
 30
0.0
 40
9.1000000000798096
 50
278.6167328563929
 51
280.33063556465902
  0
ARC
  5
5B8B
  8
0
 10
49.999999999973113
 20
105.2500000000783
 30
0.0
 40
9.1000000000828205
 50
288.09041706692102
 51
289.80431977518481
  0
LINE
  5
5B8D
  8
0
 10
59.747286801977253
 20
105.48
 30
0.0
 11
59.079143608903252
 21
105.8657526523785
 31
0.0
  0
ARC
  5
5B8E
  8
0
 10
49.999999999869722
 20
105.2499999999891
 30
0.0
 40
9.1000000001307377
 50
3.8798907511359779
 51
5.5937934593912999
  0
ARC
  5
5B90
  8
0
 10
49.999999999861529
 20
105.2499999999649
 30
0.0
 40
9.1000000001428152
 50
13.3535749616627
 51
15.06747766991645
  0
LINE
  5
5B91
  8
0
 10
58.787145124565477
 20
107.6156036354015
 30
0.0
 11
59.293832795028209
 21
108.1974008851967
 31
0.0
  0
LINE
  5
5B92
  8
0
 10
59.144471039194059
 20
108.6324768163789
 30
0.0
 11
58.387276005788152
 21
108.7803825858864
 31
0.0
  0
ARC
  5
5B93
  8
0
 10
49.999999999895472
 20
105.2499999999541
 30
0.0
 40
9.1000000001141181
 50
22.82725917218723
 51
24.541161880444921
  0
LINE
  5
5B94
  8
0
 10
57.542923119376148
 20
110.3406100631634
 30
0.0
 11
57.833247796063688
 21
111.0554051508455
 31
0.0
  0
LINE
  5
5B95
  8
0
 10
57.550709948226448
 20
111.4184097851678
 30
0.0
 11
56.786516905449673
 21
111.3124407866836
 31
0.0
  0
ARC
  5
5B96
  8
0
 10
49.999999999887763
 20
105.2499999998965
 30
0.0
 40
9.1000000001526224
 50
41.77462759324262
 51
43.488530301495118
  0
LINE
  5
5B97
  8
0
 10
56.432441224875191
 20
112.57708672587719
 30
0.0
 11
55.696112703038551
 21
112.3467809656409
 31
0.0
  0
ARC
  5
5B98
  8
0
 10
49.999999999911601
 20
105.2499999998865
 30
0.0
 40
9.1000000001438366
 50
51.248311803768949
 51
52.962214512020189
  0
LINE
  5
5B99
  8
0
 10
55.481308353691126
 20
112.5139699016279
 30
0.0
 11
55.523808853032868
 21
113.28430368825791
 31
0.0
  0
LINE
  5
5B9A
  8
0
 10
55.13871227303212
 20
113.5358998409943
 30
0.0
 11
54.450333394746139
 21
113.1875394597827
 31
0.0
  0
LINE
  5
5B9B
  8
0
 10
54.210940302328993
 20
113.3170925227259
 30
0.0
 11
54.126068376265181
 21
114.0839153128375
 31
0.0
  0
LINE
  5
5B9C
  8
0
 10
53.704812646003887
 20
114.2686952081778
 30
0.0
 11
53.083160592598368
 21
113.81178256908269
 31
0.0
  0
ARC
  5
5B9D
  8
0
 10
49.999999999954412
 20
105.2499999998673
 30
0.0
 40
9.1000000001402945
 50
70.195680224820364
 51
71.909582933073835
  0
ARC
  5
5B9F
  8
0
 10
49.999999999977149
 20
105.24999999986299
 30
0.0
 40
9.1000000001388681
 50
79.669364435345926
 51
81.383267143600605
  0
ARC
  5
5BA1
  8
0
 10
50.000000000010061
 20
105.2500000000034
 30
0.0
 40
9.7499999999893578
 50
17.595650287340021
 51
20.299086554765001
  0
ARC
  5
5BA3
  8
0
 10
49.999999999997719
 20
105.24999999999871
 30
0.0
 40
9.7500000000026308
 50
27.069334497869171
 51
29.772770765288591
  0
ARC
  5
5BA5
  8
0
 10
49.999999999994429
 20
105.24999999999569
 30
0.0
 40
9.7500000000070202
 50
36.543018708394563
 51
39.246454975814473
  0
ARC
  5
5BA7
  8
0
 10
50.000000000002927
 20
105.2500000000032
 30
0.0
 40
9.7499999999956373
 50
46.01670291891952
 51
48.720139186343161
  0
ARC
  5
5BA9
  8
0
 10
49.999999999999922
 20
105.2500000000001
 30
0.0
 40
9.7500000000001847
 50
301.80617660313169
 51
304.5096128705535
  0
ARC
  5
5BAB
  8
0
 10
50.000000000005002
 20
105.2499999999946
 30
0.0
 40
9.7499999999926246
 50
311.27986081365663
 51
313.98329708108031
  0
ARC
  5
5BAD
  8
0
 10
50.000000000008562
 20
105.24999999999331
 30
0.0
 40
9.7499999999891411
 50
320.75354502418281
 51
323.45698129160633
  0
ARC
  5
5BAF
  8
0
 10
49.99999999999946
 20
105.2500000000003
 30
0.0
 40
9.7500000000006342
 50
330.22722923471139
 51
332.93066550213081
  0
ARC
  5
5BB1
  8
0
 10
50.000000000002217
 20
105.2499999999993
 30
0.0
 40
9.7499999999976641
 50
339.70091344523672
 51
342.40434971265751
  0
ARC
  5
5BB3
  8
0
 10
50.000000000000142
 20
105.2499999999999
 30
0.0
 40
9.7499999999998561
 50
349.17459765576319
 51
351.87803392318432
  0
ARC
  5
5BB5
  8
0
 10
49.999999999990621
 20
105.25
 30
0.0
 40
9.7500000000093792
 50
358.64828186629029
 51
1.3517181337095709
  0
ARC
  5
5BB7
  8
0
 10
50.000000000004832
 20
105.2500000000074
 30
0.0
 40
9.7499999999911697
 50
55.49038712944639
 51
58.19382339687003
  0
ARC
  5
5BB9
  8
0
 10
50.000000000000227
 20
105.2500000000005
 30
0.0
 40
9.7499999999993836
 50
64.964071339973827
 51
67.667507607393816
  0
CIRCLE
  5
5BBC
  8
0
 10
50.0
 20
105.25
 30
0.0
 40
2.1000000000000001
  0
CIRCLE
  5
5BBD
  8
0
 10
50.0
 20
111.25
 30
0.0
 40
1.4999999999999989
  0
CIRCLE
  5
5BBE
  8
0
 10
50.0
 20
105.25
 30
0.0
 40
3.7000000000000002
  0
CIRCLE
  5
5BBF
  8
0
 10
50.0
 20
99.25
 30
0.0
 40
1.4999999999999989
  0
CIRCLE
  5
5BC0
  8
0
 10
44.0
 20
105.25
 30
0.0
 40
1.2294999999999989
  0
CIRCLE
  5
5BC1
  8
3
 10
44.0
 20
105.25
 30
0.0
 40
1.4999999999999989
  0
CIRCLE
  5
5BC2
  8
0
 10
50.0
 20
105.25
 30
0.0
 40
8.9500000000000064
  0
CIRCLE
  5
5BC3
  8
0
 10
50.0
 20
105.25
 30
0.0
 40
8.3726497308103731
  0
CIRCLE
  5
5BC4
  8
0
 10
56.0
 20
105.25
 30
0.0
 40
1.2294999999999989
  0
CIRCLE
  5
5BC5
  8
3
 10
56.0
 20
105.25
 30
0.0
 40
1.4999999999999989
  0
LINE
  5
5BCB
  8
1
 10
53.0
 20
111.25
 30
0.0
 11
47.0
 21
111.25
 31
0.0
  0
LINE
  5
5BCC
  8
1
 10
53.0
 20
99.25
 30
0.0
 11
47.0
 21
99.25
 31
0.0
  0
LINE
  5
5C21
  8
1
 10
92.75
 20
105.25
 30
0.0
 11
108.25
 21
105.25
 31
0.0
  0
LINE
  5
5C22
  8
2
 10
53.699999999999989
 20
55.999999999999993
 30
0.0
 11
46.300000000000011
 21
55.999999999999993
 31
0.0
  0
LINE
  5
5C23
  8
2
 10
99.25
 20
108.95
 30
0.0
 11
99.25
 21
101.55
 31
0.0
  0
LINE
  5
5C24
  8
1
 10
50.0
 20
92.5
 30
0.0
 11
50.0
 21
118.0
 31
0.0
  0
LINE
  5
5C25
  8
1
 10
62.75
 20
105.25
 30
0.0
 11
37.25
 21
105.25
 31
0.0
  0
LINE
  5
5C2A
  8
1
 10
44.0
 20
108.25
 30
0.0
 11
44.0
 21
102.25
 31
0.0
  0
LINE
  5
5C2B
  8
1
 10
56.0
 20
108.25
 30
0.0
 11
56.0
 21
102.25
 31
0.0
  0
LINE
  5
5C2C
  8
1
 10
94.25
 20
111.25
 30
0.0
 11
106.75
 21
111.25
 31
0.0
  0
LINE
  5
5C2F
  8
1
 10
94.25
 20
99.25
 30
0.0
 11
106.75
 21
99.25
 31
0.0
  0
LINE
  5
5C30
  8
1
 10
50.0
 20
62.5
 30
0.0
 11
50.0
 21
47.000000000000007
 31
0.0
  0
LINE
  5
5C31
  8
1
 10
56.0
 20
61.000000000000007
 30
0.0
 11
56.0
 21
48.500000000000007
 31
0.0
  0
LINE
  5
5C32
  8
1
 10
43.999999999999972
 20
61.000000000000007
 30
0.0
 11
44.0
 21
48.500000000000007
 31
0.0
  0
ENDSEC
  0
EOF
