  0
SECTION
  2
HEADER
  9
$ACADVER
  1
AC1009
  9
$INSBASE
 10
0.0
 20
0.0
 30
0.0
  9
$EXTMIN
 10
0.0
 20
-1.4802182810368341
 30
0.0
  9
$EXTMAX
 10
519.68238639142601
 20
219.49999999999989
 30
0.0
  9
$LIMMIN
 10
0.0
 20
0.0
  9
$LIMMAX
 10
385.0
 20
270.0
  9
$ORTHOMODE
 70
     1
  9
$REGENMODE
 70
     1
  9
$FILLMODE
 70
     1
  9
$QTEXTMODE
 70
     0
  9
$MIRRTEXT
 70
     0
  9
$DRAGMODE
 70
     2
  9
$LTSCALE
 40
10.0
  9
$OSMODE
 70
    37
  9
$ATTMODE
 70
     1
  9
$TEXTSIZE
 40
4.000000000000048
  9
$TRACEWID
 40
0.05
  9
$TEXTSTYLE
  7
STANDARD
  9
$CLAYER
  8
0
  9
$CELTYPE
  6
BYLAYER
  9
$CECOLOR
 62
   256
  9
$DIMSCALE
 40
1.0
  9
$DIMASZ
 40
3.0
  9
$DIMEXO
 40
2.0
  9
$DIMDLI
 40
0.38
  9
$DIMRND
 40
0.0
  9
$DIMDLE
 40
0.0
  9
$DIMEXE
 40
2.0
  9
$DIMTP
 40
0.0
  9
$DIMTM
 40
0.0
  9
$DIMTXT
 40
3.0
  9
$DIMCEN
 40
0.0
  9
$DIMTSZ
 40
0.0
  9
$DIMTOL
 70
     0
  9
$DIMLIM
 70
     0
  9
$DIMTIH
 70
     0
  9
$DIMTOH
 70
     0
  9
$DIMSE1
 70
     0
  9
$DIMSE2
 70
     0
  9
$DIMTAD
 70
     1
  9
$DIMZIN
 70
     0
  9
$DIMBLK
  1

  9
$DIMASO
 70
     1
  9
$DIMSHO
 70
     0
  9
$DIMPOST
  1

  9
$DIMAPOST
  1

  9
$DIMALT
 70
     0
  9
$DIMALTD
 70
     2
  9
$DIMALTF
 40
25.399999999999999
  9
$DIMLFAC
 40
1.0
  9
$DIMTOFL
 70
     1
  9
$DIMTVP
 40
1.6000000000000001
  9
$DIMTIX
 70
     1
  9
$DIMSOXD
 70
     0
  9
$DIMSAH
 70
     0
  9
$DIMBLK1
  1

  9
$DIMBLK2
  1

  9
$DIMSTYLE
  2
STANDARD
  9
$DIMCLRD
 70
     0
  9
$DIMCLRE
 70
     0
  9
$DIMCLRT
 70
     0
  9
$DIMTFAC
 40
1.0
  9
$DIMGAP
 40
1.0
  9
$LUNITS
 70
     2
  9
$LUPREC
 70
     4
  9
$SKETCHINC
 40
0.1
  9
$FILLETRAD
 40
0.0
  9
$AUNITS
 70
     0
  9
$AUPREC
 70
     4
  9
$MENU
  1
E:\r13\win\SUPPORT\ACAD
  9
$ELEVATION
 40
0.0
  9
$PELEVATION
 40
0.0
  9
$THICKNESS
 40
0.0
  9
$LIMCHECK
 70
     0
  9
$BLIPMODE
 70
     0
  9
$CHAMFERA
 40
0.0
  9
$CHAMFERB
 40
0.0
  9
$SKPOLY
 70
     0
  9
$TDCREATE
 40
2450280.598206134
  9
$TDUPDATE
 40
2459200.3877551849
  9
$TDINDWG
 40
0.1028187731
  9
$TDUSRTIMER
 40
0.1028187731
  9
$USRTIMER
 70
     1
  9
$ANGBASE
 50
0.0
  9
$ANGDIR
 70
     0
  9
$PDMODE
 70
     0
  9
$PDSIZE
 40
0.0
  9
$PLINEWID
 40
0.0
  9
$COORDS
 70
     1
  9
$SPLFRAME
 70
     0
  9
$SPLINETYPE
 70
     6
  9
$SPLINESEGS
 70
     8
  9
$ATTDIA
 70
     0
  9
$ATTREQ
 70
     1
  9
$HANDLING
 70
     1
  9
$HANDSEED
  5
1BA7
  9
$SURFTAB1
 70
     6
  9
$SURFTAB2
 70
     6
  9
$SURFTYPE
 70
     6
  9
$SURFU
 70
     6
  9
$SURFV
 70
     6
  9
$UCSNAME
  2

  9
$UCSORG
 10
0.0
 20
0.0
 30
0.0
  9
$UCSXDIR
 10
1.0
 20
0.0
 30
0.0
  9
$UCSYDIR
 10
0.0
 20
1.0
 30
0.0
  9
$PUCSNAME
  2

  9
$PUCSORG
 10
0.0
 20
0.0
 30
0.0
  9
$PUCSXDIR
 10
1.0
 20
0.0
 30
0.0
  9
$PUCSYDIR
 10
0.0
 20
1.0
 30
0.0
  9
$USERI1
 70
     3
  9
$USERI2
 70
     1
  9
$USERI3
 70
     1
  9
$USERI4
 70
     0
  9
$USERI5
 70
     0
  9
$USERR1
 40
1.0
  9
$USERR2
 40
3.0
  9
$USERR3
 40
3.0
  9
$USERR4
 40
3.0
  9
$USERR5
 40
10.0
  9
$WORLDVIEW
 70
     1
  9
$SHADEDGE
 70
     3
  9
$SHADEDIF
 70
    70
  9
$TILEMODE
 70
     1
  9
$MAXACTVP
 70
    16
  9
$PLIMCHECK
 70
     0
  9
$PEXTMIN
 10
1.0000000000000000E+020
 20
1.0000000000000000E+020
 30
1.0000000000000000E+020
  9
$PEXTMAX
 10
-1.0000000000000000E+020
 20
-1.0000000000000000E+020
 30
-1.0000000000000000E+020
  9
$PLIMMIN
 10
0.0
 20
0.0
  9
$PLIMMAX
 10
12.0
 20
9.0
  9
$UNITMODE
 70
     0
  9
$VISRETAIN
 70
     0
  9
$PLINEGEN
 70
     0
  9
$PSLTSCALE
 70
     0
  0
ENDSEC
  0
SECTION
  2
TABLES
  0
TABLE
  2
VPORT
 70
     1
  0
VPORT
  2
*ACTIVE
 70
     0
 10
0.0
 20
0.0
 11
1.0
 21
1.0
 12
490.38442492016583
 22
109.01113059895479
 13
0.0
 23
0.0
 14
5.0
 24
5.0
 15
10.0
 25
10.0
 16
0.0
 26
0.0
 36
1.0
 17
0.0
 27
0.0
 37
0.0
 40
407.48978099560151
 41
2.415644171779141
 42
50.0
 43
0.0
 44
0.0
 50
0.0
 51
0.0
 71
     0
 72
   500
 73
     1
 74
     0
 75
     0
 76
     0
 77
     0
 78
     2
  0
ENDTAB
  0
TABLE
  2
LTYPE
 70
     4
  0
LTYPE
  2
CONTINUOUS
 70
     0
  3
Solid Line
 72
    65
 73
     0
 40
0.0
  0
LTYPE
  2
CENTER
 70
     0
  3
____ _ ____ _ ____ _ ____ _ ____ _ ____ _ ____
 72
    65
 73
     4
 40
2.0
 49
1.25
 49
-0.25
 49
0.25
 49
-0.25
  0
LTYPE
  2
HIDDEN
 70
     0
  3
_ _ _ _ _ _ _ _ _ _ _ _ _ _ _ _ _ _ _ _ _ _ _
 72
    65
 73
     2
 40
0.375
 49
0.25
 49
-0.125
  0
LTYPE
  2
PHANTOM2
 70
     0
  3
___ _ _ ___ _ _ ___ _ _ ___ _ _
 72
    65
 73
     6
 40
1.25
 49
0.625
 49
-0.125
 49
0.125
 49
-0.125
 49
0.125
 49
-0.125
  0
ENDTAB
  0
TABLE
  2
LAYER
 70
     4
  0
LAYER
  2
0
 70
     0
 62
     7
  6
CONTINUOUS
  0
LAYER
  2
1
 70
     0
 62
     1
  6
CENTER
  0
LAYER
  2
3
 70
     0
 62
     3
  6
CONTINUOUS
  0
LAYER
  2
2
 70
     0
 62
     2
  6
HIDDEN
  0
ENDTAB
  0
TABLE
  2
STYLE
 70
     2
  0
STYLE
  2
STANDARD
 70
     0
 40
0.0
 41
1.0
 50
0.0
 71
     0
 42
4.000000000000048
  3
SIMPLEX
  4
BIGFONT
  0
STYLE
  2
STANDARD1
 70
     0
 40
0.0
 41
1.0
 50
0.0
 71
     0
 42
3.0
  3
txt
  4

  0
ENDTAB
  0
TABLE
  2
VIEW
 70
     0
  0
ENDTAB
  0
TABLE
  2
UCS
 70
     0
  0
ENDTAB
  0
TABLE
  2
APPID
 70
     4
  0
APPID
  2
ACAD
 70
     0
  0
APPID
  2
ACAD_MLEADERVER
 70
     0
  0
APPID
  2
ACAD_NAV_VCDISPLAY
 70
     0
  0
APPID
  2
ACAD_EXEMPT_FROM_CAD_STANDARDS
 70
     0
  0
ENDTAB
  0
TABLE
  2
DIMSTYLE
 70
     2
  0
DIMSTYLE
  2
STANDARD
 70
     0
  3

  4

  5

  6

  7

 40
1.0
 41
0.18
 42
0.0625
 43
0.38
 44
0.18
 45
0.0
 46
0.0
 47
0.0
 48
0.0
140
0.18
141
0.09
142
0.0
143
25.399999999999999
144
1.0
145
0.0
146
1.0
147
0.09
 71
     0
 72
     0
 73
     1
 74
     1
 75
     0
 76
     0
 77
     0
 78
     0
170
     0
171
     2
172
     0
173
     0
174
     0
175
     0
176
     0
177
     0
178
     0
  0
DIMSTYLE
  2
ISO-25
 70
     0
  3

  4

  5

  6

  7

 40
1.0
 41
2.5
 42
0.625
 43
3.75
 44
1.25
 45
0.0
 46
0.0
 47
0.0
 48
0.0
140
2.5
141
2.5
142
0.0
143
0.03937007874016
144
1.0
145
0.0
146
1.0
147
0.625
 71
     0
 72
     0
 73
     0
 74
     0
 75
     0
 76
     0
 77
     1
 78
     8
170
     0
171
     3
172
     1
173
     0
174
     0
175
     0
176
     0
177
     0
178
     0
  0
ENDTAB
  0
ENDSEC
  0
SECTION
  2
BLOCKS
  0
BLOCK
  8
0
  2
$MODEL_SPACE
 70
     0
 10
0.0
 20
0.0
 30
0.0
  3
$MODEL_SPACE
  1

  0
ENDBLK
  5
86E
  8
0
  0
BLOCK
 67
     1
  8
0
  2
$PAPER_SPACE
 70
     0
 10
0.0
 20
0.0
 30
0.0
  3
$PAPER_SPACE
  1

  0
ENDBLK
  5
86C
 67
     1
  8
0
  0
ENDSEC
  0
SECTION
  2
ENTITIES
  0
TEXT
  5
AEE
  8
0
 62
     3
 10
0.0
 20
0.0
 30
0.0
 40
5.0
  1
RANDX20-10-1M-Y
  7
STANDARD1
  0
LINE
  5
113E
  8
0
 10
226.2061447846543
 20
202.49999999999989
 30
0.0
 11
156.72999999999999
 21
202.49999999999989
 31
0.0
  0
LINE
  5
113F
  8
0
 10
156.72999999999999
 20
197.49999999999989
 30
0.0
 11
227.25385521534571
 21
197.49999999999989
 31
0.0
  0
LINE
  5
1141
  8
0
 10
156.72999999999999
 20
202.74999999999989
 30
0.0
 11
154.0
 21
202.74999999999989
 31
0.0
  0
LINE
  5
1142
  8
0
 10
154.0
 20
197.24999999999989
 30
0.0
 11
156.72999999999999
 21
197.24999999999989
 31
0.0
  0
LINE
  5
1143
  8
0
 10
156.72999999999999
 20
197.24999999999989
 30
0.0
 11
156.72999999999999
 21
202.74999999999989
 31
0.0
  0
ARC
  5
1144
  8
0
 10
65.0
 20
200.0
 30
0.0
 40
9.9999999999999947
 50
157.53204873306379
 51
202.4679512669355
  0
LINE
  5
1145
  8
0
 10
64.75
 20
204.90000000000001
 30
0.0
 11
64.673205080756929
 21
204.90000000000001
 31
0.0
  0
LINE
  5
1146
  8
0
 10
64.673205080756929
 20
195.09999999999991
 30
0.0
 11
64.75
 21
195.09999999999991
 31
0.0
  0
LINE
  5
1147
  8
0
 10
55.759065557904172
 20
196.17833404954229
 30
0.0
 11
57.800000000000011
 21
195.0
 31
0.0
  0
LINE
  5
1148
  8
0
 10
57.800000000000011
 20
205.0
 30
0.0
 11
55.759065557904187
 21
203.8216659504576
 31
0.0
  0
LINE
  5
1149
  8
0
 10
55.759065557904172
 20
196.17833404954229
 30
0.0
 11
55.759065557904187
 21
203.8216659504576
 31
0.0
  0
LINE
  5
114A
  8
0
 10
64.673205080756929
 20
204.90000000000001
 30
0.0
 11
64.5
 21
205.0
 31
0.0
  0
LINE
  5
114B
  8
0
 10
64.5
 20
195.0
 30
0.0
 11
64.673205080756929
 21
195.09999999999991
 31
0.0
  0
LINE
  5
114D
  8
0
 10
64.5
 20
205.0
 30
0.0
 11
57.800000000000011
 21
205.0
 31
0.0
  0
LINE
  5
114E
  8
0
 10
57.800000000000011
 20
195.0
 30
0.0
 11
64.5
 21
195.0
 31
0.0
  0
LINE
  5
114F
  8
0
 10
57.800000000000011
 20
195.0
 30
0.0
 11
57.800000000000011
 21
205.0
 31
0.0
  0
LINE
  5
1150
  8
0
 10
64.5
 20
195.0
 30
0.0
 11
64.5
 21
205.0
 31
0.0
  0
ARC
  5
1151
  8
0
 10
64.75
 20
205.15000000000001
 30
0.0
 40
0.25
 50
270.0
 51
0.0
  0
ARC
  5
1152
  8
0
 10
64.75
 20
194.84999999999991
 30
0.0
 40
0.2499999999999995
 50
359.99999999999682
 51
90.0
  0
LINE
  5
1153
  8
0
 10
154.0
 20
191.99999999999989
 30
0.0
 11
144.0
 21
191.99999999999989
 31
0.0
  0
LINE
  5
1154
  8
0
 10
154.0
 20
191.99999999999989
 30
0.0
 11
154.0
 21
208.0
 31
0.0
  0
LINE
  5
1155
  8
0
 10
144.0
 20
208.0
 30
0.0
 11
154.0
 21
208.0
 31
0.0
  0
LINE
  5
115A
  8
0
 10
144.0
 20
199.99999999999989
 30
0.0
 11
153.2854688201837
 21
199.99999999999989
 31
0.0
  0
LINE
  5
115B
  8
0
 10
77.0
 20
210.0
 30
0.0
 11
65.920000000000016
 21
210.0
 31
0.0
  0
LINE
  5
115C
  8
0
 10
65.920000000000016
 20
190.0
 30
0.0
 11
77.0
 21
189.99999999999989
 31
0.0
  0
LINE
  5
115D
  8
0
 10
89.0
 20
210.0
 30
0.0
 11
87.0
 21
210.0
 31
0.0
  0
LINE
  5
115E
  8
0
 10
87.0
 20
189.99999999999989
 30
0.0
 11
89.0
 21
189.99999999999989
 31
0.0
  0
LINE
  5
115F
  8
0
 10
65.0
 20
190.91999999999999
 30
0.0
 11
65.920000000000016
 21
190.0
 31
0.0
  0
LINE
  5
1160
  8
0
 10
65.920000000000016
 20
210.0
 30
0.0
 11
65.0
 21
209.08000000000001
 31
0.0
  0
LINE
  5
1161
  8
0
 10
65.0
 20
190.91999999999999
 30
0.0
 11
65.0
 21
209.08000000000001
 31
0.0
  0
LINE
  5
1162
  8
0
 10
65.920000000000016
 20
190.0
 30
0.0
 11
65.920000000000016
 21
210.0
 31
0.0
  0
LINE
  5
1163
  8
0
 10
89.0
 20
188.99999999999989
 30
0.0
 11
89.500000000000014
 21
188.49999999999989
 31
0.0
  0
LINE
  5
1164
  8
0
 10
89.500000000000014
 20
211.49999999999989
 30
0.0
 11
89.0
 21
210.99999999999989
 31
0.0
  0
LINE
  5
1165
  8
0
 10
89.0
 20
188.99999999999989
 30
0.0
 11
89.0
 21
210.99999999999989
 31
0.0
  0
LINE
  5
1166
  8
0
 10
144.0
 20
210.99999999999989
 30
0.0
 11
144.0
 21
188.99999999999989
 31
0.0
  0
LINE
  5
1167
  8
0
 10
144.0
 20
210.99999999999989
 30
0.0
 11
143.5
 21
211.49999999999989
 31
0.0
  0
LINE
  5
1168
  8
0
 10
143.5
 20
188.49999999999989
 30
0.0
 11
144.0
 21
188.99999999999989
 31
0.0
  0
LINE
  5
1169
  8
0
 10
143.5
 20
211.49999999999989
 30
0.0
 11
89.500000000000014
 21
211.49999999999989
 31
0.0
  0
LINE
  5
116A
  8
0
 10
89.500000000000014
 20
188.49999999999989
 30
0.0
 11
143.5
 21
188.49999999999989
 31
0.0
  0
LINE
  5
116B
  8
0
 10
89.500000000000014
 20
188.49999999999989
 30
0.0
 11
89.500000000000014
 21
211.49999999999989
 31
0.0
  0
LINE
  5
116C
  8
0
 10
143.5
 20
188.49999999999989
 30
0.0
 11
143.5
 21
211.49999999999989
 31
0.0
  0
LINE
  5
116D
  8
0
 10
87.0
 20
184.99999999999989
 30
0.0
 11
87.0
 21
214.99999999999989
 31
0.0
  0
LINE
  5
116E
  8
0
 10
77.0
 20
184.99999999999989
 30
0.0
 11
87.0
 21
184.99999999999989
 31
0.0
  0
LINE
  5
116F
  8
0
 10
77.0
 20
184.99999999999989
 30
0.0
 11
77.0
 21
214.99999999999989
 31
0.0
  0
LINE
  5
1170
  8
0
 10
87.0
 20
214.99999999999989
 30
0.0
 11
77.0
 21
214.99999999999989
 31
0.0
  0
LINE
  5
1175
  8
0
 10
85.660254037844354
 20
199.99999999999989
 30
0.0
 11
78.339745962155632
 21
199.99999999999989
 31
0.0
  0
LINE
  5
117A
  8
3
 10
65.0
 20
190.91999999999999
 30
0.0
 11
77.0
 21
190.91999999999999
 31
0.0
  0
LINE
  5
117B
  8
3
 10
65.0
 20
209.08000000000001
 30
0.0
 11
77.0
 21
209.08000000000001
 31
0.0
  0
LINE
  5
117C
  8
1
 10
231.72999999999999
 20
199.99999999999989
 30
0.0
 11
50.0
 21
200.0
 31
0.0
  0
LINE
  5
117E
  8
0
 10
226.2061447846543
 20
102.4999999999999
 30
0.0
 11
156.72999999999999
 21
102.5
 31
0.0
  0
LINE
  5
117F
  8
0
 10
156.72999999999999
 20
97.5
 30
0.0
 11
227.2538552153456
 21
97.499999999999915
 31
0.0
  0
LINE
  5
1180
  8
0
 10
156.72999999999999
 20
97.250000000000014
 30
0.0
 11
156.72999999999999
 21
102.75
 31
0.0
  0
LINE
  5
1181
  8
0
 10
156.72999999999999
 20
102.75
 30
0.0
 11
154.0
 21
102.75
 31
0.0
  0
LINE
  5
1182
  8
0
 10
154.0
 20
97.250000000000014
 30
0.0
 11
156.72999999999999
 21
97.250000000000014
 31
0.0
  0
ARC
  5
1183
  8
0
 10
65.0
 20
100.0
 30
0.0
 40
9.9999999999999947
 50
157.53204873306379
 51
202.4679512669355
  0
LINE
  5
1184
  8
0
 10
153.2854688201837
 20
90.762395692965981
 30
0.0
 11
154.0
 21
92.0
 31
0.0
  0
LINE
  5
1185
  8
0
 10
154.0
 20
92.0
 30
0.0
 11
154.0
 21
108.0
 31
0.0
  0
LINE
  5
1186
  8
0
 10
154.0
 20
108.0
 30
0.0
 11
153.2854688201837
 21
109.237604307034
 31
0.0
  0
LINE
  5
1187
  8
0
 10
64.75
 20
104.89999999999991
 30
0.0
 11
64.673205080756901
 21
104.89999999999991
 31
0.0
  0
LINE
  5
1188
  8
0
 10
64.673205080756901
 20
95.100000000000037
 30
0.0
 11
64.75
 21
95.100000000000037
 31
0.0
  0
LINE
  5
1189
  8
0
 10
64.5
 20
105.0
 30
0.0
 11
57.800000000000011
 21
105.0
 31
0.0
  0
LINE
  5
118A
  8
0
 10
57.800000000000011
 20
95.0
 30
0.0
 11
64.5
 21
95.0
 31
0.0
  0
LINE
  5
118B
  8
0
 10
64.5
 20
95.0
 30
0.0
 11
64.5
 21
105.0
 31
0.0
  0
LINE
  5
118D
  8
0
 10
64.673205080756901
 20
104.89999999999991
 30
0.0
 11
64.5
 21
105.0
 31
0.0
  0
LINE
  5
118E
  8
0
 10
64.5
 20
95.0
 30
0.0
 11
64.673205080756901
 21
95.100000000000037
 31
0.0
  0
LINE
  5
118F
  8
0
 10
55.759065557904172
 20
96.178334049542386
 30
0.0
 11
55.759065557904172
 21
103.8216659504576
 31
0.0
  0
LINE
  5
1190
  8
0
 10
57.800000000000011
 20
95.0
 30
0.0
 11
57.800000000000011
 21
105.0
 31
0.0
  0
LINE
  5
1191
  8
0
 10
55.759065557904172
 20
96.178334049542386
 30
0.0
 11
57.800000000000011
 21
95.0
 31
0.0
  0
LINE
  5
1192
  8
0
 10
57.800000000000011
 20
105.0
 30
0.0
 11
55.759065557904172
 21
103.8216659504576
 31
0.0
  0
ARC
  5
1193
  8
0
 10
64.75
 20
105.15000000000001
 30
0.0
 40
0.25
 50
270.0
 51
0.0
  0
ARC
  5
1194
  8
0
 10
64.75
 20
94.850000000000023
 30
0.0
 40
0.2499999999999995
 50
359.99999999999682
 51
90.0
  0
LINE
  5
1195
  8
0
 10
77.0
 20
85.0
 30
0.0
 11
78.339745962155632
 21
82.679491924311208
 31
0.0
  0
LINE
  5
1196
  8
0
 10
77.0
 20
85.0
 30
0.0
 11
77.0
 21
115.0
 31
0.0
  0
LINE
  5
1197
  8
0
 10
85.660254037844354
 20
82.679491924311208
 30
0.0
 11
87.0
 21
85.0
 31
0.0
  0
LINE
  5
1198
  8
0
 10
87.0
 20
85.0
 30
0.0
 11
87.0
 21
115.0
 31
0.0
  0
LINE
  5
1199
  8
0
 10
78.339745962155632
 20
117.32050807568881
 30
0.0
 11
77.0
 21
115.0
 31
0.0
  0
LINE
  5
119A
  8
0
 10
87.0
 20
115.0
 30
0.0
 11
85.660254037844354
 21
117.32050807568881
 31
0.0
  0
LINE
  5
119C
  8
0
 10
144.0
 20
109.237604307034
 30
0.0
 11
153.2854688201837
 21
109.237604307034
 31
0.0
  0
LINE
  5
11A0
  8
0
 10
144.0
 20
90.762395692965981
 30
0.0
 11
153.2854688201837
 21
90.762395692965981
 31
0.0
  0
LINE
  5
11A3
  8
0
 10
144.0
 20
104.6188021535169
 30
0.0
 11
153.2854688201837
 21
104.6188021535169
 31
0.0
  0
LINE
  5
11A4
  8
0
 10
144.0
 20
95.381197846483005
 30
0.0
 11
153.2854688201837
 21
95.381197846483005
 31
0.0
  0
LINE
  5
11A5
  8
0
 10
77.0
 20
110.0
 30
0.0
 11
65.920000000000016
 21
110.0
 31
0.0
  0
LINE
  5
11A6
  8
0
 10
65.920000000000016
 20
90.0
 30
0.0
 11
77.0
 21
90.0
 31
0.0
  0
LINE
  5
11A7
  8
0
 10
65.0
 20
90.920000000000016
 30
0.0
 11
65.0
 21
109.0799999999999
 31
0.0
  0
LINE
  5
11A8
  8
0
 10
65.920000000000016
 20
90.0
 30
0.0
 11
65.920000000000016
 21
110.0
 31
0.0
  0
LINE
  5
11A9
  8
0
 10
65.0
 20
90.920000000000016
 30
0.0
 11
65.920000000000016
 21
90.0
 31
0.0
  0
LINE
  5
11AA
  8
0
 10
65.920000000000016
 20
110.0
 30
0.0
 11
65.0
 21
109.0799999999999
 31
0.0
  0
LINE
  5
11AB
  8
0
 10
89.0
 20
110.0
 30
0.0
 11
87.0
 21
110.0
 31
0.0
  0
LINE
  5
11AC
  8
0
 10
87.0
 20
90.0
 30
0.0
 11
89.0
 21
90.0
 31
0.0
  0
LINE
  5
11AD
  8
0
 10
89.0
 20
89.0
 30
0.0
 11
89.0
 21
111.0
 31
0.0
  0
LINE
  5
11AE
  8
0
 10
89.0
 20
89.0
 30
0.0
 11
89.500000000000014
 21
88.499999999999986
 31
0.0
  0
LINE
  5
11AF
  8
0
 10
89.500000000000014
 20
111.5
 30
0.0
 11
89.0
 21
111.0
 31
0.0
  0
LINE
  5
11B0
  8
0
 10
144.0
 20
111.0
 30
0.0
 11
144.0
 21
89.0
 31
0.0
  0
LINE
  5
11B1
  8
0
 10
144.0
 20
111.0
 30
0.0
 11
143.5
 21
111.5
 31
0.0
  0
LINE
  5
11B2
  8
0
 10
143.5
 20
88.499999999999986
 30
0.0
 11
144.0
 21
89.0
 31
0.0
  0
LINE
  5
11B3
  8
0
 10
89.500000000000014
 20
88.499999999999986
 30
0.0
 11
89.500000000000014
 21
111.5
 31
0.0
  0
LINE
  5
11B4
  8
0
 10
143.5
 20
88.499999999999986
 30
0.0
 11
143.5
 21
111.5
 31
0.0
  0
LINE
  5
11B5
  8
0
 10
143.5
 20
111.5
 30
0.0
 11
89.500000000000014
 21
111.5
 31
0.0
  0
LINE
  5
11B6
  8
0
 10
89.500000000000014
 20
88.499999999999986
 30
0.0
 11
143.5
 21
88.499999999999986
 31
0.0
  0
LINE
  5
11B9
  8
0
 10
85.660254037844354
 20
82.679491924311208
 30
0.0
 11
78.339745962155632
 21
82.679491924311208
 31
0.0
  0
LINE
  5
11BB
  8
0
 10
85.660254037844354
 20
91.339745962155575
 30
0.0
 11
78.339745962155632
 21
91.339745962155575
 31
0.0
  0
LINE
  5
11C1
  8
0
 10
85.660254037844354
 20
108.6602540378444
 30
0.0
 11
78.339745962155632
 21
108.6602540378444
 31
0.0
  0
LINE
  5
11C4
  8
0
 10
85.660254037844354
 20
117.32050807568881
 30
0.0
 11
78.339745962155632
 21
117.32050807568881
 31
0.0
  0
LINE
  5
11C7
  8
3
 10
65.0
 20
109.0799999999999
 30
0.0
 11
77.000000000000014
 21
109.0799999999999
 31
0.0
  0
LINE
  5
11C8
  8
3
 10
65.0
 20
90.920000000000016
 30
0.0
 11
77.000000000000014
 21
90.920000000000016
 31
0.0
  0
LINE
  5
11C9
  8
1
 10
231.72999999999999
 20
99.999999999999943
 30
0.0
 11
50.0
 21
100.0
 31
0.0
  0
LINE
  5
11E0
  8
3
 10
87.0
 20
209.08000000000001
 30
0.0
 11
89.0
 21
209.0799999999999
 31
0.0
  0
LINE
  5
11E1
  8
3
 10
87.0
 20
190.9199999999999
 30
0.0
 11
89.0
 21
190.9199999999999
 31
0.0
  0
LINE
  5
11E2
  8
3
 10
87.000000000000014
 20
109.0799999999999
 30
0.0
 11
89.0
 21
109.0799999999999
 31
0.0
  0
LINE
  5
11E3
  8
3
 10
87.000000000000014
 20
90.920000000000016
 30
0.0
 11
89.0
 21
90.920000000000016
 31
0.0
  0
ARC
  5
11E4
  8
0
 10
142.4465819873852
 20
204.0
 30
0.0
 40
11.55341801261476
 50
339.74384199958382
 51
20.25615800041626
  0
ARC
  5
11E5
  8
0
 10
142.4465819873852
 20
195.99999999999989
 30
0.0
 40
11.55341801261476
 50
339.74384199958382
 51
20.25615800041626
  0
ARC
  5
11E6
  8
0
 10
149.91068360252291
 20
106.9282032302755
 30
0.0
 40
4.089316397477031
 50
325.61575253195753
 51
34.38424746804214
  0
ARC
  5
11E7
  8
0
 10
138.71453117981659
 20
100.0
 30
0.0
 40
15.28546882018335
 50
342.41204622600611
 51
17.58795377399392
  0
ARC
  5
11E8
  8
0
 10
149.91068360252291
 20
93.071796769724514
 30
0.0
 40
4.089316397477031
 50
325.61575253195753
 51
34.38424746804214
  0
ARC
  5
11E9
  8
0
 10
98.662658773652453
 20
207.49999999999989
 30
0.0
 40
21.662658773652449
 50
159.74384199958331
 51
200.25615800041669
  0
ARC
  5
11EA
  8
0
 10
98.662658773652396
 20
192.4999999999998
 30
0.0
 40
21.662658773652449
 50
159.74384199958311
 51
200.25615800041689
  0
ARC
  5
11EB
  8
0
 10
65.337341226347533
 20
207.49999999999989
 30
0.0
 40
21.662658773652449
 50
339.74384199958399
 51
20.256158000416061
  0
ARC
  5
11EC
  8
0
 10
65.337341226347604
 20
192.4999999999998
 30
0.0
 40
21.662658773652449
 50
339.74384199958382
 51
20.25615800041626
  0
ARC
  5
11ED
  8
0
 10
84.667468245269305
 20
112.99038105676659
 30
0.0
 40
7.6674682452693101
 50
145.6157525319575
 51
214.3842474680425
  0
ARC
  5
11EE
  8
0
 10
105.6602540378442
 20
100.0
 30
0.0
 40
28.660254037844229
 50
162.412046226006
 51
197.58795377399389
  0
ARC
  5
11EF
  8
0
 10
84.667468245269475
 20
87.009618943233335
 30
0.0
 40
7.6674682452693101
 50
145.61575253195781
 51
214.3842474680439
  0
ARC
  5
11F0
  8
0
 10
79.332531754730695
 20
112.99038105676659
 30
0.0
 40
7.6674682452693101
 50
325.61575253195639
 51
34.384247468043611
  0
ARC
  5
11F1
  8
0
 10
58.339745962155767
 20
100.0
 30
0.0
 40
28.660254037844229
 50
342.41204622600588
 51
17.587953773994119
  0
ARC
  5
11F2
  8
0
 10
79.332531754730525
 20
87.009618943233335
 30
0.0
 40
7.6674682452693101
 50
325.61575253195571
 51
34.384247468041181
  0
ARC
  5
124B
  8
3
 10
233.03
 20
202.625
 30
0.0
 40
6.82499999999997
 50
157.38013505195971
 51
202.61986494804029
  0
ARC
  5
124C
  8
3
 10
220.43000000000009
 20
197.375
 30
0.0
 40
6.82499999999997
 50
337.38013505195971
 51
22.619864948040298
  0
ARC
  5
124D
  8
3
 10
233.02999999999989
 20
102.6249999999999
 30
0.0
 40
6.82499999999997
 50
157.38013505195951
 51
202.61986494804049
  0
ARC
  5
124E
  8
3
 10
220.43000000000001
 20
97.374999999999972
 30
0.0
 40
6.82499999999997
 50
337.38013505195943
 51
22.619864948040529
  0
LINE
  5
19FF
  8
2
 10
364.73000000000008
 20
96.999999999999986
 30
0.0
 11
364.73000000000008
 21
103.0
 31
0.0
  0
LINE
  5
1A00
  8
2
 10
364.73000000000008
 20
102.4584999999999
 30
0.0
 11
355.27150000000012
 21
102.4584999999999
 31
0.0
  0
LINE
  5
1A01
  8
2
 10
355.27150000000012
 20
97.541500000000013
 30
0.0
 11
364.73000000000008
 21
97.541500000000013
 31
0.0
  0
LINE
  5
1A02
  8
2
 10
355.27150000000012
 20
97.541500000000013
 30
0.0
 11
355.27150000000012
 21
102.4584999999999
 31
0.0
  0
LINE
  5
1A03
  8
2
 10
355.27150000000012
 20
102.4584999999999
 30
0.0
 11
354.73000000000008
 21
103.0
 31
0.0
  0
LINE
  5
1A04
  8
2
 10
354.73000000000008
 20
96.999999999999986
 30
0.0
 11
355.27150000000012
 21
97.541500000000013
 31
0.0
  0
LINE
  5
1A05
  8
0
 10
394.42994333268979
 20
87.298294077828231
 30
0.0
 11
394.73000000000008
 21
88.999999999999986
 31
0.0
  0
LINE
  5
1A06
  8
0
 10
394.73000000000008
 20
88.999999999999986
 30
0.0
 11
394.73000000000019
 21
111.0
 31
0.0
  0
LINE
  5
1A07
  8
0
 10
394.73000000000019
 20
111.0
 30
0.0
 11
394.4299433326899
 21
112.7017059221717
 31
0.0
  0
LINE
  5
1A08
  8
0
 10
354.73000000000008
 20
90.919999999999945
 30
0.0
 11
354.73000000000008
 21
109.08
 31
0.0
  0
LINE
  5
1A09
  8
0
 10
354.73000000000008
 20
90.919999999999945
 30
0.0
 11
355.65000000000009
 21
89.999999999999986
 31
0.0
  0
LINE
  5
1A0A
  8
0
 10
355.65000000000009
 20
110.0
 30
0.0
 11
354.73000000000008
 21
109.08
 31
0.0
  0
LINE
  5
1A0B
  8
0
 10
355.65000000000009
 20
89.999999999999986
 30
0.0
 11
355.65000000000009
 21
110.0
 31
0.0
  0
LINE
  5
1A0C
  8
0
 10
382.73000000000008
 20
110.0
 30
0.0
 11
375.06750416235661
 21
109.9999999999999
 31
0.0
  0
LINE
  5
1A0D
  8
0
 10
365.06750416237958
 20
109.9999999999999
 30
0.0
 11
355.65000000000009
 21
110.0
 31
0.0
  0
LINE
  5
1A0E
  8
0
 10
355.65000000000009
 20
89.999999999999986
 30
0.0
 11
365.06750416237929
 21
89.999999999999986
 31
0.0
  0
LINE
  5
1A0F
  8
0
 10
375.06750416235678
 20
89.999999999999986
 30
0.0
 11
382.73000000000008
 21
89.999999999999986
 31
0.0
  0
LINE
  5
1A10
  8
0
 10
394.4299433326899
 20
112.7017059221717
 30
0.0
 11
382.73000000000008
 21
112.7017059221717
 31
0.0
  0
LINE
  5
1A11
  8
0
 10
409.68000000000001
 20
111.0
 30
0.0
 11
395.43000000000012
 21
111.0
 31
0.0
  0
LINE
  5
1A12
  8
0
 10
395.43000000000012
 20
88.999999999999986
 30
0.0
 11
409.68000000000001
 21
88.999999999999986
 31
0.0
  0
LINE
  5
1A13
  8
0
 10
382.73000000000008
 20
112.7017059221717
 30
0.0
 11
382.73000000000008
 21
87.298294077828231
 31
0.0
  0
LINE
  5
1A14
  8
0
 10
379.73000000000008
 20
109.9999999999999
 30
0.0
 11
379.73000000000008
 21
89.999999999999986
 31
0.0
  0
LINE
  5
1A15
  8
0
 10
394.42994333268979
 20
87.298294077828231
 30
0.0
 11
382.73000000000008
 21
87.298294077828231
 31
0.0
  0
LINE
  5
1A16
  8
0
 10
394.4299433326899
 20
106.35085296108581
 30
0.0
 11
382.73000000000008
 21
106.35085296108581
 31
0.0
  0
LINE
  5
1A17
  8
0
 10
394.42994333268979
 20
93.649147038914165
 30
0.0
 11
382.73000000000008
 21
93.649147038914165
 31
0.0
  0
LINE
  5
1A18
  8
0
 10
395.43000000000012
 20
88.999999999999986
 30
0.0
 11
395.43000000000012
 21
111.0
 31
0.0
  0
LINE
  5
1A19
  8
0
 10
394.73000000000008
 20
89.700000000000045
 30
0.0
 11
395.43000000000012
 21
88.999999999999986
 31
0.0
  0
LINE
  5
1A1A
  8
0
 10
395.43000000000012
 20
111.0
 30
0.0
 11
394.73000000000019
 21
110.2999999999999
 31
0.0
  0
POLYLINE
  5
1A1B
  8
0
 66
     1
 10
0.0
 20
0.0
 30
0.0
  0
VERTEX
  5
1B72
  8
0
 10
426.73000000000002
 20
85.333411463046318
 30
0.0
  0
VERTEX
  5
1B73
  8
0
 10
426.75617949756651
 20
85.426992433632094
 30
0.0
  0
VERTEX
  5
1B74
  8
0
 10
426.83662948126641
 20
85.534315807594425
 30
0.0
  0
VERTEX
  5
1B75
  8
0
 10
426.93965553803793
 20
85.635144196695691
 30
0.0
  0
VERTEX
  5
1B76
  8
0
 10
427.07176375240209
 20
85.755317080600875
 30
0.0
  0
VERTEX
  5
1B77
  8
0
 10
427.21598455856611
 20
85.894054488074957
 30
0.0
  0
VERTEX
  5
1B78
  8
0
 10
427.36637485151391
 20
86.062227393684211
 30
0.0
  0
VERTEX
  5
1B79
  8
0
 10
427.49689531584289
 20
86.244799967942043
 30
0.0
  0
VERTEX
  5
1B7A
  8
0
 10
427.60780761711078
 20
86.454345147021613
 30
0.0
  0
VERTEX
  5
1B7B
  8
0
 10
427.68387190071297
 20
86.672766016802683
 30
0.0
  0
VERTEX
  5
1B7C
  8
0
 10
427.72482997436299
 20
86.908347673737339
 30
0.0
  0
VERTEX
  5
1B7D
  8
0
 10
427.73000000000008
 20
87.027047367696113
 30
0.0
  0
SEQEND
  5
1B7E
  8
0
  0
POLYLINE
  5
1A1C
  8
0
 66
     1
 10
0.0
 20
0.0
 30
0.0
  0
VERTEX
  5
1B7F
  8
0
 10
427.73000000000008
 20
112.9729526323038
 30
0.0
  0
VERTEX
  5
1B80
  8
0
 10
427.7258294238639
 20
113.07954520211879
 30
0.0
  0
VERTEX
  5
1B81
  8
0
 10
427.6927506519533
 20
113.2915044262142
 30
0.0
  0
VERTEX
  5
1B82
  8
0
 10
427.62662167372741
 20
113.5006889134122
 30
0.0
  0
VERTEX
  5
1B83
  8
0
 10
427.52821961225311
 20
113.7030399185375
 30
0.0
  0
VERTEX
  5
1B84
  8
0
 10
427.40260458069059
 20
113.89152782339561
 30
0.0
  0
VERTEX
  5
1B85
  8
0
 10
427.26365880513561
 20
114.0560203906311
 30
0.0
  0
VERTEX
  5
1B86
  8
0
 10
427.11832242630049
 20
114.20142325938239
 30
0.0
  0
VERTEX
  5
1B87
  8
0
 10
426.98645772214758
 20
114.3221872845688
 30
0.0
  0
VERTEX
  5
1B88
  8
0
 10
426.87241925057242
 20
114.42875784465851
 30
0.0
  0
VERTEX
  5
1B89
  8
0
 10
426.78872608515508
 20
114.5224984551425
 30
0.0
  0
VERTEX
  5
1B8A
  8
0
 10
426.7398723001358
 20
114.61017751865251
 30
0.0
  0
VERTEX
  5
1B8B
  8
0
 10
426.73000000000008
 20
114.6665885369535
 30
0.0
  0
SEQEND
  5
1B8C
  8
0
  0
POLYLINE
  5
1A1D
  8
0
 66
     1
 10
0.0
 20
0.0
 30
0.0
  0
VERTEX
  5
1B8D
  8
0
 10
426.73000000000008
 20
114.6665885369535
 30
0.0
  0
VERTEX
  5
1B8E
  8
0
 10
426.74639219385239
 20
114.7332438299572
 30
0.0
  0
VERTEX
  5
1B8F
  8
0
 10
426.79813373141428
 20
114.79220485729741
 30
0.0
  0
VERTEX
  5
1B90
  8
0
 10
426.86383183461589
 20
114.8274635622289
 30
0.0
  0
VERTEX
  5
1B91
  8
0
 10
426.95383885695838
 20
114.8478327062153
 30
0.0
  0
VERTEX
  5
1B92
  8
0
 10
427.12965997681118
 20
114.83172752524371
 30
0.0
  0
VERTEX
  5
1B93
  8
0
 10
427.22819678202671
 20
114.795741760402
 30
0.0
  0
VERTEX
  5
1B94
  8
0
 10
427.33192354754232
 20
114.73617039410939
 30
0.0
  0
VERTEX
  5
1B95
  8
0
 10
427.49559424654279
 20
114.5850758896438
 30
0.0
  0
VERTEX
  5
1B96
  8
0
 10
427.62576654429728
 20
114.3793472652748
 30
0.0
  0
VERTEX
  5
1B97
  8
0
 10
427.71313041840341
 20
114.10077963053369
 30
0.0
  0
VERTEX
  5
1B98
  8
0
 10
427.73000000000008
 20
113.903147125741
 30
0.0
  0
SEQEND
  5
1B99
  8
0
  0
LINE
  5
1A1E
  8
0
 10
427.73000000000008
 20
85.6000000000016
 30
0.0
 11
427.73000000000008
 21
114.40000000000001
 31
0.0
  0
POLYLINE
  5
1A1F
  8
0
 66
     1
 10
0.0
 20
0.0
 30
0.0
  0
VERTEX
  5
1B9A
  8
0
 10
427.73000000000008
 20
86.096852874263504
 30
0.0
  0
VERTEX
  5
1B9B
  8
0
 10
427.68864458457051
 20
85.790261365731212
 30
0.0
  0
VERTEX
  5
1B9C
  8
0
 10
427.63586399830541
 20
85.642728195817085
 30
0.0
  0
VERTEX
  5
1B9D
  8
0
 10
427.55996113115049
 20
85.502411752545953
 30
0.0
  0
VERTEX
  5
1B9E
  8
0
 10
427.39638537691002
 20
85.313697526346218
 30
0.0
  0
VERTEX
  5
1B9F
  8
0
 10
427.20324121671302
 20
85.193326860406373
 30
0.0
  0
VERTEX
  5
1BA0
  8
0
 10
427.03633744393579
 20
85.151731114925695
 30
0.0
  0
VERTEX
  5
1BA1
  8
0
 10
426.94298436757339
 20
85.153400335440878
 30
0.0
  0
VERTEX
  5
1BA2
  8
0
 10
426.86381634233231
 20
85.172542229282371
 30
0.0
  0
VERTEX
  5
1BA3
  8
0
 10
426.78974433152672
 20
85.214418198359098
 30
0.0
  0
VERTEX
  5
1BA4
  8
0
 10
426.74441675747028
 20
85.270651354474339
 30
0.0
  0
VERTEX
  5
1BA5
  8
0
 10
426.73000000000002
 20
85.333411463046318
 30
0.0
  0
SEQEND
  5
1BA6
  8
0
  0
LINE
  5
1A20
  8
0
 10
426.63000000000011
 20
115.5
 30
0.0
 11
421.73000000000008
 21
115.5
 31
0.0
  0
LINE
  5
1A21
  8
0
 10
421.73000000000002
 20
84.499999999999986
 30
0.0
 11
426.63000000000011
 21
84.499999999999986
 31
0.0
  0
LINE
  5
1A22
  8
0
 10
409.68000000000001
 20
88.999999999999986
 30
0.0
 11
409.68000000000001
 21
111.0
 31
0.0
  0
LINE
  5
1A23
  8
0
 10
409.68000000000001
 20
88.999999999999986
 30
0.0
 11
416.97874651891237
 21
83.499999999999986
 31
0.0
  0
LINE
  5
1A24
  8
0
 10
416.97874651891237
 20
116.5
 30
0.0
 11
409.68000000000001
 21
111.0
 31
0.0
  0
LINE
  5
1A25
  8
0
 10
421.73000000000002
 20
84.499999999999986
 30
0.0
 11
421.73000000000008
 21
115.5
 31
0.0
  0
ARC
  5
1A26
  8
0
 10
419.73000000000019
 20
114.0
 30
0.0
 40
2.4999999999999551
 50
36.869897645845647
 51
90.0
  0
ARC
  5
1A27
  8
0
 10
419.73000000000008
 20
85.999999999999986
 30
0.0
 40
2.4999999999999569
 50
269.99999999999841
 51
323.13010235415442
  0
LINE
  5
1A28
  8
0
 10
416.97874651891237
 20
83.499999999999986
 30
0.0
 11
416.97874651891237
 21
116.5
 31
0.0
  0
LINE
  5
1A29
  8
0
 10
419.73000000000008
 20
83.499999999999986
 30
0.0
 11
419.73000000000008
 21
116.5
 31
0.0
  0
LINE
  5
1A2A
  8
0
 10
419.73000000000008
 20
116.5
 30
0.0
 11
416.97874651891237
 21
116.5
 31
0.0
  0
LINE
  5
1A2B
  8
0
 10
416.97874651891237
 20
83.499999999999986
 30
0.0
 11
419.73000000000008
 21
83.499999999999986
 31
0.0
  0
LINE
  5
1A2C
  8
3
 10
354.73000000000008
 20
109.08
 30
0.0
 11
365.06750416237958
 21
109.08
 31
0.0
  0
LINE
  5
1A2D
  8
3
 10
375.06750416235673
 20
109.08
 30
0.0
 11
379.73000000000008
 21
109.08
 31
0.0
  0
LINE
  5
1A2E
  8
2
 10
354.73000000000008
 20
103.0
 30
0.0
 11
364.73000000000008
 21
103.0
 31
0.0
  0
LINE
  5
1A2F
  8
3
 10
354.73000000000008
 20
90.919999999999945
 30
0.0
 11
365.06750416237929
 21
90.919999999999945
 31
0.0
  0
LINE
  5
1A30
  8
3
 10
375.06750416235678
 20
90.919999999999931
 30
0.0
 11
379.73000000000002
 21
90.919999999999931
 31
0.0
  0
LINE
  5
1A31
  8
2
 10
354.73000000000008
 20
96.999999999999986
 30
0.0
 11
364.73000000000008
 21
96.999999999999986
 31
0.0
  0
LINE
  5
1A32
  8
1
 10
430.73000000000002
 20
100.0
 30
0.0
 11
351.73000000000008
 21
100.0
 31
0.0
  0
ARC
  5
1A33
  8
0
 10
377.77758993005068
 20
109.5262794416288
 30
0.0
 40
16.952410069949451
 50
349.20391693320909
 51
10.796083066790921
  0
ARC
  5
1A34
  8
0
 10
327.37042889420701
 20
100.00000074777201
 30
0.0
 40
67.359571105793123
 50
354.58995395161969
 51
5.4100451946066608
  0
ARC
  5
1A35
  8
0
 10
377.77758993005068
 20
90.47372055837117
 30
0.0
 40
16.952410069949451
 50
349.20391693320909
 51
10.796083066790921
  0
LINE
  5
1A36
  8
2
 10
364.73000000000008
 20
202.45849999999999
 30
0.0
 11
355.2715
 21
202.45849999999999
 31
0.0
  0
LINE
  5
1A37
  8
2
 10
355.2715
 20
197.54150000000001
 30
0.0
 11
364.73000000000008
 21
197.5414999999999
 31
0.0
  0
LINE
  5
1A38
  8
2
 10
364.73000000000008
 20
196.99999999999989
 30
0.0
 11
364.73000000000008
 21
202.99999999999989
 31
0.0
  0
LINE
  5
1A39
  8
2
 10
355.2715
 20
202.45849999999999
 30
0.0
 11
354.73000000000008
 21
203.0
 31
0.0
  0
LINE
  5
1A3A
  8
2
 10
354.73000000000008
 20
197.0
 30
0.0
 11
355.2715
 21
197.54150000000001
 31
0.0
  0
LINE
  5
1A3B
  8
2
 10
355.2715
 20
197.54150000000001
 30
0.0
 11
355.2715
 21
202.45849999999999
 31
0.0
  0
LINE
  5
1A3C
  8
0
 10
382.73000000000008
 20
188.99999999999989
 30
0.0
 11
394.73000000000008
 21
188.99999999999989
 31
0.0
  0
LINE
  5
1A3D
  8
0
 10
394.73000000000008
 20
188.99999999999989
 30
0.0
 11
394.73000000000008
 21
210.99999999999989
 31
0.0
  0
LINE
  5
1A3E
  8
0
 10
394.73000000000008
 20
210.99999999999989
 30
0.0
 11
382.73000000000008
 21
210.99999999999989
 31
0.0
  0
LINE
  5
1A3F
  8
0
 10
354.73000000000008
 20
190.91999999999999
 30
0.0
 11
355.65000000000009
 21
190.0
 31
0.0
  0
LINE
  5
1A40
  8
0
 10
355.65000000000009
 20
210.0
 30
0.0
 11
354.73000000000008
 21
209.08000000000001
 31
0.0
  0
LINE
  5
1A41
  8
0
 10
354.73000000000008
 20
190.91999999999999
 30
0.0
 11
354.73000000000008
 21
209.08000000000001
 31
0.0
  0
LINE
  5
1A42
  8
0
 10
382.73000000000008
 20
209.9999999999998
 30
0.0
 11
375.06750416235678
 21
210.0
 31
0.0
  0
LINE
  5
1A43
  8
0
 10
365.0675041623789
 20
210.0
 30
0.0
 11
355.65000000000009
 21
210.0
 31
0.0
  0
LINE
  5
1A44
  8
0
 10
355.65000000000009
 20
190.0
 30
0.0
 11
365.0675041623789
 21
190.0
 31
0.0
  0
LINE
  5
1A45
  8
0
 10
375.06750416235678
 20
190.0
 30
0.0
 11
382.73000000000008
 21
189.99999999999989
 31
0.0
  0
LINE
  5
1A46
  8
0
 10
355.65000000000009
 20
190.0
 30
0.0
 11
355.65000000000009
 21
210.0
 31
0.0
  0
LINE
  5
1A47
  8
0
 10
409.68000000000001
 20
210.99999999999989
 30
0.0
 11
395.43000000000012
 21
210.99999999999989
 31
0.0
  0
LINE
  5
1A48
  8
0
 10
395.43000000000012
 20
188.99999999999989
 30
0.0
 11
409.68000000000001
 21
188.99999999999989
 31
0.0
  0
LINE
  5
1A49
  8
0
 10
394.73000000000008
 20
189.6999999999999
 30
0.0
 11
395.43000000000012
 21
188.99999999999989
 31
0.0
  0
LINE
  5
1A4A
  8
0
 10
395.43000000000012
 20
210.99999999999989
 30
0.0
 11
394.73000000000008
 21
210.30000000000001
 31
0.0
  0
LINE
  5
1A4B
  8
0
 10
395.43000000000012
 20
188.99999999999989
 30
0.0
 11
395.43000000000012
 21
210.99999999999989
 31
0.0
  0
LINE
  5
1A4C
  8
0
 10
382.73000000000008
 20
210.99999999999989
 30
0.0
 11
382.73000000000008
 21
188.99999999999989
 31
0.0
  0
LINE
  5
1A4D
  8
0
 10
379.73000000000008
 20
209.99999999999989
 30
0.0
 11
379.73000000000002
 21
189.99999999999989
 31
0.0
  0
LINE
  5
1A4E
  8
0
 10
394.42994333268979
 20
199.99999999999989
 30
0.0
 11
382.73000000000008
 21
199.99999999999989
 31
0.0
  0
LINE
  5
1A4F
  8
0
 10
426.63000000000011
 20
215.49999999999989
 30
0.0
 11
421.73000000000002
 21
215.49999999999989
 31
0.0
  0
LINE
  5
1A50
  8
0
 10
421.73000000000002
 20
184.49999999999989
 30
0.0
 11
426.63000000000011
 21
184.49999999999989
 31
0.0
  0
LINE
  5
1A51
  8
0
 10
427.73000000000008
 20
196.24999999999989
 30
0.0
 11
427.73000000000008
 21
198.74999999999989
 31
0.0
  0
LINE
  5
1A52
  8
0
 10
427.73000000000008
 20
201.24999999999989
 30
0.0
 11
427.73000000000008
 21
203.75
 31
0.0
  0
LINE
  5
1A53
  8
0
 10
427.73000000000008
 20
206.25
 30
0.0
 11
427.73000000000008
 21
214.39999999999989
 31
0.0
  0
LINE
  5
1A54
  8
0
 10
427.73000000000008
 20
185.59999999999991
 30
0.0
 11
427.73000000000008
 21
193.74999999999989
 31
0.0
  0
ARC
  5
1A55
  8
0
 10
426.63000000000011
 20
214.40000000000001
 30
0.0
 40
1.0999999999999941
 50
0.0
 51
90.0
  0
ARC
  5
1A56
  8
0
 10
426.63000000000011
 20
185.59999999999991
 30
0.0
 40
1.0999999999999901
 50
269.99999999999682
 51
0.0
  0
LINE
  5
1A57
  8
0
 10
409.68000000000001
 20
188.99999999999989
 30
0.0
 11
416.97874651891232
 21
183.49999999999989
 31
0.0
  0
LINE
  5
1A58
  8
0
 10
416.97874651891232
 20
216.5
 30
0.0
 11
409.68000000000001
 21
210.99999999999989
 31
0.0
  0
LINE
  5
1A59
  8
0
 10
409.68000000000001
 20
188.99999999999989
 30
0.0
 11
409.68000000000001
 21
210.99999999999989
 31
0.0
  0
ARC
  5
1A5A
  8
0
 10
419.73000000000008
 20
214.0
 30
0.0
 40
2.4999999999999551
 50
36.869897645847942
 51
90.0
  0
ARC
  5
1A5B
  8
0
 10
419.73000000000008
 20
185.99999999999989
 30
0.0
 40
2.4999999999999569
 50
269.99999999999682
 51
323.13010235415209
  0
LINE
  5
1A5C
  8
0
 10
421.73000000000002
 20
184.49999999999989
 30
0.0
 11
421.73000000000002
 21
215.49999999999989
 31
0.0
  0
LINE
  5
1A5D
  8
0
 10
419.73000000000008
 20
216.5
 30
0.0
 11
416.97874651891232
 21
216.5
 31
0.0
  0
LINE
  5
1A5E
  8
0
 10
416.97874651891232
 20
183.49999999999989
 30
0.0
 11
419.73000000000008
 21
183.49999999999989
 31
0.0
  0
LINE
  5
1A5F
  8
0
 10
416.97874651891232
 20
183.49999999999989
 30
0.0
 11
416.97874651891232
 21
216.5
 31
0.0
  0
LINE
  5
1A60
  8
0
 10
419.73000000000008
 20
183.49999999999989
 30
0.0
 11
419.73000000000008
 21
216.5
 31
0.0
  0
LINE
  5
1A61
  8
3
 10
354.73000000000008
 20
190.91999999999999
 30
0.0
 11
365.06750416237878
 21
190.91999999999999
 31
0.0
  0
LINE
  5
1A62
  8
3
 10
375.06750416235678
 20
190.9199999999999
 30
0.0
 11
379.73000000000008
 21
190.9199999999999
 31
0.0
  0
LINE
  5
1A63
  8
2
 10
354.73000000000008
 20
197.0
 30
0.0
 11
364.73000000000008
 21
196.99999999999989
 31
0.0
  0
LINE
  5
1A64
  8
3
 10
354.73000000000008
 20
209.08000000000001
 30
0.0
 11
365.0675041623789
 21
209.08000000000001
 31
0.0
  0
LINE
  5
1A65
  8
3
 10
375.0675041623569
 20
209.08000000000001
 30
0.0
 11
379.73000000000008
 21
209.08000000000001
 31
0.0
  0
LINE
  5
1A66
  8
2
 10
354.73000000000008
 20
203.0
 30
0.0
 11
364.73000000000008
 21
202.99999999999989
 31
0.0
  0
LINE
  5
1A67
  8
1
 10
430.68238639142601
 20
199.99999999999989
 30
0.0
 11
351.73000000000002
 21
200.0
 31
0.0
  0
LINE
  5
1A68
  8
0
 10
483.72980300765317
 20
201.24999999999989
 30
0.0
 11
516.63496977519878
 21
201.24999999999989
 31
0.0
  0
LINE
  5
1A69
  8
0
 10
483.72980300765317
 20
198.74999999999989
 30
0.0
 11
516.63496977519878
 21
198.74999999999989
 31
0.0
  0
LINE
  5
1A6A
  8
0
 10
484.11417242720472
 20
196.24999999999989
 30
0.0
 11
516.25060035564752
 21
196.2499999999998
 31
0.0
  0
LINE
  5
1A6B
  8
0
 10
484.91190833735061
 20
193.74999999999989
 30
0.0
 11
515.45286444550152
 21
193.74999999999989
 31
0.0
  0
LINE
  5
1A6C
  8
0
 10
484.91190833735061
 20
206.25
 30
0.0
 11
515.45286444550152
 21
206.25
 31
0.0
  0
LINE
  5
1A6D
  8
0
 10
484.11417242720472
 20
203.75
 30
0.0
 11
516.25060035564752
 21
203.75
 31
0.0
  0
LINE
  5
1A6E
  8
1
 10
480.68238639142601
 20
199.99999999999989
 30
0.0
 11
519.68238639142601
 21
199.99999999999989
 31
0.0
  0
CIRCLE
  5
1A6F
  8
0
 10
500.18238639142601
 20
199.99999999999989
 30
0.0
 40
16.500000000000011
  0
ARC
  5
1A70
  8
0
 10
344.17282645746258
 20
205.5
 30
0.0
 40
50.557173542537441
 50
353.7545619249828
 51
6.2454380750164091
  0
ARC
  5
1A71
  8
0
 10
344.17282645746258
 20
194.49999999999989
 30
0.0
 40
50.557173542537441
 50
353.75456192498439
 51
6.2454380750155991
  0
LINE
  5
1A72
  8
1
 10
500.18238639142601
 20
180.49999999999989
 30
0.0
 11
500.18238639142601
 21
219.49999999999989
 31
0.0
  0
ARC
  5
1A73
  8
0
 10
428.01125000000002
 20
204.99999999999989
 30
0.0
 40
1.2812499999999869
 50
102.68038349181811
 51
257.31961650818192
  0
ARC
  5
1A74
  8
0
 10
428.01125000000002
 20
199.99999999999989
 30
0.0
 40
1.2812499999999869
 50
102.68038349181811
 51
257.31961650818192
  0
ARC
  5
1A75
  8
0
 10
428.01125000000002
 20
194.99999999999989
 30
0.0
 40
1.2812499999999869
 50
102.68038349181811
 51
257.31961650818192
  0
ARC
  5
1A76
  8
0
 10
500.18238639142601
 20
199.99999999999989
 30
0.0
 40
15.5
 50
23.77999473141346
 51
156.2200052685865
  0
ARC
  5
1A77
  8
0
 10
500.18238639142601
 20
199.99999999999989
 30
0.0
 40
15.5
 50
165.99919761374281
 51
175.37434942047679
  0
ARC
  5
1A78
  8
0
 10
500.18238639142601
 20
199.99999999999989
 30
0.0
 40
15.5
 50
184.6256505795223
 51
194.00080238625631
  0
ARC
  5
1A79
  8
0
 10
500.18238639142601
 20
199.99999999999989
 30
0.0
 40
15.5
 50
203.7799947314127
 51
336.22000526858727
  0
ARC
  5
1A7A
  8
0
 10
500.18238639142601
 20
199.99999999999989
 30
0.0
 40
15.5
 50
345.99919761374372
 51
355.3743494204777
  0
ARC
  5
1A7B
  8
0
 10
500.18238639142601
 20
199.99999999999989
 30
0.0
 40
15.5
 50
4.6256505795231257
 51
14.00080238625714
  0
ARC
  5
1A7C
  8
0
 10
387.0188380706428
 20
207.5
 30
0.0
 40
21.662658773668529
 50
159.74384199959849
 51
200.25615800040151
  0
ARC
  5
1A7D
  8
0
 10
353.11617025409288
 20
207.5
 30
0.0
 40
21.662658773668529
 50
339.74384199959849
 51
20.256158000401481
  0
LINE
  5
1A7E
  8
0
 10
365.0675041623789
 20
214.5
 30
0.0
 11
365.0675041623789
 21
185.50000000000159
 31
0.0
  0
LINE
  5
1A7F
  8
0
 10
375.06750416235678
 20
185.50000000000159
 30
0.0
 11
375.06750416235678
 21
214.49999999999841
 31
0.0
  0
LINE
  5
1A80
  8
0
 10
374.77882902776128
 20
215.0
 30
0.0
 11
365.35617929697429
 21
214.9999999999998
 31
0.0
  0
LINE
  5
1A81
  8
0
 10
365.0675041623789
 20
214.49999999999841
 30
0.0
 11
365.35617929697452
 21
214.9999999999998
 31
0.0
  0
LINE
  5
1A82
  8
0
 10
375.06750416235678
 20
214.49999999999841
 30
0.0
 11
374.77882902776128
 21
214.9999999999998
 31
0.0
  0
ARC
  5
1A83
  8
0
 10
387.0188380706428
 20
192.5
 30
0.0
 40
21.662658773668529
 50
159.74384199959849
 51
200.25615800040151
  0
ARC
  5
1A84
  8
0
 10
353.11617025409288
 20
192.5
 30
0.0
 40
21.662658773668529
 50
339.74384199959849
 51
20.256158000401481
  0
LINE
  5
1A85
  8
0
 10
373.43908306560672
 20
200.0
 30
0.0
 11
366.69592525912418
 21
200.0
 31
0.0
  0
LINE
  5
1A86
  8
0
 10
374.77882902776128
 20
184.99999999999989
 30
0.0
 11
365.35617929697429
 21
185.0000000000002
 31
0.0
  0
LINE
  5
1A87
  8
0
 10
365.0675041623789
 20
185.50000000000159
 30
0.0
 11
365.35617929697452
 21
185.0000000000002
 31
0.0
  0
LINE
  5
1A88
  8
0
 10
375.06750416235678
 20
185.50000000000159
 30
0.0
 11
374.77882902776128
 21
185.0000000000002
 31
0.0
  0
LINE
  5
1A89
  8
0
 10
375.06750416235661
 20
114.5000000000002
 30
0.0
 11
375.06750416235701
 21
85.499999999999744
 31
0.0
  0
LINE
  5
1A8A
  8
0
 10
365.06750416237918
 20
85.499999999999744
 30
0.0
 11
365.06750416237969
 21
114.5000000000004
 31
0.0
  0
LINE
  5
1A8B
  8
0
 10
365.06750416237918
 20
114.4999999999997
 30
0.0
 11
366.69592525912958
 21
117.32050807568839
 31
0.0
  0
ARC
  5
1A8C
  8
0
 10
373.0236475422505
 20
112.9903810567659
 30
0.0
 40
7.6674682452751783
 50
154.38424747045369
 51
214.3842474680107
  0
ARC
  5
1A8D
  8
0
 10
373.0236475422505
 20
112.9903810567659
 30
0.0
 40
7.6674682452751783
 50
145.6157525319847
 51
145.61575253198799
  0
ARC
  5
1A8E
  8
0
 10
367.11136078248569
 20
112.9903810567659
 30
0.0
 40
7.6674682452751783
 50
34.384247468010692
 51
34.384247468015232
  0
ARC
  5
1A8F
  8
0
 10
367.11136078248569
 20
112.9903810567659
 30
0.0
 40
7.6674682452751783
 50
325.6157525319893
 51
25.61575252954631
  0
LINE
  5
1A90
  8
0
 10
375.06750416235701
 20
114.4999999999997
 30
0.0
 11
373.43908306560661
 21
117.32050807568839
 31
0.0
  0
LINE
  5
1A91
  8
0
 10
366.69592525912969
 20
117.3205080756881
 30
0.0
 11
373.4390830654429
 21
117.3205080759719
 31
0.0
  0
LINE
  5
1A92
  8
0
 10
373.43908306558319
 20
108.6602540378439
 30
0.0
 11
366.69592525912969
 21
108.66025403769
 31
0.0
  0
ARC
  5
1A93
  8
0
 10
346.1185749903683
 20
100.0000000000732
 30
0.0
 40
28.6602540373928
 50
342.4120462255662
 51
17.587953774125889
  0
LINE
  5
1A94
  8
0
 10
373.43908306558319
 20
91.339745962155575
 30
0.0
 11
366.69592525912969
 21
91.339745962309493
 31
0.0
  0
LINE
  5
1A95
  8
0
 10
366.69592525912969
 20
82.679491924311364
 30
0.0
 11
373.4390830654429
 21
82.679491924027602
 31
0.0
  0
LINE
  5
1A96
  8
0
 10
375.06750416235701
 20
85.499999999999744
 30
0.0
 11
373.43908306560661
 21
82.679491924311137
 31
0.0
  0
ARC
  5
1A97
  8
0
 10
367.11136078248569
 20
87.009618943233576
 30
0.0
 40
7.6674682452751783
 50
334.38424747045372
 51
34.384247468010692
  0
ARC
  5
1A98
  8
0
 10
367.11136078248569
 20
87.009618943233576
 30
0.0
 40
7.6674682452751783
 50
325.61575253198481
 51
325.61575253198799
  0
ARC
  5
1A99
  8
0
 10
394.016433334368
 20
100.0000000000732
 30
0.0
 40
28.6602540373928
 50
162.41204622587409
 51
197.5879537744338
  0
ARC
  5
1A9A
  8
0
 10
373.0236475422505
 20
87.009618943233576
 30
0.0
 40
7.6674682452751783
 50
214.3842474680107
 51
214.38424746801519
  0
ARC
  5
1A9B
  8
0
 10
373.0236475422505
 20
87.009618943233576
 30
0.0
 40
7.6674682452751783
 50
145.6157525319893
 51
205.61575252954631
  0
LINE
  5
1A9C
  8
0
 10
365.06750416237918
 20
85.499999999999744
 30
0.0
 11
366.69592525912958
 21
82.679491924311137
 31
0.0
  0
ARC
  5
1A9D
  8
0
 10
426.63000000000011
 20
114.40000000000001
 30
0.0
 40
1.0999999999999941
 50
0.0
 51
90.0
  0
ARC
  5
1A9E
  8
0
 10
426.63000000000011
 20
85.599999999999952
 30
0.0
 40
1.0999999999999901
 50
269.99999999999682
 51
0.0
  0
LINE
  5
1A9F
  8
3
 10
379.73000000000002
 20
190.9199999999999
 30
0.0
 11
381.3234867429635
 21
189.99999999999989
 31
0.0
  0
LINE
  5
1AA0
  8
3
 10
379.72999999999951
 20
209.07999999999981
 30
0.0
 11
381.32348674296293
 21
210.0
 31
0.0
  0
LINE
  5
1AA1
  8
3
 10
379.73000000000008
 20
90.920000000000002
 30
0.0
 11
381.32348674296361
 21
89.999999999999957
 31
0.0
  0
LINE
  5
1AA2
  8
3
 10
379.72999999999962
 20
109.0799999999998
 30
0.0
 11
381.32348674296298
 21
110.0
 31
0.0
  0
ENDSEC
  0
EOF
