  0
SECTION
  2
HEADER
  9
$ACADVER
  1
AC1009
  9
$INSBASE
 10
0.0
 20
0.0
 30
0.0
  9
$EXTMIN
 10
0.0
 20
-1.4802182810368341
 30
0.0
  9
$EXTMAX
 10
519.68238639142601
 20
219.49999999999989
 30
0.0
  9
$LIMMIN
 10
0.0
 20
0.0
  9
$LIMMAX
 10
385.0
 20
270.0
  9
$ORTHOMODE
 70
     1
  9
$REGENMODE
 70
     1
  9
$FILLMODE
 70
     1
  9
$QTEXTMODE
 70
     0
  9
$MIRRTEXT
 70
     0
  9
$DRAGMODE
 70
     2
  9
$LTSCALE
 40
10.0
  9
$OSMODE
 70
    37
  9
$ATTMODE
 70
     1
  9
$TEXTSIZE
 40
4.000000000000048
  9
$TRACEWID
 40
0.05
  9
$TEXTSTYLE
  7
STANDARD
  9
$CLAYER
  8
0
  9
$CELTYPE
  6
BYLAYER
  9
$CECOLOR
 62
   256
  9
$DIMSCALE
 40
1.0
  9
$DIMASZ
 40
3.0
  9
$DIMEXO
 40
2.0
  9
$DIMDLI
 40
0.38
  9
$DIMRND
 40
0.0
  9
$DIMDLE
 40
0.0
  9
$DIMEXE
 40
2.0
  9
$DIMTP
 40
0.0
  9
$DIMTM
 40
0.0
  9
$DIMTXT
 40
3.0
  9
$DIMCEN
 40
0.0
  9
$DIMTSZ
 40
0.0
  9
$DIMTOL
 70
     0
  9
$DIMLIM
 70
     0
  9
$DIMTIH
 70
     0
  9
$DIMTOH
 70
     0
  9
$DIMSE1
 70
     0
  9
$DIMSE2
 70
     0
  9
$DIMTAD
 70
     1
  9
$DIMZIN
 70
     0
  9
$DIMBLK
  1

  9
$DIMASO
 70
     1
  9
$DIMSHO
 70
     0
  9
$DIMPOST
  1

  9
$DIMAPOST
  1

  9
$DIMALT
 70
     0
  9
$DIMALTD
 70
     2
  9
$DIMALTF
 40
25.399999999999999
  9
$DIMLFAC
 40
1.0
  9
$DIMTOFL
 70
     1
  9
$DIMTVP
 40
1.6000000000000001
  9
$DIMTIX
 70
     1
  9
$DIMSOXD
 70
     0
  9
$DIMSAH
 70
     0
  9
$DIMBLK1
  1

  9
$DIMBLK2
  1

  9
$DIMSTYLE
  2
STANDARD
  9
$DIMCLRD
 70
     0
  9
$DIMCLRE
 70
     0
  9
$DIMCLRT
 70
     0
  9
$DIMTFAC
 40
1.0
  9
$DIMGAP
 40
1.0
  9
$LUNITS
 70
     2
  9
$LUPREC
 70
     4
  9
$SKETCHINC
 40
0.1
  9
$FILLETRAD
 40
0.0
  9
$AUNITS
 70
     0
  9
$AUPREC
 70
     4
  9
$MENU
  1
E:\r13\win\SUPPORT\ACAD
  9
$ELEVATION
 40
0.0
  9
$PELEVATION
 40
0.0
  9
$THICKNESS
 40
0.0
  9
$LIMCHECK
 70
     0
  9
$BLIPMODE
 70
     0
  9
$CHAMFERA
 40
0.0
  9
$CHAMFERB
 40
0.0
  9
$SKPOLY
 70
     0
  9
$TDCREATE
 40
2450280.598206134
  9
$TDUPDATE
 40
2459200.3877074891
  9
$TDINDWG
 40
0.105699294
  9
$TDUSRTIMER
 40
0.105699294
  9
$USRTIMER
 70
     1
  9
$ANGBASE
 50
0.0
  9
$ANGDIR
 70
     0
  9
$PDMODE
 70
     0
  9
$PDSIZE
 40
0.0
  9
$PLINEWID
 40
0.0
  9
$COORDS
 70
     1
  9
$SPLFRAME
 70
     0
  9
$SPLINETYPE
 70
     6
  9
$SPLINESEGS
 70
     8
  9
$ATTDIA
 70
     0
  9
$ATTREQ
 70
     1
  9
$HANDLING
 70
     1
  9
$HANDSEED
  5
1997
  9
$SURFTAB1
 70
     6
  9
$SURFTAB2
 70
     6
  9
$SURFTYPE
 70
     6
  9
$SURFU
 70
     6
  9
$SURFV
 70
     6
  9
$UCSNAME
  2

  9
$UCSORG
 10
0.0
 20
0.0
 30
0.0
  9
$UCSXDIR
 10
1.0
 20
0.0
 30
0.0
  9
$UCSYDIR
 10
0.0
 20
1.0
 30
0.0
  9
$PUCSNAME
  2

  9
$PUCSORG
 10
0.0
 20
0.0
 30
0.0
  9
$PUCSXDIR
 10
1.0
 20
0.0
 30
0.0
  9
$PUCSYDIR
 10
0.0
 20
1.0
 30
0.0
  9
$USERI1
 70
     3
  9
$USERI2
 70
     1
  9
$USERI3
 70
     1
  9
$USERI4
 70
     0
  9
$USERI5
 70
     0
  9
$USERR1
 40
1.0
  9
$USERR2
 40
3.0
  9
$USERR3
 40
3.0
  9
$USERR4
 40
3.0
  9
$USERR5
 40
10.0
  9
$WORLDVIEW
 70
     1
  9
$SHADEDGE
 70
     3
  9
$SHADEDIF
 70
    70
  9
$TILEMODE
 70
     1
  9
$MAXACTVP
 70
    16
  9
$PLIMCHECK
 70
     0
  9
$PEXTMIN
 10
1.0000000000000000E+020
 20
1.0000000000000000E+020
 30
1.0000000000000000E+020
  9
$PEXTMAX
 10
-1.0000000000000000E+020
 20
-1.0000000000000000E+020
 30
-1.0000000000000000E+020
  9
$PLIMMIN
 10
0.0
 20
0.0
  9
$PLIMMAX
 10
12.0
 20
9.0
  9
$UNITMODE
 70
     0
  9
$VISRETAIN
 70
     0
  9
$PLINEGEN
 70
     0
  9
$PSLTSCALE
 70
     0
  0
ENDSEC
  0
SECTION
  2
TABLES
  0
TABLE
  2
VPORT
 70
     1
  0
VPORT
  2
*ACTIVE
 70
     0
 10
0.0
 20
0.0
 11
1.0
 21
1.0
 12
490.3892050965465
 22
109.0121353728192
 13
0.0
 23
0.0
 14
5.0
 24
5.0
 15
10.0
 25
10.0
 16
0.0
 26
0.0
 36
1.0
 17
0.0
 27
0.0
 37
0.0
 40
407.4727220521134
 41
2.415644171779141
 42
50.0
 43
0.0
 44
0.0
 50
0.0
 51
0.0
 71
     0
 72
   500
 73
     1
 74
     0
 75
     0
 76
     0
 77
     0
 78
     2
  0
ENDTAB
  0
TABLE
  2
LTYPE
 70
     4
  0
LTYPE
  2
CONTINUOUS
 70
     0
  3
Solid Line
 72
    65
 73
     0
 40
0.0
  0
LTYPE
  2
CENTER
 70
     0
  3
____ _ ____ _ ____ _ ____ _ ____ _ ____ _ ____
 72
    65
 73
     4
 40
2.0
 49
1.25
 49
-0.25
 49
0.25
 49
-0.25
  0
LTYPE
  2
HIDDEN
 70
     0
  3
_ _ _ _ _ _ _ _ _ _ _ _ _ _ _ _ _ _ _ _ _ _ _
 72
    65
 73
     2
 40
0.375
 49
0.25
 49
-0.125
  0
LTYPE
  2
PHANTOM2
 70
     0
  3
___ _ _ ___ _ _ ___ _ _ ___ _ _
 72
    65
 73
     6
 40
1.25
 49
0.625
 49
-0.125
 49
0.125
 49
-0.125
 49
0.125
 49
-0.125
  0
ENDTAB
  0
TABLE
  2
LAYER
 70
     4
  0
LAYER
  2
0
 70
     0
 62
     7
  6
CONTINUOUS
  0
LAYER
  2
1
 70
     0
 62
     1
  6
CENTER
  0
LAYER
  2
3
 70
     0
 62
     3
  6
CONTINUOUS
  0
LAYER
  2
2
 70
     0
 62
     2
  6
HIDDEN
  0
ENDTAB
  0
TABLE
  2
STYLE
 70
     2
  0
STYLE
  2
STANDARD
 70
     0
 40
0.0
 41
1.0
 50
0.0
 71
     0
 42
4.000000000000048
  3
SIMPLEX
  4
BIGFONT
  0
STYLE
  2
STANDARD1
 70
     0
 40
0.0
 41
1.0
 50
0.0
 71
     0
 42
3.0
  3
txt
  4

  0
ENDTAB
  0
TABLE
  2
VIEW
 70
     0
  0
ENDTAB
  0
TABLE
  2
UCS
 70
     0
  0
ENDTAB
  0
TABLE
  2
APPID
 70
     4
  0
APPID
  2
ACAD
 70
     0
  0
APPID
  2
ACAD_MLEADERVER
 70
     0
  0
APPID
  2
ACAD_NAV_VCDISPLAY
 70
     0
  0
APPID
  2
ACAD_EXEMPT_FROM_CAD_STANDARDS
 70
     0
  0
ENDTAB
  0
TABLE
  2
DIMSTYLE
 70
     2
  0
DIMSTYLE
  2
STANDARD
 70
     0
  3

  4

  5

  6

  7

 40
1.0
 41
0.18
 42
0.0625
 43
0.38
 44
0.18
 45
0.0
 46
0.0
 47
0.0
 48
0.0
140
0.18
141
0.09
142
0.0
143
25.399999999999999
144
1.0
145
0.0
146
1.0
147
0.09
 71
     0
 72
     0
 73
     1
 74
     1
 75
     0
 76
     0
 77
     0
 78
     0
170
     0
171
     2
172
     0
173
     0
174
     0
175
     0
176
     0
177
     0
178
     0
  0
DIMSTYLE
  2
ISO-25
 70
     0
  3

  4

  5

  6

  7

 40
1.0
 41
2.5
 42
0.625
 43
3.75
 44
1.25
 45
0.0
 46
0.0
 47
0.0
 48
0.0
140
2.5
141
2.5
142
0.0
143
0.03937007874016
144
1.0
145
0.0
146
1.0
147
0.625
 71
     0
 72
     0
 73
     0
 74
     0
 75
     0
 76
     0
 77
     1
 78
     8
170
     0
171
     3
172
     1
173
     0
174
     0
175
     0
176
     0
177
     0
178
     0
  0
ENDTAB
  0
ENDSEC
  0
SECTION
  2
BLOCKS
  0
BLOCK
  8
0
  2
$MODEL_SPACE
 70
     0
 10
0.0
 20
0.0
 30
0.0
  3
$MODEL_SPACE
  1

  0
ENDBLK
  5
86E
  8
0
  0
BLOCK
 67
     1
  8
0
  2
$PAPER_SPACE
 70
     0
 10
0.0
 20
0.0
 30
0.0
  3
$PAPER_SPACE
  1

  0
ENDBLK
  5
86C
 67
     1
  8
0
  0
ENDSEC
  0
SECTION
  2
ENTITIES
  0
TEXT
  5
AEE
  8
0
 62
     3
 10
0.0
 20
0.0
 30
0.0
 40
5.0
  1
RANDX16-8-3M-G
  7
STANDARD1
  0
LINE
  5
F55
  8
0
 10
215.20614478465441
 20
202.5
 30
0.0
 11
145.72999999999999
 21
202.5
 31
0.0
  0
LINE
  5
F56
  8
0
 10
145.72999999999999
 20
197.5
 30
0.0
 11
216.25385521534571
 21
197.5
 31
0.0
  0
LINE
  5
F58
  8
0
 10
145.72999999999999
 20
202.75
 30
0.0
 11
143.0
 21
202.75
 31
0.0
  0
LINE
  5
F59
  8
0
 10
143.0
 20
197.25
 30
0.0
 11
145.72999999999999
 21
197.25
 31
0.0
  0
LINE
  5
F5A
  8
0
 10
145.72999999999999
 20
197.25
 30
0.0
 11
145.72999999999999
 21
202.75
 31
0.0
  0
ARC
  5
F5B
  8
0
 10
61.00000000000005
 20
200.0
 30
0.0
 40
8.0000000000000622
 50
157.88333686751639
 51
202.11666313248361
  0
LINE
  5
F5C
  8
0
 10
60.75
 20
203.90000000000001
 30
0.0
 11
60.673205080756873
 21
203.90000000000001
 31
0.0
  0
LINE
  5
F5D
  8
0
 10
60.673205080756873
 20
196.09999999999999
 30
0.0
 11
60.75
 21
196.09999999999999
 31
0.0
  0
LINE
  5
F5E
  8
0
 10
53.588646594438558
 20
196.98805034937939
 30
0.0
 11
55.300000000000011
 21
196.0
 31
0.0
  0
LINE
  5
F5F
  8
0
 10
55.300000000000011
 20
204.0
 30
0.0
 11
53.588646594438558
 21
203.01194965062049
 31
0.0
  0
LINE
  5
F60
  8
0
 10
53.588646594438558
 20
196.98805034937939
 30
0.0
 11
53.588646594438558
 21
203.01194965062049
 31
0.0
  0
LINE
  5
F61
  8
0
 10
60.5
 20
204.0
 30
0.0
 11
55.300000000000011
 21
204.0
 31
0.0
  0
LINE
  5
F62
  8
0
 10
55.300000000000011
 20
196.0
 30
0.0
 11
60.5
 21
196.0
 31
0.0
  0
LINE
  5
F63
  8
0
 10
55.300000000000011
 20
196.0
 30
0.0
 11
55.300000000000011
 21
204.0
 31
0.0
  0
LINE
  5
F64
  8
0
 10
60.673205080756873
 20
203.90000000000001
 30
0.0
 11
60.5
 21
204.0
 31
0.0
  0
LINE
  5
F65
  8
0
 10
60.5
 20
196.0
 30
0.0
 11
60.673205080756873
 21
196.09999999999999
 31
0.0
  0
LINE
  5
F66
  8
0
 10
60.5
 20
196.0
 30
0.0
 11
60.5
 21
204.0
 31
0.0
  0
ARC
  5
F68
  8
0
 10
60.75
 20
204.15000000000001
 30
0.0
 40
0.2500000000000004
 50
270.0
 51
0.0
  0
ARC
  5
F69
  8
0
 10
60.75
 20
195.84999999999999
 30
0.0
 40
0.2500000000000004
 50
0.0
 51
90.0
  0
LINE
  5
F6B
  8
0
 10
143.0
 20
193.5
 30
0.0
 11
133.0
 21
193.5
 31
0.0
  0
LINE
  5
F6C
  8
0
 10
143.0
 20
193.5
 30
0.0
 11
143.0
 21
206.5
 31
0.0
  0
LINE
  5
F6D
  8
0
 10
133.0
 20
206.5
 30
0.0
 11
143.0
 21
206.5
 31
0.0
  0
LINE
  5
F72
  8
0
 10
133.0
 20
200.0
 30
0.0
 11
142.41944341639919
 21
200.0
 31
0.0
  0
LINE
  5
F73
  8
0
 10
72.5
 20
208.0
 30
0.0
 11
61.920000000000009
 21
208.0
 31
0.0
  0
LINE
  5
F74
  8
0
 10
61.920000000000009
 20
192.0
 30
0.0
 11
72.5
 21
192.0
 31
0.0
  0
LINE
  5
F75
  8
0
 10
84.0
 20
208.0
 30
0.0
 11
80.5
 21
208.0
 31
0.0
  0
LINE
  5
F76
  8
0
 10
80.5
 20
192.0
 30
0.0
 11
84.0
 21
192.0
 31
0.0
  0
LINE
  5
F77
  8
0
 10
61.0
 20
192.9199999999999
 30
0.0
 11
61.920000000000009
 21
192.0
 31
0.0
  0
LINE
  5
F78
  8
0
 10
61.920000000000009
 20
208.0
 30
0.0
 11
61.0
 21
207.08000000000001
 31
0.0
  0
LINE
  5
F79
  8
0
 10
61.0
 20
192.9199999999999
 30
0.0
 11
61.0
 21
207.08000000000001
 31
0.0
  0
LINE
  5
F7A
  8
0
 10
61.920000000000009
 20
192.0
 30
0.0
 11
61.920000000000009
 21
208.0
 31
0.0
  0
LINE
  5
F7B
  8
0
 10
84.0
 20
191.0
 30
0.0
 11
84.500000000000014
 21
190.5
 31
0.0
  0
LINE
  5
F7C
  8
0
 10
84.500000000000014
 20
209.5
 30
0.0
 11
84.0
 21
209.0
 31
0.0
  0
LINE
  5
F7D
  8
0
 10
84.0
 20
191.0
 30
0.0
 11
84.0
 21
209.0
 31
0.0
  0
LINE
  5
F7E
  8
0
 10
133.0
 20
209.0
 30
0.0
 11
133.0
 21
191.0
 31
0.0
  0
LINE
  5
F7F
  8
0
 10
133.0
 20
209.0
 30
0.0
 11
132.5
 21
209.5
 31
0.0
  0
LINE
  5
F80
  8
0
 10
132.5
 20
190.5
 30
0.0
 11
133.0
 21
191.0
 31
0.0
  0
LINE
  5
F81
  8
0
 10
132.5
 20
209.5
 30
0.0
 11
84.500000000000014
 21
209.5
 31
0.0
  0
LINE
  5
F82
  8
0
 10
84.500000000000014
 20
190.5
 30
0.0
 11
132.5
 21
190.5
 31
0.0
  0
LINE
  5
F83
  8
0
 10
84.500000000000014
 20
190.5
 30
0.0
 11
84.500000000000014
 21
209.5
 31
0.0
  0
LINE
  5
F84
  8
0
 10
132.5
 20
190.5
 30
0.0
 11
132.5
 21
209.5
 31
0.0
  0
LINE
  5
F85
  8
0
 10
80.5
 20
188.0
 30
0.0
 11
80.5
 21
212.0
 31
0.0
  0
LINE
  5
F86
  8
0
 10
72.5
 20
188.0
 30
0.0
 11
80.5
 21
188.0
 31
0.0
  0
LINE
  5
F87
  8
0
 10
72.5
 20
188.0
 30
0.0
 11
72.5
 21
212.0
 31
0.0
  0
LINE
  5
F88
  8
0
 10
80.5
 20
212.0
 30
0.0
 11
72.5
 21
212.0
 31
0.0
  0
LINE
  5
F8D
  8
0
 10
79.428203230275528
 20
200.0
 30
0.0
 11
73.571796769724472
 21
200.0
 31
0.0
  0
LINE
  5
F92
  8
3
 10
61.0
 20
192.9199999999999
 30
0.0
 11
72.5
 21
192.9199999999999
 31
0.0
  0
LINE
  5
F93
  8
3
 10
61.0
 20
207.08000000000001
 30
0.0
 11
72.5
 21
207.0799999999999
 31
0.0
  0
LINE
  5
F94
  8
1
 10
218.72999999999999
 20
199.99999999999989
 30
0.0
 11
50.0
 21
200.0
 31
0.0
  0
LINE
  5
F96
  8
0
 10
215.2061447846543
 20
102.5
 30
0.0
 11
145.7299999999999
 21
102.5
 31
0.0
  0
LINE
  5
F97
  8
0
 10
145.7299999999999
 20
97.5
 30
0.0
 11
216.2538552153456
 21
97.5
 31
0.0
  0
LINE
  5
F98
  8
0
 10
145.7299999999999
 20
97.250000000000014
 30
0.0
 11
145.7299999999999
 21
102.75
 31
0.0
  0
LINE
  5
F99
  8
0
 10
145.7299999999999
 20
102.75
 30
0.0
 11
142.99999999999989
 21
102.75
 31
0.0
  0
LINE
  5
F9A
  8
0
 10
142.99999999999989
 20
97.250000000000014
 30
0.0
 11
145.7299999999999
 21
97.250000000000014
 31
0.0
  0
ARC
  5
F9B
  8
0
 10
61.000000000000071
 20
100.0
 30
0.0
 40
8.0000000000000746
 50
157.88333686751639
 51
202.11666313248361
  0
LINE
  5
F9C
  8
0
 10
142.41944341639919
 20
92.494446500534806
 30
0.0
 11
142.99999999999989
 21
93.499999999999986
 31
0.0
  0
LINE
  5
F9D
  8
0
 10
142.99999999999989
 20
93.499999999999986
 30
0.0
 11
142.99999999999989
 21
106.5
 31
0.0
  0
LINE
  5
F9E
  8
0
 10
142.99999999999989
 20
106.5
 30
0.0
 11
142.41944341639919
 21
107.50555349946509
 31
0.0
  0
LINE
  5
F9F
  8
0
 10
60.74999999999995
 20
103.89999999999991
 30
0.0
 11
60.67320508075688
 21
103.89999999999991
 31
0.0
  0
LINE
  5
FA0
  8
0
 10
60.67320508075688
 20
96.100000000000023
 30
0.0
 11
60.74999999999995
 21
96.100000000000023
 31
0.0
  0
LINE
  5
FA1
  8
0
 10
60.499999999999957
 20
104.0
 30
0.0
 11
55.299999999999969
 21
104.0
 31
0.0
  0
LINE
  5
FA2
  8
0
 10
55.299999999999969
 20
96.0
 30
0.0
 11
60.499999999999957
 21
96.0
 31
0.0
  0
LINE
  5
FA3
  8
0
 10
53.588646594438572
 20
96.988050349379463
 30
0.0
 11
53.588646594438572
 21
103.01194965062049
 31
0.0
  0
LINE
  5
FA4
  8
0
 10
55.299999999999969
 20
96.0
 30
0.0
 11
55.299999999999969
 21
104.0
 31
0.0
  0
LINE
  5
FA5
  8
0
 10
53.588646594438572
 20
96.988050349379463
 30
0.0
 11
55.299999999999969
 21
96.0
 31
0.0
  0
LINE
  5
FA6
  8
0
 10
55.299999999999969
 20
104.0
 30
0.0
 11
53.588646594438572
 21
103.01194965062049
 31
0.0
  0
LINE
  5
FA7
  8
0
 10
60.499999999999957
 20
96.0
 30
0.0
 11
60.499999999999957
 21
104.0
 31
0.0
  0
LINE
  5
FA9
  8
0
 10
60.67320508075688
 20
103.89999999999991
 30
0.0
 11
60.499999999999957
 21
104.0
 31
0.0
  0
LINE
  5
FAA
  8
0
 10
60.499999999999957
 20
96.0
 30
0.0
 11
60.67320508075688
 21
96.100000000000023
 31
0.0
  0
ARC
  5
FAC
  8
0
 10
60.74999999999995
 20
104.15000000000001
 30
0.0
 40
0.2500000000000004
 50
270.0
 51
0.0
  0
ARC
  5
FAD
  8
0
 10
60.74999999999995
 20
95.850000000000023
 30
0.0
 40
0.2500000000000004
 50
0.0
 51
90.0
  0
LINE
  5
FAE
  8
0
 10
72.499999999999957
 20
88.0
 30
0.0
 11
73.571796769724486
 21
86.143593539449
 31
0.0
  0
LINE
  5
FAF
  8
0
 10
72.499999999999957
 20
88.0
 30
0.0
 11
72.499999999999957
 21
112.0
 31
0.0
  0
LINE
  5
FB0
  8
0
 10
79.428203230275486
 20
86.143593539449
 30
0.0
 11
80.499999999999943
 21
88.0
 31
0.0
  0
LINE
  5
FB1
  8
0
 10
80.499999999999943
 20
88.0
 30
0.0
 11
80.499999999999943
 21
112.0
 31
0.0
  0
LINE
  5
FB2
  8
0
 10
73.571796769724486
 20
113.856406460551
 30
0.0
 11
72.499999999999957
 21
112.0
 31
0.0
  0
LINE
  5
FB3
  8
0
 10
80.499999999999943
 20
112.0
 30
0.0
 11
79.428203230275486
 21
113.856406460551
 31
0.0
  0
LINE
  5
FB8
  8
0
 10
133.0
 20
96.247223250267453
 30
0.0
 11
142.41944341639919
 21
96.247223250267453
 31
0.0
  0
LINE
  5
FB9
  8
0
 10
133.0
 20
92.494446500534806
 30
0.0
 11
142.41944341639919
 21
92.494446500534806
 31
0.0
  0
LINE
  5
FBC
  8
0
 10
133.0
 20
107.50555349946509
 30
0.0
 11
142.41944341639919
 21
107.50555349946509
 31
0.0
  0
LINE
  5
FBD
  8
0
 10
133.0
 20
103.7527767497325
 30
0.0
 11
142.41944341639919
 21
103.7527767497325
 31
0.0
  0
LINE
  5
FBE
  8
0
 10
72.499999999999957
 20
108.0
 30
0.0
 11
61.919999999999973
 21
108.0
 31
0.0
  0
LINE
  5
FBF
  8
0
 10
61.919999999999973
 20
92.0
 30
0.0
 11
72.499999999999957
 21
92.0
 31
0.0
  0
LINE
  5
FC0
  8
0
 10
60.999999999999957
 20
92.920000000000016
 30
0.0
 11
60.999999999999957
 21
107.08
 31
0.0
  0
LINE
  5
FC1
  8
0
 10
61.919999999999973
 20
92.0
 30
0.0
 11
61.919999999999973
 21
108.0
 31
0.0
  0
LINE
  5
FC2
  8
0
 10
60.999999999999957
 20
92.920000000000016
 30
0.0
 11
61.919999999999973
 21
92.0
 31
0.0
  0
LINE
  5
FC3
  8
0
 10
61.919999999999973
 20
108.0
 30
0.0
 11
60.999999999999957
 21
107.08
 31
0.0
  0
LINE
  5
FC4
  8
0
 10
83.999999999999957
 20
108.0
 30
0.0
 11
80.499999999999943
 21
108.0
 31
0.0
  0
LINE
  5
FC5
  8
0
 10
80.499999999999943
 20
92.0
 30
0.0
 11
83.999999999999957
 21
92.0
 31
0.0
  0
LINE
  5
FC6
  8
0
 10
83.999999999999957
 20
91.0
 30
0.0
 11
83.999999999999957
 21
109.0
 31
0.0
  0
LINE
  5
FC7
  8
0
 10
83.999999999999957
 20
91.0
 30
0.0
 11
84.499999999999943
 21
90.5
 31
0.0
  0
LINE
  5
FC8
  8
0
 10
84.499999999999943
 20
109.5
 30
0.0
 11
83.999999999999957
 21
109.0
 31
0.0
  0
LINE
  5
FC9
  8
0
 10
133.0
 20
109.0
 30
0.0
 11
133.0
 21
91.0
 31
0.0
  0
LINE
  5
FCA
  8
0
 10
133.0
 20
109.0
 30
0.0
 11
132.5
 21
109.5
 31
0.0
  0
LINE
  5
FCB
  8
0
 10
132.5
 20
90.5
 30
0.0
 11
133.0
 21
91.0
 31
0.0
  0
LINE
  5
FCC
  8
0
 10
84.499999999999943
 20
90.5
 30
0.0
 11
84.499999999999943
 21
109.5
 31
0.0
  0
LINE
  5
FCD
  8
0
 10
132.5
 20
90.5
 30
0.0
 11
132.5
 21
109.5
 31
0.0
  0
LINE
  5
FCE
  8
0
 10
132.5
 20
109.5
 30
0.0
 11
84.499999999999943
 21
109.5
 31
0.0
  0
LINE
  5
FCF
  8
0
 10
84.499999999999943
 20
90.5
 30
0.0
 11
132.5
 21
90.5
 31
0.0
  0
LINE
  5
FD2
  8
0
 10
79.428203230275486
 20
86.143593539449
 30
0.0
 11
73.571796769724486
 21
86.143593539449
 31
0.0
  0
LINE
  5
FD4
  8
0
 10
79.428203230275486
 20
93.071796769724472
 30
0.0
 11
73.571796769724486
 21
93.071796769724472
 31
0.0
  0
LINE
  5
FD7
  8
0
 10
79.428203230275486
 20
106.9282032302754
 30
0.0
 11
73.571796769724486
 21
106.9282032302754
 31
0.0
  0
LINE
  5
FD9
  8
0
 10
79.428203230275486
 20
113.856406460551
 30
0.0
 11
73.571796769724486
 21
113.856406460551
 31
0.0
  0
LINE
  5
FE0
  8
3
 10
60.999999999999957
 20
107.08
 30
0.0
 11
72.499999999999957
 21
107.08
 31
0.0
  0
LINE
  5
FE1
  8
3
 10
60.999999999999957
 20
92.920000000000016
 30
0.0
 11
72.499999999999957
 21
92.920000000000016
 31
0.0
  0
LINE
  5
FE2
  8
1
 10
218.72999999999999
 20
100.0
 30
0.0
 11
50.0
 21
100.0
 31
0.0
  0
LINE
  5
103E
  8
3
 10
80.5
 20
207.0799999999999
 30
0.0
 11
84.0
 21
207.08000000000001
 31
0.0
  0
LINE
  5
103F
  8
3
 10
80.5
 20
192.9199999999999
 30
0.0
 11
84.0
 21
192.9199999999999
 31
0.0
  0
LINE
  5
1040
  8
3
 10
80.499999999999943
 20
107.08
 30
0.0
 11
83.999999999999957
 21
107.08
 31
0.0
  0
LINE
  5
1041
  8
3
 10
80.499999999999943
 20
92.920000000000016
 30
0.0
 11
83.999999999999957
 21
92.920000000000016
 31
0.0
  0
ARC
  5
1042
  8
0
 10
89.830127018922468
 20
206.0
 30
0.0
 40
17.330127018922472
 50
159.74384199958311
 51
200.25615800041689
  0
ARC
  5
1043
  8
0
 10
89.830127018922468
 20
194.0
 30
0.0
 40
17.330127018922472
 50
159.74384199958311
 51
200.25615800041689
  0
ARC
  5
1044
  8
0
 10
63.169872981077532
 20
206.0
 30
0.0
 40
17.330127018922472
 50
339.74384199958308
 51
20.256158000416921
  0
ARC
  5
1045
  8
0
 10
63.169872981077532
 20
194.0
 30
0.0
 40
17.330127018922472
 50
339.74384199958308
 51
20.256158000416921
  0
ARC
  5
1047
  8
0
 10
133.61284786475039
 20
203.24999999999989
 30
0.0
 40
9.3871521352496181
 50
339.74384199958462
 51
20.256158000416921
  0
ARC
  5
1048
  8
0
 10
133.61284786475039
 20
196.75
 30
0.0
 40
9.3871521352496181
 50
339.74384199958308
 51
20.256158000416921
  0
ARC
  5
1049
  8
0
 10
78.633974596215296
 20
110.39230484541319
 30
0.0
 40
6.133974596215336
 50
145.6157525319577
 51
214.38424746804361
  0
ARC
  5
104A
  8
0
 10
95.428203230274676
 20
99.999999999999886
 30
0.0
 40
22.928203230274718
 50
162.4120462260054
 51
197.58795377399451
  0
ARC
  5
104B
  8
0
 10
78.633974596215296
 20
89.607695154586736
 30
0.0
 40
6.133974596215336
 50
145.61575253195409
 51
214.38424746804591
  0
ARC
  5
104C
  8
0
 10
74.366025403784676
 20
110.39230484541319
 30
0.0
 40
6.133974596215336
 50
325.6157525319577
 51
34.384247468042318
  0
ARC
  5
104D
  8
0
 10
57.571796769725303
 20
99.999999999999886
 30
0.0
 40
22.928203230274718
 50
342.41204622600537
 51
17.587953773994549
  0
ARC
  5
104E
  8
0
 10
74.366025403784676
 20
89.607695154586736
 30
0.0
 40
6.133974596215336
 50
325.61575253195412
 51
34.38424746804592
  0
ARC
  5
104F
  8
0
 10
139.6774304270495
 20
105.6291651245988
 30
0.0
 40
3.3225695729504081
 50
325.61575253196128
 51
34.384247468038708
  0
ARC
  5
1050
  8
0
 10
130.58055658359939
 20
99.999999999999943
 30
0.0
 40
12.419443416400529
 50
342.41204622600901
 51
17.58795377399251
  0
ARC
  5
1051
  8
0
 10
139.6774304270495
 20
94.370834875401158
 30
0.0
 40
3.3225695729504081
 50
325.61575253196128
 51
34.384247468038708
  0
ARC
  5
10A9
  8
3
 10
222.03
 20
202.625
 30
0.0
 40
6.82499999999997
 50
157.38013505195971
 51
202.61986494804029
  0
ARC
  5
10AA
  8
3
 10
209.43000000000001
 20
197.375
 30
0.0
 40
6.82499999999997
 50
337.38013505195971
 51
22.619864948040298
  0
ARC
  5
10B3
  8
3
 10
222.02999999999989
 20
102.625
 30
0.0
 40
6.82499999999997
 50
157.38013505195971
 51
202.61986494804029
  0
ARC
  5
10B4
  8
3
 10
209.43000000000001
 20
97.375000000000057
 30
0.0
 40
6.82499999999997
 50
337.38013505195971
 51
22.619864948040298
  0
LINE
  5
175B
  8
2
 10
364.73000000000008
 20
96.999999999999986
 30
0.0
 11
364.73000000000008
 21
103.0
 31
0.0
  0
LINE
  5
175C
  8
2
 10
364.73000000000008
 20
102.4584999999999
 30
0.0
 11
355.27150000000012
 21
102.4584999999999
 31
0.0
  0
LINE
  5
175D
  8
2
 10
355.27150000000012
 20
97.541500000000013
 30
0.0
 11
364.73000000000008
 21
97.541500000000013
 31
0.0
  0
LINE
  5
175E
  8
2
 10
355.27150000000012
 20
97.541500000000013
 30
0.0
 11
355.27150000000012
 21
102.4584999999999
 31
0.0
  0
LINE
  5
175F
  8
2
 10
355.27150000000012
 20
102.4584999999999
 30
0.0
 11
354.73000000000008
 21
103.0
 31
0.0
  0
LINE
  5
1760
  8
2
 10
354.73000000000008
 20
96.999999999999986
 30
0.0
 11
355.27150000000012
 21
97.541500000000013
 31
0.0
  0
LINE
  5
1761
  8
0
 10
394.42994333268979
 20
87.298294077828231
 30
0.0
 11
394.73000000000008
 21
88.999999999999986
 31
0.0
  0
LINE
  5
1762
  8
0
 10
394.73000000000008
 20
88.999999999999986
 30
0.0
 11
394.73000000000019
 21
111.0
 31
0.0
  0
LINE
  5
1763
  8
0
 10
394.73000000000019
 20
111.0
 30
0.0
 11
394.4299433326899
 21
112.7017059221717
 31
0.0
  0
LINE
  5
1764
  8
0
 10
354.73000000000008
 20
90.919999999999945
 30
0.0
 11
354.73000000000008
 21
109.08
 31
0.0
  0
LINE
  5
1765
  8
0
 10
354.73000000000008
 20
90.919999999999945
 30
0.0
 11
355.65000000000009
 21
89.999999999999986
 31
0.0
  0
LINE
  5
1766
  8
0
 10
355.65000000000009
 20
110.0
 30
0.0
 11
354.73000000000008
 21
109.08
 31
0.0
  0
LINE
  5
1767
  8
0
 10
355.65000000000009
 20
89.999999999999986
 30
0.0
 11
355.65000000000009
 21
110.0
 31
0.0
  0
LINE
  5
1768
  8
0
 10
382.73000000000008
 20
110.0
 30
0.0
 11
375.06750416235661
 21
109.9999999999999
 31
0.0
  0
LINE
  5
1769
  8
0
 10
365.06750416237958
 20
109.9999999999999
 30
0.0
 11
355.65000000000009
 21
110.0
 31
0.0
  0
LINE
  5
176A
  8
0
 10
355.65000000000009
 20
89.999999999999986
 30
0.0
 11
365.06750416237929
 21
89.999999999999986
 31
0.0
  0
LINE
  5
176B
  8
0
 10
375.06750416235678
 20
89.999999999999986
 30
0.0
 11
382.73000000000008
 21
89.999999999999986
 31
0.0
  0
LINE
  5
176C
  8
0
 10
394.4299433326899
 20
112.7017059221717
 30
0.0
 11
382.73000000000008
 21
112.7017059221717
 31
0.0
  0
LINE
  5
176D
  8
0
 10
409.68000000000001
 20
111.0
 30
0.0
 11
395.43000000000012
 21
111.0
 31
0.0
  0
LINE
  5
176E
  8
0
 10
395.43000000000012
 20
88.999999999999986
 30
0.0
 11
409.68000000000001
 21
88.999999999999986
 31
0.0
  0
LINE
  5
176F
  8
0
 10
382.73000000000008
 20
112.7017059221717
 30
0.0
 11
382.73000000000008
 21
87.298294077828231
 31
0.0
  0
LINE
  5
1770
  8
0
 10
379.73000000000008
 20
109.9999999999999
 30
0.0
 11
379.73000000000008
 21
89.999999999999986
 31
0.0
  0
LINE
  5
1771
  8
0
 10
394.42994333268979
 20
87.298294077828231
 30
0.0
 11
382.73000000000008
 21
87.298294077828231
 31
0.0
  0
LINE
  5
1772
  8
0
 10
394.4299433326899
 20
106.35085296108581
 30
0.0
 11
382.73000000000008
 21
106.35085296108581
 31
0.0
  0
LINE
  5
1773
  8
0
 10
394.42994333268979
 20
93.649147038914165
 30
0.0
 11
382.73000000000008
 21
93.649147038914165
 31
0.0
  0
LINE
  5
1774
  8
0
 10
395.43000000000012
 20
88.999999999999986
 30
0.0
 11
395.43000000000012
 21
111.0
 31
0.0
  0
LINE
  5
1775
  8
0
 10
394.73000000000008
 20
89.700000000000045
 30
0.0
 11
395.43000000000012
 21
88.999999999999986
 31
0.0
  0
LINE
  5
1776
  8
0
 10
395.43000000000012
 20
111.0
 30
0.0
 11
394.73000000000019
 21
110.2999999999999
 31
0.0
  0
POLYLINE
  5
1777
  8
0
 66
     1
 10
0.0
 20
0.0
 30
0.0
  0
VERTEX
  5
1962
  8
0
 10
426.73000000000002
 20
85.333411463046318
 30
0.0
  0
VERTEX
  5
1963
  8
0
 10
426.75617949756651
 20
85.426992433632094
 30
0.0
  0
VERTEX
  5
1964
  8
0
 10
426.83662948126641
 20
85.534315807594425
 30
0.0
  0
VERTEX
  5
1965
  8
0
 10
426.93965553803793
 20
85.635144196695691
 30
0.0
  0
VERTEX
  5
1966
  8
0
 10
427.07176375240209
 20
85.755317080600875
 30
0.0
  0
VERTEX
  5
1967
  8
0
 10
427.21598455856611
 20
85.894054488074957
 30
0.0
  0
VERTEX
  5
1968
  8
0
 10
427.36637485151391
 20
86.062227393684211
 30
0.0
  0
VERTEX
  5
1969
  8
0
 10
427.49689531584289
 20
86.244799967942043
 30
0.0
  0
VERTEX
  5
196A
  8
0
 10
427.60780761711078
 20
86.454345147021613
 30
0.0
  0
VERTEX
  5
196B
  8
0
 10
427.68387190071297
 20
86.672766016802683
 30
0.0
  0
VERTEX
  5
196C
  8
0
 10
427.72482997436299
 20
86.908347673737339
 30
0.0
  0
VERTEX
  5
196D
  8
0
 10
427.73000000000008
 20
87.027047367696113
 30
0.0
  0
SEQEND
  5
196E
  8
0
  0
POLYLINE
  5
1778
  8
0
 66
     1
 10
0.0
 20
0.0
 30
0.0
  0
VERTEX
  5
196F
  8
0
 10
427.73000000000008
 20
112.9729526323038
 30
0.0
  0
VERTEX
  5
1970
  8
0
 10
427.7258294238639
 20
113.07954520211879
 30
0.0
  0
VERTEX
  5
1971
  8
0
 10
427.6927506519533
 20
113.2915044262142
 30
0.0
  0
VERTEX
  5
1972
  8
0
 10
427.62662167372741
 20
113.5006889134122
 30
0.0
  0
VERTEX
  5
1973
  8
0
 10
427.52821961225311
 20
113.7030399185375
 30
0.0
  0
VERTEX
  5
1974
  8
0
 10
427.40260458069059
 20
113.89152782339561
 30
0.0
  0
VERTEX
  5
1975
  8
0
 10
427.26365880513561
 20
114.0560203906311
 30
0.0
  0
VERTEX
  5
1976
  8
0
 10
427.11832242630049
 20
114.20142325938239
 30
0.0
  0
VERTEX
  5
1977
  8
0
 10
426.98645772214758
 20
114.3221872845688
 30
0.0
  0
VERTEX
  5
1978
  8
0
 10
426.87241925057242
 20
114.42875784465851
 30
0.0
  0
VERTEX
  5
1979
  8
0
 10
426.78872608515508
 20
114.5224984551425
 30
0.0
  0
VERTEX
  5
197A
  8
0
 10
426.7398723001358
 20
114.61017751865251
 30
0.0
  0
VERTEX
  5
197B
  8
0
 10
426.73000000000008
 20
114.6665885369535
 30
0.0
  0
SEQEND
  5
197C
  8
0
  0
POLYLINE
  5
1779
  8
0
 66
     1
 10
0.0
 20
0.0
 30
0.0
  0
VERTEX
  5
197D
  8
0
 10
426.73000000000008
 20
114.6665885369535
 30
0.0
  0
VERTEX
  5
197E
  8
0
 10
426.74639219385239
 20
114.7332438299572
 30
0.0
  0
VERTEX
  5
197F
  8
0
 10
426.79813373141428
 20
114.79220485729741
 30
0.0
  0
VERTEX
  5
1980
  8
0
 10
426.86383183461589
 20
114.8274635622289
 30
0.0
  0
VERTEX
  5
1981
  8
0
 10
426.95383885695838
 20
114.8478327062153
 30
0.0
  0
VERTEX
  5
1982
  8
0
 10
427.12965997681118
 20
114.83172752524371
 30
0.0
  0
VERTEX
  5
1983
  8
0
 10
427.22819678202671
 20
114.795741760402
 30
0.0
  0
VERTEX
  5
1984
  8
0
 10
427.33192354754232
 20
114.73617039410939
 30
0.0
  0
VERTEX
  5
1985
  8
0
 10
427.49559424654279
 20
114.5850758896438
 30
0.0
  0
VERTEX
  5
1986
  8
0
 10
427.62576654429728
 20
114.3793472652748
 30
0.0
  0
VERTEX
  5
1987
  8
0
 10
427.71313041840341
 20
114.10077963053369
 30
0.0
  0
VERTEX
  5
1988
  8
0
 10
427.73000000000008
 20
113.903147125741
 30
0.0
  0
SEQEND
  5
1989
  8
0
  0
LINE
  5
177A
  8
0
 10
427.73000000000008
 20
85.6000000000016
 30
0.0
 11
427.73000000000008
 21
114.40000000000001
 31
0.0
  0
POLYLINE
  5
177B
  8
0
 66
     1
 10
0.0
 20
0.0
 30
0.0
  0
VERTEX
  5
198A
  8
0
 10
427.73000000000008
 20
86.096852874263504
 30
0.0
  0
VERTEX
  5
198B
  8
0
 10
427.68864458457051
 20
85.790261365731212
 30
0.0
  0
VERTEX
  5
198C
  8
0
 10
427.63586399830541
 20
85.642728195817085
 30
0.0
  0
VERTEX
  5
198D
  8
0
 10
427.55996113115049
 20
85.502411752545953
 30
0.0
  0
VERTEX
  5
198E
  8
0
 10
427.39638537691002
 20
85.313697526346218
 30
0.0
  0
VERTEX
  5
198F
  8
0
 10
427.20324121671302
 20
85.193326860406373
 30
0.0
  0
VERTEX
  5
1990
  8
0
 10
427.03633744393579
 20
85.151731114925695
 30
0.0
  0
VERTEX
  5
1991
  8
0
 10
426.94298436757339
 20
85.153400335440878
 30
0.0
  0
VERTEX
  5
1992
  8
0
 10
426.86381634233231
 20
85.172542229282371
 30
0.0
  0
VERTEX
  5
1993
  8
0
 10
426.78974433152672
 20
85.214418198359098
 30
0.0
  0
VERTEX
  5
1994
  8
0
 10
426.74441675747028
 20
85.270651354474339
 30
0.0
  0
VERTEX
  5
1995
  8
0
 10
426.73000000000002
 20
85.333411463046318
 30
0.0
  0
SEQEND
  5
1996
  8
0
  0
LINE
  5
177C
  8
0
 10
426.63000000000011
 20
115.5
 30
0.0
 11
421.73000000000008
 21
115.5
 31
0.0
  0
LINE
  5
177D
  8
0
 10
421.73000000000002
 20
84.499999999999986
 30
0.0
 11
426.63000000000011
 21
84.499999999999986
 31
0.0
  0
LINE
  5
177E
  8
0
 10
409.68000000000001
 20
88.999999999999986
 30
0.0
 11
409.68000000000001
 21
111.0
 31
0.0
  0
LINE
  5
177F
  8
0
 10
409.68000000000001
 20
88.999999999999986
 30
0.0
 11
416.97874651891237
 21
83.499999999999986
 31
0.0
  0
LINE
  5
1780
  8
0
 10
416.97874651891237
 20
116.5
 30
0.0
 11
409.68000000000001
 21
111.0
 31
0.0
  0
LINE
  5
1781
  8
0
 10
421.73000000000002
 20
84.499999999999986
 30
0.0
 11
421.73000000000008
 21
115.5
 31
0.0
  0
ARC
  5
1782
  8
0
 10
419.73000000000019
 20
114.0
 30
0.0
 40
2.4999999999999551
 50
36.869897645845647
 51
90.0
  0
ARC
  5
1783
  8
0
 10
419.73000000000008
 20
85.999999999999986
 30
0.0
 40
2.4999999999999569
 50
269.99999999999841
 51
323.13010235415442
  0
LINE
  5
1784
  8
0
 10
416.97874651891237
 20
83.499999999999986
 30
0.0
 11
416.97874651891237
 21
116.5
 31
0.0
  0
LINE
  5
1785
  8
0
 10
419.73000000000008
 20
83.499999999999986
 30
0.0
 11
419.73000000000008
 21
116.5
 31
0.0
  0
LINE
  5
1786
  8
0
 10
419.73000000000008
 20
116.5
 30
0.0
 11
416.97874651891237
 21
116.5
 31
0.0
  0
LINE
  5
1787
  8
0
 10
416.97874651891237
 20
83.499999999999986
 30
0.0
 11
419.73000000000008
 21
83.499999999999986
 31
0.0
  0
LINE
  5
1788
  8
3
 10
354.73000000000008
 20
109.08
 30
0.0
 11
365.06750416237958
 21
109.08
 31
0.0
  0
LINE
  5
1789
  8
3
 10
375.06750416235673
 20
109.08
 30
0.0
 11
379.73000000000008
 21
109.08
 31
0.0
  0
LINE
  5
178A
  8
2
 10
354.73000000000008
 20
103.0
 30
0.0
 11
364.73000000000008
 21
103.0
 31
0.0
  0
LINE
  5
178B
  8
3
 10
354.73000000000008
 20
90.919999999999945
 30
0.0
 11
365.06750416237929
 21
90.919999999999945
 31
0.0
  0
LINE
  5
178C
  8
3
 10
375.06750416235678
 20
90.919999999999931
 30
0.0
 11
379.73000000000002
 21
90.919999999999931
 31
0.0
  0
LINE
  5
178D
  8
2
 10
354.73000000000008
 20
96.999999999999986
 30
0.0
 11
364.73000000000008
 21
96.999999999999986
 31
0.0
  0
LINE
  5
178E
  8
1
 10
430.73000000000002
 20
100.0
 30
0.0
 11
351.73000000000008
 21
100.0
 31
0.0
  0
ARC
  5
178F
  8
0
 10
377.77758993005068
 20
109.5262794416288
 30
0.0
 40
16.952410069949451
 50
349.20391693320909
 51
10.796083066790921
  0
ARC
  5
1790
  8
0
 10
327.37042889420701
 20
100.00000074777201
 30
0.0
 40
67.359571105793123
 50
354.58995395161969
 51
5.4100451946066608
  0
ARC
  5
1791
  8
0
 10
377.77758993005068
 20
90.47372055837117
 30
0.0
 40
16.952410069949451
 50
349.20391693320909
 51
10.796083066790921
  0
LINE
  5
1792
  8
2
 10
364.73000000000008
 20
202.45849999999999
 30
0.0
 11
355.2715
 21
202.45849999999999
 31
0.0
  0
LINE
  5
1793
  8
2
 10
355.2715
 20
197.54150000000001
 30
0.0
 11
364.73000000000008
 21
197.5414999999999
 31
0.0
  0
LINE
  5
1794
  8
2
 10
364.73000000000008
 20
196.99999999999989
 30
0.0
 11
364.73000000000008
 21
202.99999999999989
 31
0.0
  0
LINE
  5
1795
  8
2
 10
355.2715
 20
202.45849999999999
 30
0.0
 11
354.73000000000008
 21
203.0
 31
0.0
  0
LINE
  5
1796
  8
2
 10
354.73000000000008
 20
197.0
 30
0.0
 11
355.2715
 21
197.54150000000001
 31
0.0
  0
LINE
  5
1797
  8
2
 10
355.2715
 20
197.54150000000001
 30
0.0
 11
355.2715
 21
202.45849999999999
 31
0.0
  0
LINE
  5
1798
  8
0
 10
382.73000000000008
 20
188.99999999999989
 30
0.0
 11
394.73000000000008
 21
188.99999999999989
 31
0.0
  0
LINE
  5
1799
  8
0
 10
394.73000000000008
 20
188.99999999999989
 30
0.0
 11
394.73000000000008
 21
210.99999999999989
 31
0.0
  0
LINE
  5
179A
  8
0
 10
394.73000000000008
 20
210.99999999999989
 30
0.0
 11
382.73000000000008
 21
210.99999999999989
 31
0.0
  0
LINE
  5
179B
  8
0
 10
354.73000000000008
 20
190.91999999999999
 30
0.0
 11
355.65000000000009
 21
190.0
 31
0.0
  0
LINE
  5
179C
  8
0
 10
355.65000000000009
 20
210.0
 30
0.0
 11
354.73000000000008
 21
209.08000000000001
 31
0.0
  0
LINE
  5
179D
  8
0
 10
354.73000000000008
 20
190.91999999999999
 30
0.0
 11
354.73000000000008
 21
209.08000000000001
 31
0.0
  0
LINE
  5
179E
  8
0
 10
382.73000000000008
 20
209.9999999999998
 30
0.0
 11
375.06750416235678
 21
210.0
 31
0.0
  0
LINE
  5
179F
  8
0
 10
365.0675041623789
 20
210.0
 30
0.0
 11
355.65000000000009
 21
210.0
 31
0.0
  0
LINE
  5
17A0
  8
0
 10
355.65000000000009
 20
190.0
 30
0.0
 11
365.0675041623789
 21
190.0
 31
0.0
  0
LINE
  5
17A1
  8
0
 10
375.06750416235678
 20
190.0
 30
0.0
 11
382.73000000000008
 21
189.99999999999989
 31
0.0
  0
LINE
  5
17A2
  8
0
 10
355.65000000000009
 20
190.0
 30
0.0
 11
355.65000000000009
 21
210.0
 31
0.0
  0
LINE
  5
17A3
  8
0
 10
409.68000000000001
 20
210.99999999999989
 30
0.0
 11
395.43000000000012
 21
210.99999999999989
 31
0.0
  0
LINE
  5
17A4
  8
0
 10
395.43000000000012
 20
188.99999999999989
 30
0.0
 11
409.68000000000001
 21
188.99999999999989
 31
0.0
  0
LINE
  5
17A5
  8
0
 10
394.73000000000008
 20
189.6999999999999
 30
0.0
 11
395.43000000000012
 21
188.99999999999989
 31
0.0
  0
LINE
  5
17A6
  8
0
 10
395.43000000000012
 20
210.99999999999989
 30
0.0
 11
394.73000000000008
 21
210.30000000000001
 31
0.0
  0
LINE
  5
17A7
  8
0
 10
395.43000000000012
 20
188.99999999999989
 30
0.0
 11
395.43000000000012
 21
210.99999999999989
 31
0.0
  0
LINE
  5
17A8
  8
0
 10
382.73000000000008
 20
210.99999999999989
 30
0.0
 11
382.73000000000008
 21
188.99999999999989
 31
0.0
  0
LINE
  5
17A9
  8
0
 10
379.73000000000008
 20
209.99999999999989
 30
0.0
 11
379.73000000000002
 21
189.99999999999989
 31
0.0
  0
LINE
  5
17AA
  8
0
 10
394.42994333268979
 20
199.99999999999989
 30
0.0
 11
382.73000000000008
 21
199.99999999999989
 31
0.0
  0
LINE
  5
17AB
  8
0
 10
426.63000000000011
 20
215.49999999999989
 30
0.0
 11
421.73000000000002
 21
215.49999999999989
 31
0.0
  0
LINE
  5
17AC
  8
0
 10
421.73000000000002
 20
184.49999999999989
 30
0.0
 11
426.63000000000011
 21
184.49999999999989
 31
0.0
  0
LINE
  5
17AD
  8
0
 10
427.73000000000008
 20
196.24999999999989
 30
0.0
 11
427.73000000000008
 21
198.74999999999989
 31
0.0
  0
LINE
  5
17AE
  8
0
 10
427.73000000000008
 20
201.24999999999989
 30
0.0
 11
427.73000000000008
 21
203.75
 31
0.0
  0
LINE
  5
17AF
  8
0
 10
427.73000000000008
 20
206.25
 30
0.0
 11
427.73000000000008
 21
214.39999999999989
 31
0.0
  0
LINE
  5
17B0
  8
0
 10
427.73000000000008
 20
185.59999999999991
 30
0.0
 11
427.73000000000008
 21
193.74999999999989
 31
0.0
  0
ARC
  5
17B1
  8
0
 10
426.63000000000011
 20
214.40000000000001
 30
0.0
 40
1.0999999999999941
 50
0.0
 51
90.0
  0
ARC
  5
17B2
  8
0
 10
426.63000000000011
 20
185.59999999999991
 30
0.0
 40
1.0999999999999901
 50
269.99999999999682
 51
0.0
  0
LINE
  5
17B3
  8
0
 10
409.68000000000001
 20
188.99999999999989
 30
0.0
 11
416.97874651891232
 21
183.49999999999989
 31
0.0
  0
LINE
  5
17B4
  8
0
 10
416.97874651891232
 20
216.5
 30
0.0
 11
409.68000000000001
 21
210.99999999999989
 31
0.0
  0
LINE
  5
17B5
  8
0
 10
409.68000000000001
 20
188.99999999999989
 30
0.0
 11
409.68000000000001
 21
210.99999999999989
 31
0.0
  0
ARC
  5
17B6
  8
0
 10
419.73000000000008
 20
214.0
 30
0.0
 40
2.4999999999999551
 50
36.869897645847942
 51
90.0
  0
ARC
  5
17B7
  8
0
 10
419.73000000000008
 20
185.99999999999989
 30
0.0
 40
2.4999999999999569
 50
269.99999999999682
 51
323.13010235415209
  0
LINE
  5
17B8
  8
0
 10
421.73000000000002
 20
184.49999999999989
 30
0.0
 11
421.73000000000002
 21
215.49999999999989
 31
0.0
  0
LINE
  5
17B9
  8
0
 10
419.73000000000008
 20
216.5
 30
0.0
 11
416.97874651891232
 21
216.5
 31
0.0
  0
LINE
  5
17BA
  8
0
 10
416.97874651891232
 20
183.49999999999989
 30
0.0
 11
419.73000000000008
 21
183.49999999999989
 31
0.0
  0
LINE
  5
17BB
  8
0
 10
416.97874651891232
 20
183.49999999999989
 30
0.0
 11
416.97874651891232
 21
216.5
 31
0.0
  0
LINE
  5
17BC
  8
0
 10
419.73000000000008
 20
183.49999999999989
 30
0.0
 11
419.73000000000008
 21
216.5
 31
0.0
  0
LINE
  5
17BD
  8
3
 10
354.73000000000008
 20
190.91999999999999
 30
0.0
 11
365.06750416237878
 21
190.91999999999999
 31
0.0
  0
LINE
  5
17BE
  8
3
 10
375.06750416235678
 20
190.9199999999999
 30
0.0
 11
379.73000000000008
 21
190.9199999999999
 31
0.0
  0
LINE
  5
17BF
  8
2
 10
354.73000000000008
 20
197.0
 30
0.0
 11
364.73000000000008
 21
196.99999999999989
 31
0.0
  0
LINE
  5
17C0
  8
3
 10
354.73000000000008
 20
209.08000000000001
 30
0.0
 11
365.0675041623789
 21
209.08000000000001
 31
0.0
  0
LINE
  5
17C1
  8
3
 10
375.0675041623569
 20
209.08000000000001
 30
0.0
 11
379.73000000000008
 21
209.08000000000001
 31
0.0
  0
LINE
  5
17C2
  8
2
 10
354.73000000000008
 20
203.0
 30
0.0
 11
364.73000000000008
 21
202.99999999999989
 31
0.0
  0
LINE
  5
17C3
  8
1
 10
430.68238639142601
 20
199.99999999999989
 30
0.0
 11
351.73000000000002
 21
200.0
 31
0.0
  0
LINE
  5
17C4
  8
0
 10
483.72980300765317
 20
201.24999999999989
 30
0.0
 11
516.63496977519878
 21
201.24999999999989
 31
0.0
  0
LINE
  5
17C5
  8
0
 10
483.72980300765317
 20
198.74999999999989
 30
0.0
 11
516.63496977519878
 21
198.74999999999989
 31
0.0
  0
LINE
  5
17C6
  8
0
 10
484.11417242720472
 20
196.24999999999989
 30
0.0
 11
516.25060035564752
 21
196.2499999999998
 31
0.0
  0
LINE
  5
17C7
  8
0
 10
484.91190833735061
 20
193.74999999999989
 30
0.0
 11
515.45286444550152
 21
193.74999999999989
 31
0.0
  0
LINE
  5
17C8
  8
0
 10
484.91190833735061
 20
206.25
 30
0.0
 11
515.45286444550152
 21
206.25
 31
0.0
  0
LINE
  5
17C9
  8
0
 10
484.11417242720472
 20
203.75
 30
0.0
 11
516.25060035564752
 21
203.75
 31
0.0
  0
LINE
  5
17CA
  8
1
 10
480.68238639142601
 20
199.99999999999989
 30
0.0
 11
519.68238639142601
 21
199.99999999999989
 31
0.0
  0
CIRCLE
  5
17CB
  8
0
 10
500.18238639142601
 20
199.99999999999989
 30
0.0
 40
16.500000000000011
  0
ARC
  5
17CC
  8
0
 10
344.17282645746258
 20
205.5
 30
0.0
 40
50.557173542537441
 50
353.7545619249828
 51
6.2454380750164091
  0
ARC
  5
17CD
  8
0
 10
344.17282645746258
 20
194.49999999999989
 30
0.0
 40
50.557173542537441
 50
353.75456192498439
 51
6.2454380750155991
  0
LINE
  5
17CE
  8
1
 10
500.18238639142601
 20
180.49999999999989
 30
0.0
 11
500.18238639142601
 21
219.49999999999989
 31
0.0
  0
ARC
  5
17CF
  8
0
 10
428.01125000000002
 20
204.99999999999989
 30
0.0
 40
1.2812499999999869
 50
102.68038349181811
 51
257.31961650818192
  0
ARC
  5
17D0
  8
0
 10
428.01125000000002
 20
199.99999999999989
 30
0.0
 40
1.2812499999999869
 50
102.68038349181811
 51
257.31961650818192
  0
ARC
  5
17D1
  8
0
 10
428.01125000000002
 20
194.99999999999989
 30
0.0
 40
1.2812499999999869
 50
102.68038349181811
 51
257.31961650818192
  0
ARC
  5
17D2
  8
0
 10
500.18238639142601
 20
199.99999999999989
 30
0.0
 40
15.5
 50
23.77999473141346
 51
156.2200052685865
  0
ARC
  5
17D3
  8
0
 10
500.18238639142601
 20
199.99999999999989
 30
0.0
 40
15.5
 50
165.99919761374281
 51
175.37434942047679
  0
ARC
  5
17D4
  8
0
 10
500.18238639142601
 20
199.99999999999989
 30
0.0
 40
15.5
 50
184.6256505795223
 51
194.00080238625631
  0
ARC
  5
17D5
  8
0
 10
500.18238639142601
 20
199.99999999999989
 30
0.0
 40
15.5
 50
203.7799947314127
 51
336.22000526858727
  0
ARC
  5
17D6
  8
0
 10
500.18238639142601
 20
199.99999999999989
 30
0.0
 40
15.5
 50
345.99919761374372
 51
355.3743494204777
  0
ARC
  5
17D7
  8
0
 10
500.18238639142601
 20
199.99999999999989
 30
0.0
 40
15.5
 50
4.6256505795231257
 51
14.00080238625714
  0
ARC
  5
17D8
  8
0
 10
387.0188380706428
 20
207.5
 30
0.0
 40
21.662658773668529
 50
159.74384199959849
 51
200.25615800040151
  0
ARC
  5
17D9
  8
0
 10
353.11617025409288
 20
207.5
 30
0.0
 40
21.662658773668529
 50
339.74384199959849
 51
20.256158000401481
  0
LINE
  5
17DA
  8
0
 10
365.0675041623789
 20
214.5
 30
0.0
 11
365.0675041623789
 21
185.50000000000159
 31
0.0
  0
LINE
  5
17DB
  8
0
 10
375.06750416235678
 20
185.50000000000159
 30
0.0
 11
375.06750416235678
 21
214.49999999999841
 31
0.0
  0
LINE
  5
17DC
  8
0
 10
374.77882902776128
 20
215.0
 30
0.0
 11
365.35617929697429
 21
214.9999999999998
 31
0.0
  0
LINE
  5
17DD
  8
0
 10
365.0675041623789
 20
214.49999999999841
 30
0.0
 11
365.35617929697452
 21
214.9999999999998
 31
0.0
  0
LINE
  5
17DE
  8
0
 10
375.06750416235678
 20
214.49999999999841
 30
0.0
 11
374.77882902776128
 21
214.9999999999998
 31
0.0
  0
ARC
  5
17DF
  8
0
 10
387.0188380706428
 20
192.5
 30
0.0
 40
21.662658773668529
 50
159.74384199959849
 51
200.25615800040151
  0
ARC
  5
17E0
  8
0
 10
353.11617025409288
 20
192.5
 30
0.0
 40
21.662658773668529
 50
339.74384199959849
 51
20.256158000401481
  0
LINE
  5
17E1
  8
0
 10
373.43908306560672
 20
200.0
 30
0.0
 11
366.69592525912418
 21
200.0
 31
0.0
  0
LINE
  5
17E2
  8
0
 10
374.77882902776128
 20
184.99999999999989
 30
0.0
 11
365.35617929697429
 21
185.0000000000002
 31
0.0
  0
LINE
  5
17E3
  8
0
 10
365.0675041623789
 20
185.50000000000159
 30
0.0
 11
365.35617929697452
 21
185.0000000000002
 31
0.0
  0
LINE
  5
17E4
  8
0
 10
375.06750416235678
 20
185.50000000000159
 30
0.0
 11
374.77882902776128
 21
185.0000000000002
 31
0.0
  0
LINE
  5
17E5
  8
0
 10
375.06750416235661
 20
114.5000000000002
 30
0.0
 11
375.06750416235701
 21
85.499999999999744
 31
0.0
  0
LINE
  5
17E6
  8
0
 10
365.06750416237918
 20
85.499999999999744
 30
0.0
 11
365.06750416237969
 21
114.5000000000004
 31
0.0
  0
LINE
  5
17E7
  8
0
 10
365.06750416237918
 20
114.4999999999997
 30
0.0
 11
366.69592525912958
 21
117.32050807568839
 31
0.0
  0
ARC
  5
17E8
  8
0
 10
373.0236475422505
 20
112.9903810567659
 30
0.0
 40
7.6674682452751783
 50
154.38424747045369
 51
214.3842474680107
  0
ARC
  5
17E9
  8
0
 10
373.0236475422505
 20
112.9903810567659
 30
0.0
 40
7.6674682452751783
 50
145.6157525319847
 51
145.61575253198799
  0
ARC
  5
17EA
  8
0
 10
367.11136078248569
 20
112.9903810567659
 30
0.0
 40
7.6674682452751783
 50
34.384247468010692
 51
34.384247468015232
  0
ARC
  5
17EB
  8
0
 10
367.11136078248569
 20
112.9903810567659
 30
0.0
 40
7.6674682452751783
 50
325.6157525319893
 51
25.61575252954631
  0
LINE
  5
17EC
  8
0
 10
375.06750416235701
 20
114.4999999999997
 30
0.0
 11
373.43908306560661
 21
117.32050807568839
 31
0.0
  0
LINE
  5
17ED
  8
0
 10
366.69592525912969
 20
117.3205080756881
 30
0.0
 11
373.4390830654429
 21
117.3205080759719
 31
0.0
  0
LINE
  5
17EE
  8
0
 10
373.43908306558319
 20
108.6602540378439
 30
0.0
 11
366.69592525912969
 21
108.66025403769
 31
0.0
  0
ARC
  5
17EF
  8
0
 10
346.1185749903683
 20
100.0000000000732
 30
0.0
 40
28.6602540373928
 50
342.4120462255662
 51
17.587953774125889
  0
LINE
  5
17F0
  8
0
 10
373.43908306558319
 20
91.339745962155575
 30
0.0
 11
366.69592525912969
 21
91.339745962309493
 31
0.0
  0
LINE
  5
17F1
  8
0
 10
366.69592525912969
 20
82.679491924311364
 30
0.0
 11
373.4390830654429
 21
82.679491924027602
 31
0.0
  0
LINE
  5
17F2
  8
0
 10
375.06750416235701
 20
85.499999999999744
 30
0.0
 11
373.43908306560661
 21
82.679491924311137
 31
0.0
  0
ARC
  5
17F3
  8
0
 10
367.11136078248569
 20
87.009618943233576
 30
0.0
 40
7.6674682452751783
 50
334.38424747045372
 51
34.384247468010692
  0
ARC
  5
17F4
  8
0
 10
367.11136078248569
 20
87.009618943233576
 30
0.0
 40
7.6674682452751783
 50
325.61575253198481
 51
325.61575253198799
  0
ARC
  5
17F5
  8
0
 10
394.016433334368
 20
100.0000000000732
 30
0.0
 40
28.6602540373928
 50
162.41204622587409
 51
197.5879537744338
  0
ARC
  5
17F6
  8
0
 10
373.0236475422505
 20
87.009618943233576
 30
0.0
 40
7.6674682452751783
 50
214.3842474680107
 51
214.38424746801519
  0
ARC
  5
17F7
  8
0
 10
373.0236475422505
 20
87.009618943233576
 30
0.0
 40
7.6674682452751783
 50
145.6157525319893
 51
205.61575252954631
  0
LINE
  5
17F8
  8
0
 10
365.06750416237918
 20
85.499999999999744
 30
0.0
 11
366.69592525912958
 21
82.679491924311137
 31
0.0
  0
ARC
  5
17F9
  8
0
 10
426.63000000000011
 20
114.40000000000001
 30
0.0
 40
1.0999999999999941
 50
0.0
 51
90.0
  0
ARC
  5
17FA
  8
0
 10
426.63000000000011
 20
85.599999999999952
 30
0.0
 40
1.0999999999999901
 50
269.99999999999682
 51
0.0
  0
LINE
  5
17FB
  8
3
 10
379.73000000000002
 20
190.9199999999999
 30
0.0
 11
381.3234867429635
 21
189.99999999999989
 31
0.0
  0
LINE
  5
17FC
  8
3
 10
379.72999999999951
 20
209.07999999999981
 30
0.0
 11
381.32348674296293
 21
210.0
 31
0.0
  0
LINE
  5
17FD
  8
3
 10
379.73000000000008
 20
90.920000000000002
 30
0.0
 11
381.32348674296361
 21
89.999999999999957
 31
0.0
  0
LINE
  5
17FE
  8
3
 10
379.72999999999962
 20
109.0799999999998
 30
0.0
 11
381.32348674296298
 21
110.0
 31
0.0
  0
ENDSEC
  0
EOF
