  0
SECTION
  2
HEADER
  9
$ACADVER
  1
AC1009
  9
$INSBASE
 10
0.0
 20
0.0
 30
0.0
  9
$EXTMIN
 10
0.0
 20
-1.4802182810368341
 30
0.0
  9
$EXTMAX
 10
519.68238639142601
 20
219.49999999999989
 30
0.0
  9
$LIMMIN
 10
0.0
 20
0.0
  9
$LIMMAX
 10
385.0
 20
270.0
  9
$ORTHOMODE
 70
     1
  9
$REGENMODE
 70
     1
  9
$FILLMODE
 70
     1
  9
$QTEXTMODE
 70
     0
  9
$MIRRTEXT
 70
     0
  9
$DRAGMODE
 70
     2
  9
$LTSCALE
 40
10.0
  9
$OSMODE
 70
    37
  9
$ATTMODE
 70
     1
  9
$TEXTSIZE
 40
4.000000000000048
  9
$TRACEWID
 40
0.05
  9
$TEXTSTYLE
  7
STANDARD
  9
$CLAYER
  8
0
  9
$CELTYPE
  6
BYLAYER
  9
$CECOLOR
 62
   256
  9
$DIMSCALE
 40
1.0
  9
$DIMASZ
 40
3.0
  9
$DIMEXO
 40
2.0
  9
$DIMDLI
 40
0.38
  9
$DIMRND
 40
0.0
  9
$DIMDLE
 40
0.0
  9
$DIMEXE
 40
2.0
  9
$DIMTP
 40
0.0
  9
$DIMTM
 40
0.0
  9
$DIMTXT
 40
3.0
  9
$DIMCEN
 40
0.0
  9
$DIMTSZ
 40
0.0
  9
$DIMTOL
 70
     0
  9
$DIMLIM
 70
     0
  9
$DIMTIH
 70
     0
  9
$DIMTOH
 70
     0
  9
$DIMSE1
 70
     0
  9
$DIMSE2
 70
     0
  9
$DIMTAD
 70
     1
  9
$DIMZIN
 70
     0
  9
$DIMBLK
  1

  9
$DIMASO
 70
     1
  9
$DIMSHO
 70
     0
  9
$DIMPOST
  1

  9
$DIMAPOST
  1

  9
$DIMALT
 70
     0
  9
$DIMALTD
 70
     2
  9
$DIMALTF
 40
25.399999999999999
  9
$DIMLFAC
 40
1.0
  9
$DIMTOFL
 70
     1
  9
$DIMTVP
 40
1.6000000000000001
  9
$DIMTIX
 70
     1
  9
$DIMSOXD
 70
     0
  9
$DIMSAH
 70
     0
  9
$DIMBLK1
  1

  9
$DIMBLK2
  1

  9
$DIMSTYLE
  2
STANDARD
  9
$DIMCLRD
 70
     0
  9
$DIMCLRE
 70
     0
  9
$DIMCLRT
 70
     0
  9
$DIMTFAC
 40
1.0
  9
$DIMGAP
 40
1.0
  9
$LUNITS
 70
     2
  9
$LUPREC
 70
     4
  9
$SKETCHINC
 40
0.1
  9
$FILLETRAD
 40
0.0
  9
$AUNITS
 70
     0
  9
$AUPREC
 70
     4
  9
$MENU
  1
E:\r13\win\SUPPORT\ACAD
  9
$ELEVATION
 40
0.0
  9
$PELEVATION
 40
0.0
  9
$THICKNESS
 40
0.0
  9
$LIMCHECK
 70
     0
  9
$BLIPMODE
 70
     0
  9
$CHAMFERA
 40
0.0
  9
$CHAMFERB
 40
0.0
  9
$SKPOLY
 70
     0
  9
$TDCREATE
 40
2450280.598206134
  9
$TDUPDATE
 40
2459200.3876321181
  9
$TDINDWG
 40
0.1488979398
  9
$TDUSRTIMER
 40
0.1488979398
  9
$USRTIMER
 70
     1
  9
$ANGBASE
 50
0.0
  9
$ANGDIR
 70
     0
  9
$PDMODE
 70
     0
  9
$PDSIZE
 40
0.0
  9
$PLINEWID
 40
0.0
  9
$COORDS
 70
     1
  9
$SPLFRAME
 70
     0
  9
$SPLINETYPE
 70
     6
  9
$SPLINESEGS
 70
     8
  9
$ATTDIA
 70
     0
  9
$ATTREQ
 70
     1
  9
$HANDLING
 70
     1
  9
$HANDSEED
  5
13E9
  9
$SURFTAB1
 70
     6
  9
$SURFTAB2
 70
     6
  9
$SURFTYPE
 70
     6
  9
$SURFU
 70
     6
  9
$SURFV
 70
     6
  9
$UCSNAME
  2

  9
$UCSORG
 10
0.0
 20
0.0
 30
0.0
  9
$UCSXDIR
 10
1.0
 20
0.0
 30
0.0
  9
$UCSYDIR
 10
0.0
 20
1.0
 30
0.0
  9
$PUCSNAME
  2

  9
$PUCSORG
 10
0.0
 20
0.0
 30
0.0
  9
$PUCSXDIR
 10
1.0
 20
0.0
 30
0.0
  9
$PUCSYDIR
 10
0.0
 20
1.0
 30
0.0
  9
$USERI1
 70
     3
  9
$USERI2
 70
     1
  9
$USERI3
 70
     1
  9
$USERI4
 70
     0
  9
$USERI5
 70
     0
  9
$USERR1
 40
1.0
  9
$USERR2
 40
3.0
  9
$USERR3
 40
3.0
  9
$USERR4
 40
3.0
  9
$USERR5
 40
10.0
  9
$WORLDVIEW
 70
     1
  9
$SHADEDGE
 70
     3
  9
$SHADEDIF
 70
    70
  9
$TILEMODE
 70
     1
  9
$MAXACTVP
 70
    16
  9
$PLIMCHECK
 70
     0
  9
$PEXTMIN
 10
1.0000000000000000E+020
 20
1.0000000000000000E+020
 30
1.0000000000000000E+020
  9
$PEXTMAX
 10
-1.0000000000000000E+020
 20
-1.0000000000000000E+020
 30
-1.0000000000000000E+020
  9
$PLIMMIN
 10
0.0
 20
0.0
  9
$PLIMMAX
 10
12.0
 20
9.0
  9
$UNITMODE
 70
     0
  9
$VISRETAIN
 70
     0
  9
$PLINEGEN
 70
     0
  9
$PSLTSCALE
 70
     0
  0
ENDSEC
  0
SECTION
  2
TABLES
  0
TABLE
  2
VPORT
 70
     1
  0
VPORT
  2
*ACTIVE
 70
     0
 10
0.0
 20
0.0
 11
1.0
 21
1.0
 12
490.39068213109942
 22
109.0121292975697
 13
0.0
 23
0.0
 14
5.0
 24
5.0
 15
10.0
 25
10.0
 16
0.0
 26
0.0
 36
1.0
 17
0.0
 27
0.0
 37
0.0
 40
407.4717273454433
 41
2.415644171779141
 42
50.0
 43
0.0
 44
0.0
 50
0.0
 51
0.0
 71
     0
 72
   500
 73
     1
 74
     0
 75
     0
 76
     0
 77
     0
 78
     2
  0
ENDTAB
  0
TABLE
  2
LTYPE
 70
     4
  0
LTYPE
  2
CONTINUOUS
 70
     0
  3
Solid Line
 72
    65
 73
     0
 40
0.0
  0
LTYPE
  2
CENTER
 70
     0
  3
____ _ ____ _ ____ _ ____ _ ____ _ ____ _ ____
 72
    65
 73
     4
 40
2.0
 49
1.25
 49
-0.25
 49
0.25
 49
-0.25
  0
LTYPE
  2
HIDDEN
 70
     0
  3
_ _ _ _ _ _ _ _ _ _ _ _ _ _ _ _ _ _ _ _ _ _ _
 72
    65
 73
     2
 40
0.375
 49
0.25
 49
-0.125
  0
LTYPE
  2
PHANTOM2
 70
     0
  3
___ _ _ ___ _ _ ___ _ _ ___ _ _
 72
    65
 73
     6
 40
1.25
 49
0.625
 49
-0.125
 49
0.125
 49
-0.125
 49
0.125
 49
-0.125
  0
ENDTAB
  0
TABLE
  2
LAYER
 70
     4
  0
LAYER
  2
0
 70
     0
 62
     7
  6
CONTINUOUS
  0
LAYER
  2
1
 70
     0
 62
     1
  6
CENTER
  0
LAYER
  2
3
 70
     0
 62
     3
  6
CONTINUOUS
  0
LAYER
  2
2
 70
     0
 62
     2
  6
HIDDEN
  0
ENDTAB
  0
TABLE
  2
STYLE
 70
     2
  0
STYLE
  2
STANDARD
 70
     0
 40
0.0
 41
1.0
 50
0.0
 71
     0
 42
4.000000000000048
  3
SIMPLEX
  4
BIGFONT
  0
STYLE
  2
STANDARD1
 70
     0
 40
0.0
 41
1.0
 50
0.0
 71
     0
 42
3.0
  3
txt
  4

  0
ENDTAB
  0
TABLE
  2
VIEW
 70
     0
  0
ENDTAB
  0
TABLE
  2
UCS
 70
     0
  0
ENDTAB
  0
TABLE
  2
APPID
 70
     4
  0
APPID
  2
ACAD
 70
     0
  0
APPID
  2
ACAD_MLEADERVER
 70
     0
  0
APPID
  2
ACAD_NAV_VCDISPLAY
 70
     0
  0
APPID
  2
ACAD_EXEMPT_FROM_CAD_STANDARDS
 70
     0
  0
ENDTAB
  0
TABLE
  2
DIMSTYLE
 70
     2
  0
DIMSTYLE
  2
STANDARD
 70
     0
  3

  4

  5

  6

  7

 40
1.0
 41
0.18
 42
0.0625
 43
0.38
 44
0.18
 45
0.0
 46
0.0
 47
0.0
 48
0.0
140
0.18
141
0.09
142
0.0
143
25.399999999999999
144
1.0
145
0.0
146
1.0
147
0.09
 71
     0
 72
     0
 73
     1
 74
     1
 75
     0
 76
     0
 77
     0
 78
     0
170
     0
171
     2
172
     0
173
     0
174
     0
175
     0
176
     0
177
     0
178
     0
  0
DIMSTYLE
  2
ISO-25
 70
     0
  3

  4

  5

  6

  7

 40
1.0
 41
2.5
 42
0.625
 43
3.75
 44
1.25
 45
0.0
 46
0.0
 47
0.0
 48
0.0
140
2.5
141
2.5
142
0.0
143
0.03937007874016
144
1.0
145
0.0
146
1.0
147
0.625
 71
     0
 72
     0
 73
     0
 74
     0
 75
     0
 76
     0
 77
     1
 78
     8
170
     0
171
     3
172
     1
173
     0
174
     0
175
     0
176
     0
177
     0
178
     0
  0
ENDTAB
  0
ENDSEC
  0
SECTION
  2
BLOCKS
  0
BLOCK
  8
0
  2
$MODEL_SPACE
 70
     0
 10
0.0
 20
0.0
 30
0.0
  3
$MODEL_SPACE
  1

  0
ENDBLK
  5
86E
  8
0
  0
BLOCK
 67
     1
  8
0
  2
$PAPER_SPACE
 70
     0
 10
0.0
 20
0.0
 30
0.0
  3
$PAPER_SPACE
  1

  0
ENDBLK
  5
86C
 67
     1
  8
0
  0
ENDSEC
  0
SECTION
  2
ENTITIES
  0
TEXT
  5
AEE
  8
0
 62
     3
 10
0.0
 20
0.0
 30
0.0
 40
5.0
  1
RANDX12-6-1M-G
  7
STANDARD1
  0
ARC
  5
C05
  8
0
 10
58.999999999999979
 20
200.0
 30
0.0
 40
5.9999999999999787
 50
158.4627507536249
 51
201.5372492463751
  0
LINE
  5
C06
  8
0
 10
198.2061447846543
 20
202.5
 30
0.0
 11
128.72999999999999
 21
202.5
 31
0.0
  0
LINE
  5
C07
  8
0
 10
128.72999999999999
 20
197.5
 30
0.0
 11
199.2538552153456
 21
197.5
 31
0.0
  0
LINE
  5
C09
  8
0
 10
128.72999999999999
 20
202.75
 30
0.0
 11
126.0
 21
202.75
 31
0.0
  0
LINE
  5
C0A
  8
0
 10
126.0
 20
197.24999999999989
 30
0.0
 11
128.72999999999999
 21
197.24999999999989
 31
0.0
  0
LINE
  5
C0B
  8
0
 10
128.72999999999999
 20
197.24999999999989
 30
0.0
 11
128.72999999999999
 21
202.75
 31
0.0
  0
LINE
  5
C0C
  8
0
 10
58.750000000000007
 20
202.90000000000001
 30
0.0
 11
58.673205080756922
 21
202.90000000000001
 31
0.0
  0
LINE
  5
C0D
  8
0
 10
58.673205080756922
 20
197.09999999999999
 30
0.0
 11
58.750000000000007
 21
197.09999999999999
 31
0.0
  0
LINE
  5
C0E
  8
0
 10
53.418925394802173
 20
197.79736379508191
 30
0.0
 11
54.800000000000033
 21
197.0
 31
0.0
  0
LINE
  5
C0F
  8
0
 10
54.800000000000033
 20
203.0
 30
0.0
 11
53.418925394802173
 21
202.20263620491809
 31
0.0
  0
LINE
  5
C10
  8
0
 10
53.418925394802173
 20
197.79736379508191
 30
0.0
 11
53.418925394802173
 21
202.20263620491809
 31
0.0
  0
LINE
  5
C13
  8
0
 10
58.500000000000007
 20
203.0
 30
0.0
 11
54.800000000000033
 21
203.0
 31
0.0
  0
LINE
  5
C14
  8
0
 10
54.800000000000033
 20
197.0
 30
0.0
 11
58.500000000000007
 21
197.0
 31
0.0
  0
LINE
  5
C15
  8
0
 10
54.800000000000033
 20
197.0
 30
0.0
 11
54.800000000000033
 21
203.0
 31
0.0
  0
LINE
  5
C16
  8
0
 10
58.673205080756922
 20
202.90000000000001
 30
0.0
 11
58.500000000000007
 21
203.0
 31
0.0
  0
LINE
  5
C17
  8
0
 10
58.500000000000007
 20
197.0
 30
0.0
 11
58.673205080756922
 21
197.09999999999999
 31
0.0
  0
LINE
  5
C18
  8
0
 10
58.500000000000007
 20
197.0
 30
0.0
 11
58.500000000000007
 21
203.0
 31
0.0
  0
ARC
  5
C1A
  8
0
 10
58.750000000000007
 20
203.15000000000001
 30
0.0
 40
0.2500000000000004
 50
270.0
 51
0.0
  0
ARC
  5
C1B
  8
0
 10
58.750000000000007
 20
196.84999999999999
 30
0.0
 40
0.2500000000000003
 50
0.0
 51
90.0
  0
LINE
  5
C29
  8
0
 10
116.0
 20
205.0
 30
0.0
 11
126.0
 21
205.0
 31
0.0
  0
LINE
  5
C2A
  8
0
 10
126.0
 20
195.0
 30
0.0
 11
126.0
 21
205.0
 31
0.0
  0
LINE
  5
C2B
  8
0
 10
126.0
 20
195.0
 30
0.0
 11
116.0
 21
195.0
 31
0.0
  0
LINE
  5
C30
  8
0
 10
116.0
 20
200.0
 30
0.0
 11
125.5534180126148
 21
200.0
 31
0.0
  0
LINE
  5
C31
  8
0
 10
68.000000000000014
 20
206.0
 30
0.0
 11
59.92000000000003
 21
206.0
 31
0.0
  0
LINE
  5
C32
  8
0
 10
59.92000000000003
 20
194.0
 30
0.0
 11
68.000000000000014
 21
194.0
 31
0.0
  0
LINE
  5
C33
  8
0
 10
77.000000000000014
 20
206.0
 30
0.0
 11
74.000000000000014
 21
206.0
 31
0.0
  0
LINE
  5
C34
  8
0
 10
74.000000000000014
 20
194.0
 30
0.0
 11
77.000000000000014
 21
194.0
 31
0.0
  0
LINE
  5
C35
  8
0
 10
59.000000000000021
 20
194.91999999999999
 30
0.0
 11
59.92000000000003
 21
194.0
 31
0.0
  0
LINE
  5
C36
  8
0
 10
59.92000000000003
 20
206.0
 30
0.0
 11
59.000000000000021
 21
205.08000000000001
 31
0.0
  0
LINE
  5
C37
  8
0
 10
59.000000000000021
 20
194.91999999999999
 30
0.0
 11
59.000000000000021
 21
205.08000000000001
 31
0.0
  0
LINE
  5
C38
  8
0
 10
59.92000000000003
 20
194.0
 30
0.0
 11
59.92000000000003
 21
206.0
 31
0.0
  0
LINE
  5
C39
  8
0
 10
77.000000000000014
 20
193.5
 30
0.0
 11
77.500000000000014
 21
193.0
 31
0.0
  0
LINE
  5
C3A
  8
0
 10
77.500000000000014
 20
207.0
 30
0.0
 11
77.000000000000014
 21
206.5
 31
0.0
  0
LINE
  5
C3B
  8
0
 10
77.000000000000014
 20
193.5
 30
0.0
 11
77.000000000000014
 21
206.5
 31
0.0
  0
LINE
  5
C3C
  8
0
 10
116.0
 20
206.5
 30
0.0
 11
116.0
 21
193.5
 31
0.0
  0
LINE
  5
C3D
  8
0
 10
116.0
 20
206.5
 30
0.0
 11
115.5
 21
207.0
 31
0.0
  0
LINE
  5
C3E
  8
0
 10
115.5
 20
192.99999999999989
 30
0.0
 11
116.0
 21
193.5
 31
0.0
  0
LINE
  5
C3F
  8
0
 10
115.5
 20
207.0
 30
0.0
 11
77.500000000000014
 21
207.0
 31
0.0
  0
LINE
  5
C40
  8
0
 10
77.500000000000014
 20
193.0
 30
0.0
 11
115.5
 21
192.99999999999989
 31
0.0
  0
LINE
  5
C41
  8
0
 10
77.500000000000014
 20
193.0
 30
0.0
 11
77.500000000000014
 21
207.0
 31
0.0
  0
LINE
  5
C42
  8
0
 10
115.5
 20
192.99999999999989
 30
0.0
 11
115.5
 21
207.0
 31
0.0
  0
LINE
  5
C43
  8
0
 10
74.000000000000014
 20
190.5
 30
0.0
 11
74.000000000000014
 21
209.5
 31
0.0
  0
LINE
  5
C44
  8
0
 10
68.000000000000014
 20
190.5
 30
0.0
 11
74.000000000000014
 21
190.5
 31
0.0
  0
LINE
  5
C45
  8
0
 10
68.000000000000014
 20
190.5
 30
0.0
 11
68.000000000000014
 21
209.5
 31
0.0
  0
LINE
  5
C46
  8
0
 10
74.000000000000014
 20
209.5
 30
0.0
 11
68.000000000000014
 21
209.5
 31
0.0
  0
LINE
  5
C4B
  8
0
 10
73.151494223968129
 20
200.0
 30
0.0
 11
68.848505776031899
 21
200.0
 31
0.0
  0
LINE
  5
C50
  8
3
 10
59.000000000000021
 20
194.91999999999999
 30
0.0
 11
68.000000000000014
 21
194.91999999999999
 31
0.0
  0
LINE
  5
C51
  8
3
 10
59.000000000000021
 20
205.08000000000001
 30
0.0
 11
68.000000000000014
 21
205.08000000000001
 31
0.0
  0
LINE
  5
C52
  8
1
 10
201.72999999999999
 20
199.99999999999989
 30
0.0
 11
50.0
 21
200.0
 31
0.0
  0
ARC
  5
C53
  8
0
 10
58.999999999999972
 20
100.0
 30
0.0
 40
5.999999999999976
 50
158.4627507536249
 51
201.5372492463751
  0
LINE
  5
C54
  8
0
 10
125.5534180126148
 20
94.226497308103745
 30
0.0
 11
126.0
 21
95.0
 31
0.0
  0
LINE
  5
C55
  8
0
 10
126.0
 20
95.0
 30
0.0
 11
126.0
 21
105.0
 31
0.0
  0
LINE
  5
C57
  8
0
 10
198.2061447846543
 20
102.5
 30
0.0
 11
128.72999999999999
 21
102.5
 31
0.0
  0
LINE
  5
C58
  8
0
 10
128.72999999999999
 20
97.5
 30
0.0
 11
199.2538552153456
 21
97.499999999999986
 31
0.0
  0
LINE
  5
C59
  8
0
 10
126.0
 20
105.0
 30
0.0
 11
125.5534180126148
 21
105.7735026918962
 31
0.0
  0
LINE
  5
C5A
  8
0
 10
128.72999999999999
 20
97.250000000000014
 30
0.0
 11
128.72999999999999
 21
102.75
 31
0.0
  0
LINE
  5
C5B
  8
0
 10
128.72999999999999
 20
102.75
 30
0.0
 11
126.0
 21
102.75
 31
0.0
  0
LINE
  5
C5C
  8
0
 10
126.0
 20
97.250000000000014
 30
0.0
 11
128.72999999999999
 21
97.250000000000014
 31
0.0
  0
LINE
  5
C5D
  8
0
 10
58.75
 20
102.90000000000001
 30
0.0
 11
58.673205080756901
 21
102.90000000000001
 31
0.0
  0
LINE
  5
C5E
  8
0
 10
58.673205080756901
 20
97.099999999999994
 30
0.0
 11
58.75
 21
97.099999999999994
 31
0.0
  0
LINE
  5
C61
  8
0
 10
58.5
 20
103.0
 30
0.0
 11
54.800000000000011
 21
103.0
 31
0.0
  0
LINE
  5
C62
  8
0
 10
54.800000000000011
 20
97.0
 30
0.0
 11
58.5
 21
97.0
 31
0.0
  0
LINE
  5
C63
  8
0
 10
53.418925394802159
 20
97.797363795081935
 30
0.0
 11
53.418925394802159
 21
102.20263620491799
 31
0.0
  0
LINE
  5
C64
  8
0
 10
54.800000000000011
 20
97.0
 30
0.0
 11
54.800000000000011
 21
103.0
 31
0.0
  0
LINE
  5
C65
  8
0
 10
53.418925394802159
 20
97.797363795081935
 30
0.0
 11
54.800000000000011
 21
97.0
 31
0.0
  0
LINE
  5
C66
  8
0
 10
54.800000000000011
 20
103.0
 30
0.0
 11
53.418925394802159
 21
102.20263620491799
 31
0.0
  0
LINE
  5
C67
  8
0
 10
58.5
 20
97.0
 30
0.0
 11
58.5
 21
103.0
 31
0.0
  0
LINE
  5
C69
  8
0
 10
58.673205080756901
 20
102.90000000000001
 30
0.0
 11
58.5
 21
103.0
 31
0.0
  0
LINE
  5
C6A
  8
0
 10
58.5
 20
97.0
 30
0.0
 11
58.673205080756901
 21
97.099999999999994
 31
0.0
  0
ARC
  5
C6C
  8
0
 10
58.75
 20
103.15000000000001
 30
0.0
 40
0.2500000000000004
 50
270.0
 51
0.0
  0
ARC
  5
C6D
  8
0
 10
58.75
 20
96.849999999999994
 30
0.0
 40
0.2500000000000003
 50
0.0
 51
90.0
  0
LINE
  5
C7A
  8
0
 10
68.0
 20
90.5
 30
0.0
 11
68.848505776031885
 21
89.030344885397113
 31
0.0
  0
LINE
  5
C7B
  8
0
 10
68.0
 20
90.5
 30
0.0
 11
68.0
 21
109.5
 31
0.0
  0
LINE
  5
C7C
  8
0
 10
73.151494223968115
 20
89.030344885397113
 30
0.0
 11
74.0
 21
90.5
 31
0.0
  0
LINE
  5
C7D
  8
0
 10
74.0
 20
90.5
 30
0.0
 11
74.0
 21
109.5
 31
0.0
  0
LINE
  5
C7E
  8
0
 10
68.848505776031885
 20
110.9696551146029
 30
0.0
 11
68.0
 21
109.5
 31
0.0
  0
LINE
  5
C7F
  8
0
 10
74.0
 20
109.5
 30
0.0
 11
73.151494223968115
 21
110.9696551146029
 31
0.0
  0
LINE
  5
C81
  8
0
 10
116.0
 20
105.7735026918962
 30
0.0
 11
125.5534180126148
 21
105.7735026918962
 31
0.0
  0
LINE
  5
C85
  8
0
 10
116.0
 20
94.226497308103745
 30
0.0
 11
125.5534180126148
 21
94.226497308103745
 31
0.0
  0
LINE
  5
C88
  8
0
 10
116.0
 20
102.8867513459481
 30
0.0
 11
125.5534180126148
 21
102.8867513459481
 31
0.0
  0
LINE
  5
C89
  8
0
 10
116.0
 20
97.113248654051858
 30
0.0
 11
125.5534180126148
 21
97.113248654051858
 31
0.0
  0
LINE
  5
C8A
  8
0
 10
68.0
 20
106.0
 30
0.0
 11
59.920000000000009
 21
106.0
 31
0.0
  0
LINE
  5
C8B
  8
0
 10
59.920000000000009
 20
94.0
 30
0.0
 11
68.0
 21
94.0
 31
0.0
  0
LINE
  5
C8C
  8
0
 10
59.0
 20
94.920000000000016
 30
0.0
 11
59.0
 21
105.08
 31
0.0
  0
LINE
  5
C8D
  8
0
 10
59.920000000000009
 20
94.0
 30
0.0
 11
59.920000000000009
 21
106.0
 31
0.0
  0
LINE
  5
C8E
  8
0
 10
59.0
 20
94.920000000000016
 30
0.0
 11
59.920000000000009
 21
94.0
 31
0.0
  0
LINE
  5
C8F
  8
0
 10
59.920000000000009
 20
106.0
 30
0.0
 11
59.0
 21
105.08
 31
0.0
  0
LINE
  5
C90
  8
0
 10
77.0
 20
106.0
 30
0.0
 11
74.0
 21
106.0
 31
0.0
  0
LINE
  5
C91
  8
0
 10
74.0
 20
94.0
 30
0.0
 11
77.0
 21
94.0
 31
0.0
  0
LINE
  5
C92
  8
0
 10
77.0
 20
93.499999999999986
 30
0.0
 11
77.0
 21
106.5
 31
0.0
  0
LINE
  5
C93
  8
0
 10
77.0
 20
93.499999999999986
 30
0.0
 11
77.5
 21
93.0
 31
0.0
  0
LINE
  5
C94
  8
0
 10
77.5
 20
107.0
 30
0.0
 11
77.0
 21
106.5
 31
0.0
  0
LINE
  5
C95
  8
0
 10
116.0
 20
106.5
 30
0.0
 11
116.0
 21
93.499999999999986
 31
0.0
  0
LINE
  5
C96
  8
0
 10
116.0
 20
106.5
 30
0.0
 11
115.5
 21
107.0
 31
0.0
  0
LINE
  5
C97
  8
0
 10
115.5
 20
93.0
 30
0.0
 11
116.0
 21
93.499999999999986
 31
0.0
  0
LINE
  5
C98
  8
0
 10
77.5
 20
93.0
 30
0.0
 11
77.5
 21
107.0
 31
0.0
  0
LINE
  5
C99
  8
0
 10
115.5
 20
93.0
 30
0.0
 11
115.5
 21
107.0
 31
0.0
  0
LINE
  5
C9A
  8
0
 10
115.5
 20
107.0
 30
0.0
 11
77.5
 21
107.0
 31
0.0
  0
LINE
  5
C9B
  8
0
 10
77.5
 20
93.0
 30
0.0
 11
115.5
 21
93.0
 31
0.0
  0
LINE
  5
C9E
  8
0
 10
73.151494223968115
 20
89.030344885397113
 30
0.0
 11
68.848505776031885
 21
89.030344885397113
 31
0.0
  0
LINE
  5
CA0
  8
0
 10
73.151494223968115
 20
94.515172442698542
 30
0.0
 11
68.848505776031885
 21
94.515172442698542
 31
0.0
  0
LINE
  5
CA4
  8
0
 10
73.151494223968115
 20
105.4848275573014
 30
0.0
 11
68.848505776031885
 21
105.4848275573014
 31
0.0
  0
LINE
  5
CA7
  8
0
 10
73.151494223968115
 20
110.9696551146029
 30
0.0
 11
68.848505776031885
 21
110.9696551146029
 31
0.0
  0
LINE
  5
CAC
  8
3
 10
59.0
 20
105.08
 30
0.0
 11
68.0
 21
105.08
 31
0.0
  0
LINE
  5
CAD
  8
3
 10
59.0
 20
94.920000000000016
 30
0.0
 11
68.0
 21
94.920000000000016
 31
0.0
  0
LINE
  5
CAE
  8
1
 10
201.72999999999999
 20
99.999999999999986
 30
0.0
 11
50.0
 21
100.0
 31
0.0
  0
LINE
  5
CCC
  8
3
 10
77.000000000000014
 20
205.08000000000001
 30
0.0
 11
74.000000000000014
 21
205.08000000000001
 31
0.0
  0
LINE
  5
CD9
  8
3
 10
74.0
 20
105.08
 30
0.0
 11
77.0
 21
105.08
 31
0.0
  0
LINE
  5
CDA
  8
3
 10
74.0
 20
94.920000000000016
 30
0.0
 11
77.0
 21
94.920000000000016
 31
0.0
  0
LINE
  5
CDB
  8
3
 10
77.000000000000014
 20
194.91999999999999
 30
0.0
 11
74.000000000000014
 21
194.91999999999999
 31
0.0
  0
LINE
  5
E25
  8
2
 10
364.73000000000008
 20
96.999999999999986
 30
0.0
 11
364.73000000000008
 21
103.0
 31
0.0
  0
LINE
  5
E26
  8
2
 10
364.73000000000008
 20
102.4584999999999
 30
0.0
 11
355.27150000000012
 21
102.4584999999999
 31
0.0
  0
LINE
  5
E27
  8
2
 10
355.27150000000012
 20
97.541500000000013
 30
0.0
 11
364.73000000000008
 21
97.541500000000013
 31
0.0
  0
LINE
  5
E28
  8
2
 10
355.27150000000012
 20
97.541500000000013
 30
0.0
 11
355.27150000000012
 21
102.4584999999999
 31
0.0
  0
LINE
  5
E29
  8
2
 10
355.27150000000012
 20
102.4584999999999
 30
0.0
 11
354.73000000000008
 21
103.0
 31
0.0
  0
LINE
  5
E2A
  8
2
 10
354.73000000000008
 20
96.999999999999986
 30
0.0
 11
355.27150000000012
 21
97.541500000000013
 31
0.0
  0
LINE
  5
E2B
  8
0
 10
394.42994333268979
 20
87.298294077828231
 30
0.0
 11
394.73000000000008
 21
88.999999999999986
 31
0.0
  0
LINE
  5
E2C
  8
0
 10
394.73000000000008
 20
88.999999999999986
 30
0.0
 11
394.73000000000019
 21
111.0
 31
0.0
  0
LINE
  5
E2D
  8
0
 10
394.73000000000019
 20
111.0
 30
0.0
 11
394.4299433326899
 21
112.7017059221717
 31
0.0
  0
LINE
  5
E32
  8
0
 10
354.73000000000008
 20
90.919999999999945
 30
0.0
 11
354.73000000000008
 21
109.08
 31
0.0
  0
LINE
  5
E33
  8
0
 10
354.73000000000008
 20
90.919999999999945
 30
0.0
 11
355.65000000000009
 21
89.999999999999986
 31
0.0
  0
LINE
  5
E34
  8
0
 10
355.65000000000009
 20
110.0
 30
0.0
 11
354.73000000000008
 21
109.08
 31
0.0
  0
LINE
  5
E35
  8
0
 10
355.65000000000009
 20
89.999999999999986
 30
0.0
 11
355.65000000000009
 21
110.0
 31
0.0
  0
LINE
  5
E36
  8
0
 10
382.73000000000008
 20
110.0
 30
0.0
 11
375.06750416235661
 21
109.9999999999999
 31
0.0
  0
LINE
  5
E37
  8
0
 10
355.65000000000009
 20
89.999999999999986
 30
0.0
 11
365.06750416237929
 21
89.999999999999986
 31
0.0
  0
LINE
  5
E3C
  8
0
 10
394.4299433326899
 20
112.7017059221717
 30
0.0
 11
382.73000000000008
 21
112.7017059221717
 31
0.0
  0
LINE
  5
E3F
  8
0
 10
409.68000000000001
 20
111.0
 30
0.0
 11
395.43000000000012
 21
111.0
 31
0.0
  0
LINE
  5
E40
  8
0
 10
395.43000000000012
 20
88.999999999999986
 30
0.0
 11
409.68000000000001
 21
88.999999999999986
 31
0.0
  0
LINE
  5
E41
  8
0
 10
382.73000000000008
 20
112.7017059221717
 30
0.0
 11
382.73000000000008
 21
87.298294077828231
 31
0.0
  0
LINE
  5
E42
  8
0
 10
394.42994333268979
 20
87.298294077828231
 30
0.0
 11
382.73000000000008
 21
87.298294077828231
 31
0.0
  0
LINE
  5
E45
  8
0
 10
394.4299433326899
 20
106.35085296108581
 30
0.0
 11
382.73000000000008
 21
106.35085296108581
 31
0.0
  0
LINE
  5
E46
  8
0
 10
394.42994333268979
 20
93.649147038914165
 30
0.0
 11
382.73000000000008
 21
93.649147038914165
 31
0.0
  0
LINE
  5
E49
  8
0
 10
395.43000000000012
 20
88.999999999999986
 30
0.0
 11
395.43000000000012
 21
111.0
 31
0.0
  0
LINE
  5
E4A
  8
0
 10
394.73000000000008
 20
89.700000000000045
 30
0.0
 11
395.43000000000012
 21
88.999999999999986
 31
0.0
  0
LINE
  5
E4B
  8
0
 10
395.43000000000012
 20
111.0
 30
0.0
 11
394.73000000000019
 21
110.2999999999999
 31
0.0
  0
POLYLINE
  5
E4C
  8
0
 66
     1
 10
0.0
 20
0.0
 30
0.0
  0
VERTEX
  5
13B4
  8
0
 10
426.73000000000002
 20
85.333411463046318
 30
0.0
  0
VERTEX
  5
13B5
  8
0
 10
426.75617949756651
 20
85.426992433632094
 30
0.0
  0
VERTEX
  5
13B6
  8
0
 10
426.83662948126641
 20
85.534315807594425
 30
0.0
  0
VERTEX
  5
13B7
  8
0
 10
426.93965553803793
 20
85.635144196695691
 30
0.0
  0
VERTEX
  5
13B8
  8
0
 10
427.07176375240209
 20
85.755317080600875
 30
0.0
  0
VERTEX
  5
13B9
  8
0
 10
427.21598455856611
 20
85.894054488074957
 30
0.0
  0
VERTEX
  5
13BA
  8
0
 10
427.36637485151391
 20
86.062227393684211
 30
0.0
  0
VERTEX
  5
13BB
  8
0
 10
427.49689531584289
 20
86.244799967942043
 30
0.0
  0
VERTEX
  5
13BC
  8
0
 10
427.60780761711078
 20
86.454345147021613
 30
0.0
  0
VERTEX
  5
13BD
  8
0
 10
427.68387190071297
 20
86.672766016802683
 30
0.0
  0
VERTEX
  5
13BE
  8
0
 10
427.72482997436299
 20
86.908347673737339
 30
0.0
  0
VERTEX
  5
13BF
  8
0
 10
427.73000000000008
 20
87.027047367696113
 30
0.0
  0
SEQEND
  5
13C0
  8
0
  0
POLYLINE
  5
E4D
  8
0
 66
     1
 10
0.0
 20
0.0
 30
0.0
  0
VERTEX
  5
13C1
  8
0
 10
427.73000000000008
 20
112.9729526323038
 30
0.0
  0
VERTEX
  5
13C2
  8
0
 10
427.7258294238639
 20
113.07954520211879
 30
0.0
  0
VERTEX
  5
13C3
  8
0
 10
427.6927506519533
 20
113.2915044262142
 30
0.0
  0
VERTEX
  5
13C4
  8
0
 10
427.62662167372741
 20
113.5006889134122
 30
0.0
  0
VERTEX
  5
13C5
  8
0
 10
427.52821961225311
 20
113.7030399185375
 30
0.0
  0
VERTEX
  5
13C6
  8
0
 10
427.40260458069059
 20
113.89152782339561
 30
0.0
  0
VERTEX
  5
13C7
  8
0
 10
427.26365880513561
 20
114.0560203906311
 30
0.0
  0
VERTEX
  5
13C8
  8
0
 10
427.11832242630049
 20
114.20142325938239
 30
0.0
  0
VERTEX
  5
13C9
  8
0
 10
426.98645772214758
 20
114.3221872845688
 30
0.0
  0
VERTEX
  5
13CA
  8
0
 10
426.87241925057242
 20
114.42875784465851
 30
0.0
  0
VERTEX
  5
13CB
  8
0
 10
426.78872608515508
 20
114.5224984551425
 30
0.0
  0
VERTEX
  5
13CC
  8
0
 10
426.7398723001358
 20
114.61017751865251
 30
0.0
  0
VERTEX
  5
13CD
  8
0
 10
426.73000000000008
 20
114.6665885369535
 30
0.0
  0
SEQEND
  5
13CE
  8
0
  0
POLYLINE
  5
E4E
  8
0
 66
     1
 10
0.0
 20
0.0
 30
0.0
  0
VERTEX
  5
13CF
  8
0
 10
426.73000000000008
 20
114.6665885369535
 30
0.0
  0
VERTEX
  5
13D0
  8
0
 10
426.74639219385239
 20
114.7332438299572
 30
0.0
  0
VERTEX
  5
13D1
  8
0
 10
426.79813373141428
 20
114.79220485729741
 30
0.0
  0
VERTEX
  5
13D2
  8
0
 10
426.86383183461589
 20
114.8274635622289
 30
0.0
  0
VERTEX
  5
13D3
  8
0
 10
426.95383885695838
 20
114.8478327062153
 30
0.0
  0
VERTEX
  5
13D4
  8
0
 10
427.12965997681118
 20
114.83172752524371
 30
0.0
  0
VERTEX
  5
13D5
  8
0
 10
427.22819678202671
 20
114.795741760402
 30
0.0
  0
VERTEX
  5
13D6
  8
0
 10
427.33192354754232
 20
114.73617039410939
 30
0.0
  0
VERTEX
  5
13D7
  8
0
 10
427.49559424654279
 20
114.5850758896438
 30
0.0
  0
VERTEX
  5
13D8
  8
0
 10
427.62576654429728
 20
114.3793472652748
 30
0.0
  0
VERTEX
  5
13D9
  8
0
 10
427.71313041840341
 20
114.10077963053369
 30
0.0
  0
VERTEX
  5
13DA
  8
0
 10
427.73000000000008
 20
113.903147125741
 30
0.0
  0
SEQEND
  5
13DB
  8
0
  0
LINE
  5
E52
  8
0
 10
427.73000000000008
 20
85.6000000000016
 30
0.0
 11
427.73000000000008
 21
114.40000000000001
 31
0.0
  0
POLYLINE
  5
E53
  8
0
 66
     1
 10
0.0
 20
0.0
 30
0.0
  0
VERTEX
  5
13DC
  8
0
 10
427.73000000000008
 20
86.096852874263504
 30
0.0
  0
VERTEX
  5
13DD
  8
0
 10
427.68864458457051
 20
85.790261365731212
 30
0.0
  0
VERTEX
  5
13DE
  8
0
 10
427.63586399830541
 20
85.642728195817085
 30
0.0
  0
VERTEX
  5
13DF
  8
0
 10
427.55996113115049
 20
85.502411752545953
 30
0.0
  0
VERTEX
  5
13E0
  8
0
 10
427.39638537691002
 20
85.313697526346218
 30
0.0
  0
VERTEX
  5
13E1
  8
0
 10
427.20324121671302
 20
85.193326860406373
 30
0.0
  0
VERTEX
  5
13E2
  8
0
 10
427.03633744393579
 20
85.151731114925695
 30
0.0
  0
VERTEX
  5
13E3
  8
0
 10
426.94298436757339
 20
85.153400335440878
 30
0.0
  0
VERTEX
  5
13E4
  8
0
 10
426.86381634233231
 20
85.172542229282371
 30
0.0
  0
VERTEX
  5
13E5
  8
0
 10
426.78974433152672
 20
85.214418198359098
 30
0.0
  0
VERTEX
  5
13E6
  8
0
 10
426.74441675747028
 20
85.270651354474339
 30
0.0
  0
VERTEX
  5
13E7
  8
0
 10
426.73000000000002
 20
85.333411463046318
 30
0.0
  0
SEQEND
  5
13E8
  8
0
  0
LINE
  5
E56
  8
0
 10
426.63000000000011
 20
115.5
 30
0.0
 11
421.73000000000008
 21
115.5
 31
0.0
  0
LINE
  5
E57
  8
0
 10
421.73000000000002
 20
84.499999999999986
 30
0.0
 11
426.63000000000011
 21
84.499999999999986
 31
0.0
  0
LINE
  5
E58
  8
0
 10
409.68000000000001
 20
88.999999999999986
 30
0.0
 11
409.68000000000001
 21
111.0
 31
0.0
  0
LINE
  5
E59
  8
0
 10
409.68000000000001
 20
88.999999999999986
 30
0.0
 11
416.97874651891237
 21
83.499999999999986
 31
0.0
  0
LINE
  5
E5A
  8
0
 10
416.97874651891237
 20
116.5
 30
0.0
 11
409.68000000000001
 21
111.0
 31
0.0
  0
LINE
  5
E5B
  8
0
 10
421.73000000000002
 20
84.499999999999986
 30
0.0
 11
421.73000000000008
 21
115.5
 31
0.0
  0
ARC
  5
E5C
  8
0
 10
419.73000000000019
 20
114.0
 30
0.0
 40
2.4999999999999551
 50
36.869897645845647
 51
90.0
  0
ARC
  5
E5D
  8
0
 10
419.73000000000008
 20
85.999999999999986
 30
0.0
 40
2.4999999999999569
 50
269.99999999999841
 51
323.13010235415442
  0
LINE
  5
E5E
  8
0
 10
416.97874651891237
 20
83.499999999999986
 30
0.0
 11
416.97874651891237
 21
116.5
 31
0.0
  0
LINE
  5
E5F
  8
0
 10
419.73000000000008
 20
83.499999999999986
 30
0.0
 11
419.73000000000008
 21
116.5
 31
0.0
  0
LINE
  5
E60
  8
0
 10
419.73000000000008
 20
116.5
 30
0.0
 11
416.97874651891237
 21
116.5
 31
0.0
  0
LINE
  5
E61
  8
0
 10
416.97874651891237
 20
83.499999999999986
 30
0.0
 11
419.73000000000008
 21
83.499999999999986
 31
0.0
  0
LINE
  5
E62
  8
3
 10
354.73000000000008
 20
109.08
 30
0.0
 11
365.06750416237958
 21
109.08
 31
0.0
  0
LINE
  5
E63
  8
2
 10
354.73000000000008
 20
103.0
 30
0.0
 11
364.73000000000008
 21
103.0
 31
0.0
  0
LINE
  5
E64
  8
3
 10
354.73000000000008
 20
90.919999999999945
 30
0.0
 11
365.06750416237929
 21
90.919999999999945
 31
0.0
  0
LINE
  5
E65
  8
2
 10
354.73000000000008
 20
96.999999999999986
 30
0.0
 11
364.73000000000008
 21
96.999999999999986
 31
0.0
  0
LINE
  5
E66
  8
1
 10
430.73000000000002
 20
100.0
 30
0.0
 11
351.73000000000008
 21
100.0
 31
0.0
  0
ARC
  5
EB7
  8
0
 10
377.77758993005068
 20
109.5262794416288
 30
0.0
 40
16.952410069949451
 50
349.20391693320909
 51
10.796083066790921
  0
ARC
  5
EB8
  8
0
 10
327.37042889420701
 20
100.00000074777201
 30
0.0
 40
67.359571105793123
 50
354.58995395161969
 51
5.4100451946066617
  0
ARC
  5
EB9
  8
0
 10
377.77758993005068
 20
90.47372055837117
 30
0.0
 40
16.952410069949451
 50
349.20391693320909
 51
10.796083066790921
  0
ARC
  5
EBA
  8
0
 10
81.719683889980274
 20
204.75
 30
0.0
 40
13.719683889980249
 50
159.74384199958399
 51
200.25615800041589
  0
ARC
  5
EBB
  8
0
 10
60.280316110019747
 20
204.75
 30
0.0
 40
13.719683889980249
 50
339.74384199958399
 51
20.256158000415951
  0
ARC
  5
EBC
  8
0
 10
81.719683889980274
 20
195.25
 30
0.0
 40
13.719683889980249
 50
159.7438419995832
 51
200.2561580004168
  0
ARC
  5
EBD
  8
0
 10
60.280316110019747
 20
195.25
 30
0.0
 40
13.719683889980249
 50
339.7438419995832
 51
20.256158000416821
  0
ARC
  5
EBF
  8
0
 10
118.7791137421156
 20
202.5
 30
0.0
 40
7.2208862578843549
 50
339.74384199958399
 51
20.256158000415951
  0
ARC
  5
EC0
  8
0
 10
118.7791137421157
 20
197.4999999999998
 30
0.0
 40
7.2208862578843549
 50
339.74384199958672
 51
20.256158000416821
  0
ARC
  5
EC1
  8
0
 10
123.444177251577
 20
104.3301270189222
 30
0.0
 40
2.5558227484229672
 50
325.61575253195571
 51
34.384247468044251
  0
ARC
  5
EC2
  8
0
 10
116.4465844311528
 20
99.999999621947893
 30
0.0
 40
9.5534155688472158
 50
342.41204395867072
 51
17.587959292403308
  0
ARC
  5
EC3
  8
0
 10
123.444177251577
 20
95.669872224973574
 30
0.0
 40
2.5558227484229672
 50
325.61575253195667
 51
34.384247468046162
  0
ARC
  5
EC4
  8
0
 10
72.856063222003954
 20
108.2272413359522
 30
0.0
 40
4.8560632220039492
 50
145.6157525319577
 51
214.38424746804219
  0
ARC
  5
EC9
  8
0
 10
86.151494223968214
 20
100.0
 30
0.0
 40
18.151494223968211
 50
162.41204622600651
 51
197.58795377399349
  0
ARC
  5
ECA
  8
0
 10
72.856063222003954
 20
91.772758664047814
 30
0.0
 40
4.8560632220039492
 50
145.6157525319577
 51
214.38424746804219
  0
ARC
  5
ECB
  8
0
 10
69.143936777996046
 20
108.2272413359522
 30
0.0
 40
4.8560632220039492
 50
325.6157525319577
 51
34.384247468042247
  0
ARC
  5
ECC
  8
0
 10
55.848505776031779
 20
100.0
 30
0.0
 40
18.151494223968211
 50
342.41204622600651
 51
17.587953773994379
  0
ARC
  5
ECD
  8
0
 10
69.143936777996046
 20
91.772758664047814
 30
0.0
 40
4.8560632220039492
 50
325.6157525319577
 51
34.384247468042297
  0
ARC
  5
F1E
  8
3
 10
205.03
 20
202.625
 30
0.0
 40
6.82499999999997
 50
157.3801350519594
 51
202.6198649480406
  0
ARC
  5
F1F
  8
3
 10
192.43000000000001
 20
197.37500000000011
 30
0.0
 40
6.82499999999997
 50
337.38013505195943
 51
22.619864948040561
  0
ARC
  5
F2C
  8
3
 10
205.02999999999989
 20
102.625
 30
0.0
 40
6.82499999999997
 50
157.3801350519594
 51
202.61986494804049
  0
ARC
  5
F2D
  8
3
 10
192.43000000000001
 20
97.375000000000142
 30
0.0
 40
6.82499999999997
 50
337.38013505195943
 51
22.619864948040561
  0
LINE
  5
102B
  8
2
 10
364.73000000000008
 20
202.45849999999999
 30
0.0
 11
355.2715
 21
202.45849999999999
 31
0.0
  0
LINE
  5
102C
  8
2
 10
355.2715
 20
197.54150000000001
 30
0.0
 11
364.73000000000008
 21
197.5414999999999
 31
0.0
  0
LINE
  5
102D
  8
2
 10
364.73000000000008
 20
196.99999999999989
 30
0.0
 11
364.73000000000008
 21
202.99999999999989
 31
0.0
  0
LINE
  5
102E
  8
2
 10
355.2715
 20
202.45849999999999
 30
0.0
 11
354.73000000000008
 21
203.0
 31
0.0
  0
LINE
  5
102F
  8
2
 10
354.73000000000008
 20
197.0
 30
0.0
 11
355.2715
 21
197.54150000000001
 31
0.0
  0
LINE
  5
1030
  8
2
 10
355.2715
 20
197.54150000000001
 30
0.0
 11
355.2715
 21
202.45849999999999
 31
0.0
  0
LINE
  5
1033
  8
0
 10
382.73000000000008
 20
188.99999999999989
 30
0.0
 11
394.73000000000008
 21
188.99999999999989
 31
0.0
  0
LINE
  5
1034
  8
0
 10
394.73000000000008
 20
188.99999999999989
 30
0.0
 11
394.73000000000008
 21
210.99999999999989
 31
0.0
  0
LINE
  5
1035
  8
0
 10
394.73000000000008
 20
210.99999999999989
 30
0.0
 11
382.73000000000008
 21
210.99999999999989
 31
0.0
  0
LINE
  5
1038
  8
0
 10
354.73000000000008
 20
190.91999999999999
 30
0.0
 11
355.65000000000009
 21
190.0
 31
0.0
  0
LINE
  5
1039
  8
0
 10
355.65000000000009
 20
210.0
 30
0.0
 11
354.73000000000008
 21
209.08000000000001
 31
0.0
  0
LINE
  5
103A
  8
0
 10
354.73000000000008
 20
190.91999999999999
 30
0.0
 11
354.73000000000008
 21
209.08000000000001
 31
0.0
  0
LINE
  5
103E
  8
0
 10
382.73000000000008
 20
209.9999999999998
 30
0.0
 11
375.06750416235678
 21
210.0
 31
0.0
  0
LINE
  5
103F
  8
0
 10
355.65000000000009
 20
190.0
 30
0.0
 11
365.0675041623789
 21
190.0
 31
0.0
  0
LINE
  5
1040
  8
0
 10
355.65000000000009
 20
190.0
 30
0.0
 11
355.65000000000009
 21
210.0
 31
0.0
  0
LINE
  5
1042
  8
0
 10
409.68000000000001
 20
210.99999999999989
 30
0.0
 11
395.43000000000012
 21
210.99999999999989
 31
0.0
  0
LINE
  5
1043
  8
0
 10
395.43000000000012
 20
188.99999999999989
 30
0.0
 11
409.68000000000001
 21
188.99999999999989
 31
0.0
  0
LINE
  5
1044
  8
0
 10
394.73000000000008
 20
189.6999999999999
 30
0.0
 11
395.43000000000012
 21
188.99999999999989
 31
0.0
  0
LINE
  5
1045
  8
0
 10
395.43000000000012
 20
210.99999999999989
 30
0.0
 11
394.73000000000008
 21
210.30000000000001
 31
0.0
  0
LINE
  5
1046
  8
0
 10
395.43000000000012
 20
188.99999999999989
 30
0.0
 11
395.43000000000012
 21
210.99999999999989
 31
0.0
  0
LINE
  5
1047
  8
0
 10
382.73000000000008
 20
210.99999999999989
 30
0.0
 11
382.73000000000008
 21
188.99999999999989
 31
0.0
  0
LINE
  5
1048
  8
0
 10
394.42994333268979
 20
199.99999999999989
 30
0.0
 11
382.73000000000008
 21
199.99999999999989
 31
0.0
  0
LINE
  5
1049
  8
0
 10
426.63000000000011
 20
215.49999999999989
 30
0.0
 11
421.73000000000002
 21
215.49999999999989
 31
0.0
  0
LINE
  5
104A
  8
0
 10
421.73000000000002
 20
184.49999999999989
 30
0.0
 11
426.63000000000011
 21
184.49999999999989
 31
0.0
  0
LINE
  5
104B
  8
0
 10
427.73000000000008
 20
196.24999999999989
 30
0.0
 11
427.73000000000008
 21
198.74999999999989
 31
0.0
  0
LINE
  5
104C
  8
0
 10
427.73000000000008
 20
201.24999999999989
 30
0.0
 11
427.73000000000008
 21
203.75
 31
0.0
  0
LINE
  5
104D
  8
0
 10
427.73000000000008
 20
206.25
 30
0.0
 11
427.73000000000008
 21
214.39999999999989
 31
0.0
  0
LINE
  5
104E
  8
0
 10
427.73000000000008
 20
185.59999999999991
 30
0.0
 11
427.73000000000008
 21
193.74999999999989
 31
0.0
  0
ARC
  5
104F
  8
0
 10
426.63000000000011
 20
214.40000000000001
 30
0.0
 40
1.0999999999999941
 50
0.0
 51
90.0
  0
ARC
  5
1050
  8
0
 10
426.63000000000011
 20
185.59999999999991
 30
0.0
 40
1.0999999999999901
 50
269.99999999999682
 51
0.0
  0
LINE
  5
1051
  8
0
 10
409.68000000000001
 20
188.99999999999989
 30
0.0
 11
416.97874651891232
 21
183.49999999999989
 31
0.0
  0
LINE
  5
1052
  8
0
 10
416.97874651891232
 20
216.5
 30
0.0
 11
409.68000000000001
 21
210.99999999999989
 31
0.0
  0
LINE
  5
1053
  8
0
 10
409.68000000000001
 20
188.99999999999989
 30
0.0
 11
409.68000000000001
 21
210.99999999999989
 31
0.0
  0
ARC
  5
1054
  8
0
 10
419.73000000000008
 20
214.0
 30
0.0
 40
2.4999999999999551
 50
36.869897645847942
 51
90.0
  0
ARC
  5
1055
  8
0
 10
419.73000000000008
 20
185.99999999999989
 30
0.0
 40
2.4999999999999569
 50
269.99999999999682
 51
323.13010235415209
  0
LINE
  5
1056
  8
0
 10
421.73000000000002
 20
184.49999999999989
 30
0.0
 11
421.73000000000002
 21
215.49999999999989
 31
0.0
  0
LINE
  5
1057
  8
0
 10
419.73000000000008
 20
216.5
 30
0.0
 11
416.97874651891232
 21
216.5
 31
0.0
  0
LINE
  5
1058
  8
0
 10
416.97874651891232
 20
183.49999999999989
 30
0.0
 11
419.73000000000008
 21
183.49999999999989
 31
0.0
  0
LINE
  5
1059
  8
0
 10
416.97874651891232
 20
183.49999999999989
 30
0.0
 11
416.97874651891232
 21
216.5
 31
0.0
  0
LINE
  5
105A
  8
0
 10
419.73000000000008
 20
183.49999999999989
 30
0.0
 11
419.73000000000008
 21
216.5
 31
0.0
  0
LINE
  5
105B
  8
3
 10
354.73000000000008
 20
190.91999999999999
 30
0.0
 11
365.06750416237878
 21
190.91999999999999
 31
0.0
  0
LINE
  5
105C
  8
2
 10
354.73000000000008
 20
197.0
 30
0.0
 11
364.73000000000008
 21
196.99999999999989
 31
0.0
  0
LINE
  5
105D
  8
3
 10
354.73000000000008
 20
209.08000000000001
 30
0.0
 11
365.0675041623789
 21
209.08000000000001
 31
0.0
  0
LINE
  5
105E
  8
2
 10
354.73000000000008
 20
203.0
 30
0.0
 11
364.73000000000008
 21
202.99999999999989
 31
0.0
  0
LINE
  5
105F
  8
1
 10
430.68238639142601
 20
199.99999999999989
 30
0.0
 11
351.73000000000002
 21
200.0
 31
0.0
  0
LINE
  5
1060
  8
0
 10
483.72980300765317
 20
201.24999999999989
 30
0.0
 11
516.63496977519878
 21
201.24999999999989
 31
0.0
  0
LINE
  5
1061
  8
0
 10
483.72980300765317
 20
198.74999999999989
 30
0.0
 11
516.63496977519878
 21
198.74999999999989
 31
0.0
  0
LINE
  5
1062
  8
0
 10
484.11417242720472
 20
196.24999999999989
 30
0.0
 11
516.25060035564752
 21
196.2499999999998
 31
0.0
  0
LINE
  5
1063
  8
0
 10
484.91190833735061
 20
193.74999999999989
 30
0.0
 11
515.45286444550152
 21
193.74999999999989
 31
0.0
  0
LINE
  5
1064
  8
0
 10
484.91190833735061
 20
206.25
 30
0.0
 11
515.45286444550152
 21
206.25
 31
0.0
  0
LINE
  5
1065
  8
0
 10
484.11417242720472
 20
203.75
 30
0.0
 11
516.25060035564752
 21
203.75
 31
0.0
  0
LINE
  5
1066
  8
1
 10
480.68238639142601
 20
199.99999999999989
 30
0.0
 11
519.68238639142601
 21
199.99999999999989
 31
0.0
  0
CIRCLE
  5
1067
  8
0
 10
500.18238639142601
 20
199.99999999999989
 30
0.0
 40
16.500000000000011
  0
ARC
  5
1068
  8
0
 10
344.17282645746258
 20
205.5
 30
0.0
 40
50.557173542537441
 50
353.7545619249828
 51
6.2454380750164091
  0
ARC
  5
1069
  8
0
 10
344.17282645746258
 20
194.49999999999989
 30
0.0
 40
50.557173542537441
 50
353.75456192498439
 51
6.2454380750155991
  0
LINE
  5
106A
  8
1
 10
500.18238639142601
 20
180.49999999999989
 30
0.0
 11
500.18238639142601
 21
219.49999999999989
 31
0.0
  0
ARC
  5
106B
  8
0
 10
428.01125000000002
 20
204.99999999999989
 30
0.0
 40
1.2812499999999869
 50
102.68038349181811
 51
257.31961650818192
  0
ARC
  5
106C
  8
0
 10
428.01125000000002
 20
199.99999999999989
 30
0.0
 40
1.2812499999999869
 50
102.68038349181811
 51
257.31961650818192
  0
ARC
  5
106D
  8
0
 10
428.01125000000002
 20
194.99999999999989
 30
0.0
 40
1.2812499999999869
 50
102.68038349181811
 51
257.31961650818192
  0
ARC
  5
106E
  8
0
 10
500.18238639142601
 20
199.99999999999989
 30
0.0
 40
15.5
 50
23.77999473141346
 51
156.2200052685865
  0
ARC
  5
106F
  8
0
 10
500.18238639142601
 20
199.99999999999989
 30
0.0
 40
15.5
 50
165.99919761374281
 51
175.37434942047679
  0
ARC
  5
1070
  8
0
 10
500.18238639142601
 20
199.99999999999989
 30
0.0
 40
15.5
 50
184.6256505795223
 51
194.00080238625631
  0
ARC
  5
1071
  8
0
 10
500.18238639142601
 20
199.99999999999989
 30
0.0
 40
15.5
 50
203.7799947314127
 51
336.22000526858727
  0
ARC
  5
1072
  8
0
 10
500.18238639142601
 20
199.99999999999989
 30
0.0
 40
15.5
 50
345.99919761374372
 51
355.3743494204777
  0
ARC
  5
1073
  8
0
 10
500.18238639142601
 20
199.99999999999989
 30
0.0
 40
15.5
 50
4.6256505795231257
 51
14.00080238625714
  0
ARC
  5
115A
  8
0
 10
387.0188380706428
 20
207.5
 30
0.0
 40
21.662658773668529
 50
159.74384199959849
 51
200.25615800040151
  0
ARC
  5
115B
  8
0
 10
353.11617025409288
 20
207.5
 30
0.0
 40
21.662658773668529
 50
339.74384199959849
 51
20.256158000401481
  0
LINE
  5
115C
  8
0
 10
365.0675041623789
 20
214.5
 30
0.0
 11
365.0675041623789
 21
185.50000000000159
 31
0.0
  0
LINE
  5
115D
  8
0
 10
375.06750416235678
 20
185.50000000000159
 30
0.0
 11
375.06750416235678
 21
214.49999999999841
 31
0.0
  0
LINE
  5
115E
  8
0
 10
374.77882902776128
 20
215.0
 30
0.0
 11
365.35617929697429
 21
214.9999999999998
 31
0.0
  0
LINE
  5
115F
  8
0
 10
365.0675041623789
 20
214.49999999999841
 30
0.0
 11
365.35617929697452
 21
214.9999999999998
 31
0.0
  0
LINE
  5
1160
  8
0
 10
375.06750416235678
 20
214.49999999999841
 30
0.0
 11
374.77882902776128
 21
214.9999999999998
 31
0.0
  0
ARC
  5
1161
  8
0
 10
387.0188380706428
 20
192.5
 30
0.0
 40
21.662658773668529
 50
159.74384199959849
 51
200.25615800040151
  0
ARC
  5
1162
  8
0
 10
353.11617025409288
 20
192.5
 30
0.0
 40
21.662658773668529
 50
339.74384199959849
 51
20.256158000401481
  0
LINE
  5
1163
  8
0
 10
373.43908306560672
 20
200.0
 30
0.0
 11
366.69592525912418
 21
200.0
 31
0.0
  0
LINE
  5
1164
  8
0
 10
374.77882902776128
 20
184.99999999999989
 30
0.0
 11
365.35617929697429
 21
185.0000000000002
 31
0.0
  0
LINE
  5
1165
  8
0
 10
365.0675041623789
 20
185.50000000000159
 30
0.0
 11
365.35617929697452
 21
185.0000000000002
 31
0.0
  0
LINE
  5
1166
  8
0
 10
375.06750416235678
 20
185.50000000000159
 30
0.0
 11
374.77882902776128
 21
185.0000000000002
 31
0.0
  0
LINE
  5
1181
  8
0
 10
375.06750416235661
 20
114.5000000000002
 30
0.0
 11
375.06750416235701
 21
85.499999999999744
 31
0.0
  0
LINE
  5
1182
  8
0
 10
365.06750416237918
 20
85.499999999999744
 30
0.0
 11
365.06750416237969
 21
114.5000000000004
 31
0.0
  0
LINE
  5
1183
  8
0
 10
365.06750416237918
 20
114.4999999999997
 30
0.0
 11
366.69592525912958
 21
117.32050807568839
 31
0.0
  0
ARC
  5
1184
  8
0
 10
373.0236475422505
 20
112.9903810567659
 30
0.0
 40
7.6674682452751783
 50
154.38424747045369
 51
214.3842474680107
  0
ARC
  5
1185
  8
0
 10
373.0236475422505
 20
112.9903810567659
 30
0.0
 40
7.6674682452751783
 50
145.6157525319847
 51
145.61575253198799
  0
ARC
  5
1186
  8
0
 10
367.11136078248569
 20
112.9903810567659
 30
0.0
 40
7.6674682452751783
 50
34.384247468010692
 51
34.384247468015232
  0
ARC
  5
1187
  8
0
 10
367.11136078248569
 20
112.9903810567659
 30
0.0
 40
7.6674682452751783
 50
325.6157525319893
 51
25.61575252954631
  0
LINE
  5
1188
  8
0
 10
375.06750416235701
 20
114.4999999999997
 30
0.0
 11
373.43908306560661
 21
117.32050807568839
 31
0.0
  0
LINE
  5
1189
  8
0
 10
366.69592525912969
 20
117.3205080756881
 30
0.0
 11
373.4390830654429
 21
117.3205080759719
 31
0.0
  0
LINE
  5
118A
  8
0
 10
373.43908306558319
 20
108.6602540378439
 30
0.0
 11
366.69592525912969
 21
108.66025403769
 31
0.0
  0
ARC
  5
118B
  8
0
 10
346.1185749903683
 20
100.0000000000732
 30
0.0
 40
28.6602540373928
 50
342.4120462255662
 51
17.587953774125889
  0
LINE
  5
118C
  8
0
 10
373.43908306558319
 20
91.339745962155575
 30
0.0
 11
366.69592525912969
 21
91.339745962309493
 31
0.0
  0
LINE
  5
118D
  8
0
 10
366.69592525912969
 20
82.679491924311364
 30
0.0
 11
373.4390830654429
 21
82.679491924027602
 31
0.0
  0
LINE
  5
118E
  8
0
 10
375.06750416235701
 20
85.499999999999744
 30
0.0
 11
373.43908306560661
 21
82.679491924311137
 31
0.0
  0
ARC
  5
118F
  8
0
 10
367.11136078248569
 20
87.009618943233576
 30
0.0
 40
7.6674682452751783
 50
334.38424747045372
 51
34.384247468010692
  0
ARC
  5
1190
  8
0
 10
367.11136078248569
 20
87.009618943233576
 30
0.0
 40
7.6674682452751783
 50
325.61575253198481
 51
325.61575253198799
  0
ARC
  5
1191
  8
0
 10
394.016433334368
 20
100.0000000000732
 30
0.0
 40
28.6602540373928
 50
162.41204622587409
 51
197.5879537744338
  0
ARC
  5
1192
  8
0
 10
373.0236475422505
 20
87.009618943233576
 30
0.0
 40
7.6674682452751783
 50
214.3842474680107
 51
214.38424746801519
  0
ARC
  5
1193
  8
0
 10
373.0236475422505
 20
87.009618943233576
 30
0.0
 40
7.6674682452751783
 50
145.6157525319893
 51
205.61575252954631
  0
LINE
  5
1194
  8
0
 10
365.06750416237918
 20
85.499999999999744
 30
0.0
 11
366.69592525912958
 21
82.679491924311137
 31
0.0
  0
LINE
  5
1197
  8
0
 10
365.0675041623789
 20
210.0
 30
0.0
 11
355.65000000000009
 21
210.0
 31
0.0
  0
LINE
  5
1198
  8
3
 10
375.0675041623569
 20
209.08000000000001
 30
0.0
 11
379.73000000000008
 21
209.08000000000001
 31
0.0
  0
LINE
  5
1199
  8
3
 10
375.06750416235678
 20
190.9199999999999
 30
0.0
 11
379.73000000000008
 21
190.9199999999999
 31
0.0
  0
LINE
  5
119A
  8
0
 10
375.06750416235678
 20
190.0
 30
0.0
 11
382.73000000000008
 21
189.99999999999989
 31
0.0
  0
LINE
  5
119B
  8
0
 10
365.06750416237958
 20
109.9999999999999
 30
0.0
 11
355.65000000000009
 21
110.0
 31
0.0
  0
LINE
  5
119C
  8
3
 10
375.06750416235673
 20
109.08
 30
0.0
 11
379.73000000000008
 21
109.08
 31
0.0
  0
LINE
  5
119D
  8
3
 10
375.06750416235678
 20
90.919999999999931
 30
0.0
 11
379.73000000000002
 21
90.919999999999931
 31
0.0
  0
LINE
  5
119E
  8
0
 10
375.06750416235678
 20
89.999999999999986
 30
0.0
 11
382.73000000000008
 21
89.999999999999986
 31
0.0
  0
ARC
  5
1232
  8
0
 10
426.63000000000011
 20
114.40000000000001
 30
0.0
 40
1.0999999999999941
 50
0.0
 51
90.0
  0
ARC
  5
1233
  8
0
 10
426.63000000000011
 20
85.599999999999952
 30
0.0
 40
1.0999999999999901
 50
269.99999999999682
 51
0.0
  0
LINE
  5
12DB
  8
0
 10
379.73000000000008
 20
209.99999999999989
 30
0.0
 11
379.73000000000002
 21
189.99999999999989
 31
0.0
  0
LINE
  5
12DC
  8
3
 10
379.73000000000002
 20
190.9199999999999
 30
0.0
 11
381.3234867429635
 21
189.99999999999989
 31
0.0
  0
LINE
  5
12DD
  8
3
 10
379.72999999999951
 20
209.07999999999981
 30
0.0
 11
381.32348674296293
 21
210.0
 31
0.0
  0
LINE
  5
12E2
  8
0
 10
379.73000000000008
 20
109.9999999999999
 30
0.0
 11
379.73000000000008
 21
89.999999999999986
 31
0.0
  0
LINE
  5
12E3
  8
3
 10
379.73000000000008
 20
90.920000000000002
 30
0.0
 11
381.32348674296361
 21
89.999999999999957
 31
0.0
  0
LINE
  5
12E4
  8
3
 10
379.72999999999962
 20
109.0799999999998
 30
0.0
 11
381.32348674296298
 21
110.0
 31
0.0
  0
ENDSEC
  0
EOF
