  0
SECTION
  2
HEADER
  9
$ACADVER
  1
AC1009
  9
$INSBASE
 10
0.0
 20
0.0
 30
0.0
  9
$EXTMIN
 10
0.0
 20
-2.960436562073669
 30
0.0
  9
$EXTMAX
 10
697.86297973248588
 20
484.42666748060827
 30
0.0
  9
$LIMMIN
 10
0.0
 20
0.0
  9
$LIMMAX
 10
594.0
 20
420.0
  9
$ORTHOMODE
 70
     1
  9
$REGENMODE
 70
     1
  9
$FILLMODE
 70
     1
  9
$QTEXTMODE
 70
     0
  9
$MIRRTEXT
 70
     1
  9
$DRAGMODE
 70
     2
  9
$LTSCALE
 40
1.0
  9
$OSMODE
 70
  3071
  9
$ATTMODE
 70
     1
  9
$TEXTSIZE
 40
2.5
  9
$TRACEWID
 40
1.0
  9
$TEXTSTYLE
  7
STANDARD
  9
$CLAYER
  8
0
  9
$CELTYPE
  6
BYLAYER
  9
$CECOLOR
 62
   256
  9
$DIMSCALE
 40
1.0
  9
$DIMASZ
 40
3.0
  9
$DIMEXO
 40
1.0
  9
$DIMDLI
 40
3.75
  9
$DIMRND
 40
0.0
  9
$DIMDLE
 40
0.0
  9
$DIMEXE
 40
1.0
  9
$DIMTP
 40
0.0
  9
$DIMTM
 40
0.0
  9
$DIMTXT
 40
4.2333333333333316
  9
$DIMCEN
 40
2.5
  9
$DIMTSZ
 40
0.0
  9
$DIMTOL
 70
     0
  9
$DIMLIM
 70
     0
  9
$DIMTIH
 70
     1
  9
$DIMTOH
 70
     1
  9
$DIMSE1
 70
     0
  9
$DIMSE2
 70
     0
  9
$DIMTAD
 70
     1
  9
$DIMZIN
 70
     0
  9
$DIMBLK
  1

  9
$DIMASO
 70
     1
  9
$DIMSHO
 70
     1
  9
$DIMPOST
  1

  9
$DIMAPOST
  1

  9
$DIMALT
 70
     0
  9
$DIMALTD
 70
     3
  9
$DIMALTF
 40
0.0393700787401575
  9
$DIMLFAC
 40
1.0
  9
$DIMTOFL
 70
     1
  9
$DIMTVP
 40
0.0
  9
$DIMTIX
 70
     0
  9
$DIMSOXD
 70
     0
  9
$DIMSAH
 70
     0
  9
$DIMBLK1
  1

  9
$DIMBLK2
  1

  9
$DIMSTYLE
  2
ISO-25
  9
$DIMCLRD
 70
     0
  9
$DIMCLRE
 70
     0
  9
$DIMCLRT
 70
     0
  9
$DIMTFAC
 40
1.0
  9
$DIMGAP
 40
1.524
  9
$LUNITS
 70
     2
  9
$LUPREC
 70
     1
  9
$SKETCHINC
 40
1.0
  9
$FILLETRAD
 40
10.0
  9
$AUNITS
 70
     0
  9
$AUPREC
 70
     0
  9
$MENU
  1
.
  9
$ELEVATION
 40
0.0
  9
$PELEVATION
 40
0.0
  9
$THICKNESS
 40
0.0
  9
$LIMCHECK
 70
     0
  9
$BLIPMODE
 70
     0
  9
$CHAMFERA
 40
10.0
  9
$CHAMFERB
 40
10.0
  9
$SKPOLY
 70
     0
  9
$TDCREATE
 40
2454991.6013850812
  9
$TDUPDATE
 40
2456598.4305254859
  9
$TDINDWG
 40
0.3614954051
  9
$TDUSRTIMER
 40
0.3614954051
  9
$USRTIMER
 70
     1
  9
$ANGBASE
 50
0.0
  9
$ANGDIR
 70
     0
  9
$PDMODE
 70
     0
  9
$PDSIZE
 40
-1.0
  9
$PLINEWID
 40
0.0
  9
$COORDS
 70
     1
  9
$SPLFRAME
 70
     0
  9
$SPLINETYPE
 70
     6
  9
$SPLINESEGS
 70
     8
  9
$ATTDIA
 70
     0
  9
$ATTREQ
 70
     1
  9
$HANDLING
 70
     1
  9
$HANDSEED
  5
843E
  9
$SURFTAB1
 70
     6
  9
$SURFTAB2
 70
     6
  9
$SURFTYPE
 70
     6
  9
$SURFU
 70
     6
  9
$SURFV
 70
     6
  9
$UCSNAME
  2

  9
$UCSORG
 10
0.0
 20
0.0
 30
0.0
  9
$UCSXDIR
 10
1.0
 20
0.0
 30
0.0
  9
$UCSYDIR
 10
0.0
 20
1.0
 30
0.0
  9
$PUCSNAME
  2

  9
$PUCSORG
 10
0.0
 20
0.0
 30
0.0
  9
$PUCSXDIR
 10
1.0
 20
0.0
 30
0.0
  9
$PUCSYDIR
 10
0.0
 20
1.0
 30
0.0
  9
$USERI1
 70
     0
  9
$USERI2
 70
     0
  9
$USERI3
 70
     0
  9
$USERI4
 70
     0
  9
$USERI5
 70
     0
  9
$USERR1
 40
0.0
  9
$USERR2
 40
0.0
  9
$USERR3
 40
0.0
  9
$USERR4
 40
0.0
  9
$USERR5
 40
0.0
  9
$WORLDVIEW
 70
     1
  9
$SHADEDGE
 70
     3
  9
$SHADEDIF
 70
    70
  9
$TILEMODE
 70
     1
  9
$MAXACTVP
 70
    64
  9
$PLIMCHECK
 70
     0
  9
$PEXTMIN
 10
1.0000000000000000E+020
 20
1.0000000000000000E+020
 30
1.0000000000000000E+020
  9
$PEXTMAX
 10
-1.0000000000000000E+020
 20
-1.0000000000000000E+020
 30
-1.0000000000000000E+020
  9
$PLIMMIN
 10
0.0
 20
0.0
  9
$PLIMMAX
 10
420.0
 20
297.0
  9
$UNITMODE
 70
     0
  9
$VISRETAIN
 70
     1
  9
$PLINEGEN
 70
     0
  9
$PSLTSCALE
 70
     1
  0
ENDSEC
  0
SECTION
  2
TABLES
  0
TABLE
  2
VPORT
 70
     1
  0
VPORT
  2
*ACTIVE
 70
     0
 10
0.0
 20
0.0
 11
1.0
 21
1.0
 12
348.93149149108149
 22
269.05851602119589
 13
0.0
 23
0.0
 14
10.0
 24
10.0
 15
10.0
 25
10.0
 16
0.0
 26
0.0
 36
1.0
 17
0.0
 27
0.0
 37
0.0
 40
550.8929000052392
 41
2.304913294797688
 42
50.0
 43
0.0
 44
0.0
 50
0.0
 51
0.0
 71
     0
 72
  2000
 73
     1
 74
     3
 75
     0
 76
     0
 77
     0
 78
     0
  0
ENDTAB
  0
TABLE
  2
LTYPE
 70
     2
  0
LTYPE
  2
CONTINUOUS
 70
     0
  3
Solid line
 72
    65
 73
     0
 40
0.0
  0
LTYPE
  2
CENTER
 70
     0
  3
Center ____ _ ____ _ ____ _ ____ _ ____ _ ____
 72
    65
 73
     4
 40
10.16
 49
6.3499999999999988
 49
-1.27
 49
1.27
 49
-1.27
  0
ENDTAB
  0
TABLE
  2
LAYER
 70
     4
  0
LAYER
  2
0
 70
     0
 62
     7
  6
CONTINUOUS
  0
LAYER
  2
DEFPOINTS
 70
     0
 62
     7
  6
CONTINUOUS
  0
LAYER
  2
1
 70
     0
 62
     1
  6
CENTER
  0
LAYER
  2
3
 70
     0
 62
     3
  6
CONTINUOUS
  0
ENDTAB
  0
TABLE
  2
STYLE
 70
     2
  0
STYLE
  2
STANDARD
 70
     0
 40
0.0
 41
1.0
 50
0.0
 71
     0
 42
2.5
  3
txt
  4
bigfont
  0
STYLE
  2
STANDARD1
 70
     0
 40
0.0
 41
1.0
 50
0.0
 71
     0
 42
3.0
  3
txt
  4

  0
ENDTAB
  0
TABLE
  2
VIEW
 70
     0
  0
ENDTAB
  0
TABLE
  2
UCS
 70
     0
  0
ENDTAB
  0
TABLE
  2
APPID
 70
     3
  0
APPID
  2
ACAD
 70
     0
  0
APPID
  2
ACAD_MLEADERVER
 70
     0
  0
APPID
  2
ACAD_NAV_VCDISPLAY
 70
     0
  0
ENDTAB
  0
TABLE
  2
DIMSTYLE
 70
     2
  0
DIMSTYLE
  2
ISO-25
 70
     0
  3

  4

  5

  6

  7

 40
1.0
 41
2.5
 42
0.625
 43
3.75
 44
1.25
 45
0.0
 46
0.0
 47
0.0
 48
0.0
140
2.5
141
2.5
142
0.0
143
0.03937007874016
144
1.0
145
0.0
146
1.0
147
0.625
 71
     0
 72
     0
 73
     0
 74
     0
 75
     0
 76
     0
 77
     1
 78
     8
170
     0
171
     3
172
     1
173
     0
174
     0
175
     0
176
     0
177
     0
178
     0
  0
DIMSTYLE
  2
STANDARD
 70
     0
  3

  4

  5

  6

  7

 40
1.0
 41
0.18
 42
0.0625
 43
0.38
 44
0.18
 45
0.0
 46
0.0
 47
0.0
 48
0.0
140
0.18
141
0.09
142
0.0
143
25.399999999999999
144
1.0
145
0.0
146
1.0
147
0.09
 71
     0
 72
     0
 73
     1
 74
     1
 75
     0
 76
     0
 77
     0
 78
     0
170
     0
171
     2
172
     0
173
     0
174
     0
175
     0
176
     0
177
     0
178
     0
  0
ENDTAB
  0
ENDSEC
  0
SECTION
  2
BLOCKS
  0
BLOCK
  8
0
  2
$MODEL_SPACE
 70
     0
 10
0.0
 20
0.0
 30
0.0
  3
$MODEL_SPACE
  1

  0
ENDBLK
  5
21
  8
0
  0
BLOCK
 67
     1
  8
0
  2
$PAPER_SPACE
 70
     0
 10
0.0
 20
0.0
 30
0.0
  3
$PAPER_SPACE
  1

  0
ENDBLK
  5
1D
 67
     1
  8
0
  0
ENDSEC
  0
SECTION
  2
ENTITIES
  0
ARC
  5
6606
  8
0
 10
228.01625944875579
 20
292.64794715192062
 30
0.0
 40
5.0000000000000151
 50
45.572995999194468
 51
134.42700400080551
  0
ARC
  5
660B
  8
0
 10
332.05967567783313
 20
296.75794715192052
 30
0.0
 40
16.499999999999972
 50
270.0000000000008
 51
326.27461597806263
  0
ARC
  5
660C
  8
0
 10
332.05967567783313
 20
296.75794715192052
 30
0.0
 40
16.50000000000005
 50
326.27461597806263
 51
90.0
  0
ARC
  5
6613
  8
0
 10
259.51625944875582
 20
302.25794715192058
 30
0.0
 40
1.5
 50
90.0
 51
180.0
  0
ARC
  5
6615
  8
0
 10
258.81625944875577
 20
290.55794715192047
 30
0.0
 40
0.799999999999983
 50
179.99999999999989
 51
270.0000000000008
  0
ARC
  5
6618
  8
0
 10
258.81625944875577
 20
288.95794715192062
 30
0.0
 40
0.8000000000000113
 50
90.0
 51
179.9999999999998
  0
ARC
  5
6619
  8
0
 10
287.21625944875592
 20
288.95794715192062
 30
0.0
 40
0.8000000000000113
 50
0.0000000000001242
 51
90.0
  0
LINE
  5
6632
  8
0
 10
223.10878373884071
 20
292.1479466750834
 30
0.0
 11
232.92373530768259
 21
292.1479466750834
 31
0.0
  0
LINE
  5
663F
  8
0
 10
237.83121295474879
 20
240.64794661547879
 30
0.0
 11
232.92373530768259
 21
240.64794661547879
 31
0.0
  0
LINE
  5
6643
  8
0
 10
232.92373530768259
 20
240.64794661547879
 30
0.0
 11
223.10878373884071
 21
240.64794661547879
 31
0.0
  0
LINE
  5
6646
  8
0
 10
223.10878373884071
 20
240.64794661547879
 30
0.0
 11
218.2013060917746
 21
240.64794661547879
 31
0.0
  0
LINE
  5
6648
  8
0
 10
231.51626102827899
 20
293.0139723613475
 30
0.0
 11
224.5162580182444
 21
293.0139723613475
 31
0.0
  0
LINE
  5
6649
  8
0
 10
231.51626102827899
 20
296.2186607911799
 30
0.0
 11
224.5162580182444
 21
296.2186607911799
 31
0.0
  0
LINE
  5
664B
  8
0
 10
297.90641777418961
 20
303.7579480006907
 30
0.0
 11
298.12500104509701
 21
303.75111581828332
 31
0.0
  0
LINE
  5
664D
  8
0
 10
297.92309217356552
 20
289.75794943120218
 30
0.0
 11
297.88974337481369
 21
289.75794943120218
 31
0.0
  0
LINE
  5
664E
  8
0
 10
259.51625909857847
 20
303.7579480006907
 30
0.0
 11
281.18256051294912
 21
303.7579480006907
 31
0.0
  0
LINE
  5
6652
  8
0
 10
258.81625935636862
 20
289.75794943120218
 30
0.0
 11
259.67262443356623
 21
289.75794943120218
 31
0.0
  0
LINE
  5
665F
  8
0
 10
276.96625925802101
 20
286.14794941689712
 30
0.0
 11
292.21626036070688
 21
286.14794941689712
 31
0.0
  0
LINE
  5
6661
  8
0
 10
258.70542451940878
 20
286.14794941689712
 30
0.0
 11
269.06625963949068
 21
286.14794941689712
 31
0.0
  0
LINE
  5
6665
  8
0
 10
250.6555788239132
 20
286.14794941689712
 30
0.0
 11
258.70542451940878
 21
286.14794941689712
 31
0.0
  0
LINE
  5
6668
  8
0
 10
228.0162576606165
 20
286.14794941689712
 30
0.0
 11
250.6555788239132
 21
286.14794941689712
 31
0.0
  0
LINE
  5
6669
  8
0
 10
218.8950706293474
 20
286.14794941689712
 30
0.0
 11
222.4150154759775
 21
286.14794941689712
 31
0.0
  0
LINE
  5
666B
  8
0
 10
253.01625944875579
 20
264.1479458108181
 30
0.0
 11
218.0162597467791
 21
264.147945810816
 31
0.0
  0
LINE
  5
667B
  8
0
 10
292.21626036070688
 20
204.14794715192059
 30
0.0
 11
253.81625853680481
 21
204.14794715192059
 31
0.0
  0
LINE
  5
667D
  8
0
 10
293.01625900172098
 20
221.34794773604611
 30
0.0
 11
293.01625900172098
 21
204.94794713171089
 31
0.0
  0
LINE
  5
6684
  8
0
 10
253.81625853680481
 20
222.14794637706021
 30
0.0
 11
292.21626036070688
 21
222.14794637706021
 31
0.0
  0
LINE
  5
668A
  8
0
 10
303.3232934793125
 20
287.24093468930459
 30
0.0
 11
303.05945165656908
 21
287.39820154454452
 31
0.0
  0
LINE
  5
668E
  8
0
 10
292.95667112075199
 20
296.73436762835718
 30
0.0
 11
292.95667112075199
 21
296.7579487159465
 31
0.0
  0
LINE
  5
668F
  8
0
 10
292.95667112075199
 20
296.7579487159465
 30
0.0
 11
294.08804178439487
 21
296.7579487159465
 31
0.0
  0
LINE
  5
669E
  8
0
 10
276.39926937610318
 20
289.75794943120218
 30
0.0
 11
276.39926937610312
 21
296.7579487159465
 31
0.0
  0
LINE
  5
66B4
  8
1
 10
273.01625944875582
 20
308.55832252720359
 30
0.0
 11
273.01625944875582
 21
199.1479471519205
 31
0.0
  0
LINE
  5
66B5
  8
1
 10
358.1067924181047
 20
296.75794715192058
 30
0.0
 11
273.01625944875582
 21
296.75794715192058
 31
0.0
  0
ARC
  5
66B8
  8
0
 10
258.81625944875577
 20
290.55794715192047
 30
0.0
 40
0.799999999999983
 50
180.0
 51
270.0000000000008
  0
ARC
  5
66B9
  8
0
 10
259.51625944875582
 20
302.25794715192058
 30
0.0
 40
1.5
 50
90.0
 51
180.0
  0
ARC
  5
66BD
  8
0
 10
258.81625944875577
 20
288.95794715192062
 30
0.0
 40
0.8000000000000113
 50
90.0
 51
180.0
  0
ARC
  5
66BE
  8
0
 10
287.21625944875592
 20
288.95794715192062
 30
0.0
 40
0.8000000000000113
 50
0.0
 51
90.0
  0
ARC
  5
6737
  8
0
 10
287.21625944875592
 20
288.95794715192062
 30
0.0
 40
0.8000000000000113
 50
0.0
 51
90.0
  0
ARC
  5
673B
  8
0
 10
253.8162594487558
 20
226.0079471519206
 30
0.0
 40
0.7999999999999972
 50
180.0
 51
270.0000000000008
  0
ARC
  5
673C
  8
0
 10
292.21625944875592
 20
226.0079471519206
 30
0.0
 40
0.7999999999999972
 50
270.0000000000008
 51
0.0
  0
LINE
  5
6758
  8
0
 10
237.83121295474879
 20
240.64794661547899
 30
0.0
 11
237.83121295474879
 21
247.64794590022299
 31
0.0
  0
LINE
  5
6759
  8
0
 10
232.92373530768259
 20
240.64794661547899
 30
0.0
 11
232.92373530768259
 21
247.64794590022299
 31
0.0
  0
LINE
  5
675C
  8
0
 10
223.10878373884071
 20
240.64794661547899
 30
0.0
 11
223.10878373884071
 21
247.64794590022299
 31
0.0
  0
LINE
  5
675F
  8
0
 10
218.2013060917746
 20
240.64794661547899
 30
0.0
 11
218.2013060917746
 21
247.64794590022299
 31
0.0
  0
LINE
  5
6763
  8
0
 10
281.18256051294912
 20
303.7579480006907
 30
0.0
 11
298.01570940964331
 21
303.75453190948701
 31
0.0
  0
LINE
  5
6764
  8
0
 10
287.21625954114307
 20
289.75794943120218
 30
0.0
 11
281.20521679722179
 21
289.75794943120218
 31
0.0
  0
LINE
  5
6765
  8
0
 10
281.17088917844399
 20
289.75794943120218
 30
0.0
 11
287.21625954114307
 21
289.75794943120218
 31
0.0
  0
LINE
  5
676E
  8
0
 10
292.21625944875592
 20
225.20794715192059
 30
0.0
 11
253.81625853680481
 21
225.2079463943455
 31
0.0
  0
ARC
  5
67AB
  8
0
 10
271.33437727436689
 20
319.83991700093969
 30
0.0
 40
100.5000000000001
 50
43.918764444483102
 51
65.351255224206128
  0
ARC
  5
67AC
  8
0
 10
390.10300992842429
 20
438.60854965499999
 30
0.0
 40
100.5000000000001
 50
204.6487447757961
 51
226.0812355555191
  0
ARC
  5
67AD
  8
0
 10
332.05967567783313
 20
377.88325125153222
 30
0.0
 40
16.500000000000028
 50
225.00000000000151
 51
45.000000000000767
  0
ARC
  5
67AE
  8
0
 10
299.66928811002668
 20
397.11165871034359
 30
0.0
 40
1.000000000000002
 50
135.00000000000799
 51
204.6487447757932
  0
ARC
  5
67AF
  8
0
 10
312.83126821902113
 20
410.27363881933832
 30
0.0
 40
1.000000000000002
 50
65.35125522420762
 51
135.0
  0
LINE
  5
67B0
  8
0
 10
232.92373530768259
 20
445.42666794254387
 30
0.0
 11
223.10878373884071
 21
445.42666794254387
 31
0.0
  0
LINE
  5
67B1
  8
0
 10
237.83121295474879
 20
436.92666748060788
 30
0.0
 11
232.92373530768259
 21
445.42666794254387
 31
0.0
  0
LINE
  5
67B2
  8
0
 10
232.92373530768259
 20
428.42666701867199
 30
0.0
 11
237.83121295474879
 21
436.92666748060788
 31
0.0
  0
LINE
  5
67B3
  8
0
 10
223.10878373884071
 20
428.42666701867199
 30
0.0
 11
232.92373530768259
 21
428.42666701867199
 31
0.0
  0
LINE
  5
67B4
  8
0
 10
218.2013060917746
 20
436.92666748060788
 30
0.0
 11
223.10878373884071
 21
428.42666701867199
 31
0.0
  0
LINE
  5
67B5
  8
0
 10
223.10878373884071
 20
445.42666794254387
 30
0.0
 11
218.2013060917746
 21
436.92666748060788
 31
0.0
  0
CIRCLE
  5
67B6
  8
0
 10
228.01625944875579
 20
436.92666748060788
 30
0.0
 40
5.0
  0
LINE
  5
67B7
  8
0
 10
271.02787434325018
 20
438.1012559354952
 30
0.0
 11
271.00484343447192
 21
435.79196966706729
 31
0.0
  0
LINE
  5
67B8
  8
0
 10
271.00484343447192
 20
435.79196966706729
 30
0.0
 11
272.99322859818523
 21
434.61738121218002
 31
0.0
  0
LINE
  5
67B9
  8
0
 10
272.99322859818523
 20
434.61738121218002
 30
0.0
 11
275.0046445542614
 21
435.75207902572072
 31
0.0
  0
LINE
  5
67BA
  8
0
 10
275.0046445542614
 20
435.75207902572072
 30
0.0
 11
275.02767546303971
 21
438.06136529414857
 31
0.0
  0
LINE
  5
67BB
  8
0
 10
275.02767546303971
 20
438.06136529414857
 30
0.0
 11
273.03929029932652
 21
439.2359537490359
 31
0.0
  0
LINE
  5
67BC
  8
0
 10
273.03929029932652
 20
439.2359537490359
 30
0.0
 11
271.02787434325018
 21
438.1012559354952
 31
0.0
  0
CIRCLE
  5
67BD
  8
0
 10
273.01625944875582
 20
436.92666748060788
 30
0.0
 40
4.9999999999999529
  0
CIRCLE
  5
67BE
  8
0
 10
228.01625944875579
 20
436.92666748060788
 30
0.0
 40
3.5
  0
LINE
  5
67C1
  8
0
 10
292.95667112075199
 20
407.08676063909149
 30
0.0
 11
277.45462827916663
 21
422.57787134077699
 31
0.0
  0
LINE
  5
67C2
  8
0
 10
302.85616629027243
 20
416.98625580861182
 30
0.0
 11
287.31605340629449
 21
432.52217308073642
 31
0.0
  0
CIRCLE
  5
67C4
  8
0
 10
273.01625944875582
 20
436.92666748060788
 30
0.0
 40
5.2500000000000009
  0
ARC
  5
67C5
  8
0
 10
302.29048018987908
 20
416.4205708261984
 30
0.0
 40
0.7999999999999984
 50
315.00000000000369
 51
44.999999999997122
  0
ARC
  5
67C6
  8
0
 10
293.52235610316609
 20
407.65244673948507
 30
0.0
 40
0.8000000000000387
 50
225.00000000000659
 51
314.9999999999979
  0
ARC
  5
67CB
  8
0
 10
273.01625944875582
 20
436.92666748060788
 30
0.0
 40
20.000000000000021
 50
335.4873151147242
 51
80.938183046064253
  0
ARC
  5
67CC
  8
0
 10
273.01625944875582
 20
436.92666748060788
 30
0.0
 40
20.000000000000011
 50
279.0618169539361
 51
294.51268488527882
  0
LINE
  5
67CE
  8
0
 10
276.16625945285358
 20
451.5921882305941
 30
0.0
 11
276.16625945285358
 21
456.67704650654412
 31
0.0
  0
ARC
  5
67D7
  8
0
 10
273.01625944875582
 20
436.92666748060788
 30
0.0
 40
20.000000000000028
 50
99.061816953934922
 51
138.1896851042215
  0
LINE
  5
67D9
  8
0
 10
269.866259444658
 20
456.67704650654412
 30
0.0
 11
269.866259444658
 21
451.5921882305941
 31
0.0
  0
ARC
  5
67DA
  8
0
 10
228.01625944875579
 20
436.92666748060788
 30
0.0
 40
10.0
 50
90.0
 51
270.0000000000008
  0
ARC
  5
67DB
  8
0
 10
250.6555796737579
 20
456.9266674806081
 30
0.0
 40
10.00000000000005
 50
270.0000000000008
 51
318.18968510422189
  0
LINE
  5
67DC
  8
0
 10
228.0162576606165
 20
446.92666725709051
 30
0.0
 11
250.6555788239132
 21
446.92666725709051
 31
0.0
  0
ARC
  5
67DD
  8
0
 10
236.0162594487559
 20
436.92666748060788
 30
0.0
 40
5.1999999999999877
 50
270.0000000000008
 51
90.0
  0
LINE
  5
67DE
  8
0
 10
236.01625897191869
 20
442.12666749476409
 30
0.0
 11
234.82899405263771
 21
442.12666749476409
 31
0.0
  0
LINE
  5
67DF
  8
0
 10
234.82899405263771
 20
431.72666746645177
 30
0.0
 11
236.01625897191869
 21
431.72666746645177
 31
0.0
  0
ARC
  5
67E0
  8
0
 10
250.6555796737579
 20
416.92666748060788
 30
0.0
 40
10.000000000000011
 50
41.810314895778681
 51
90.0
  0
LINE
  5
67E1
  8
0
 10
250.6555788239132
 20
426.92666770412541
 30
0.0
 11
228.0162576606165
 21
426.92666770412541
 31
0.0
  0
ARC
  5
67E2
  8
0
 10
273.01625944875582
 20
436.92666748060788
 30
0.0
 40
19.999999999999979
 50
221.81031489577941
 51
260.93818304606538
  0
LINE
  5
67E4
  8
0
 10
269.866259444658
 20
422.26114673062182
 30
0.0
 11
269.866259444658
 21
417.17628845467181
 31
0.0
  0
LINE
  5
67E5
  8
0
 10
276.16625945285358
 20
417.17628845467181
 30
0.0
 11
276.16625945285358
 21
422.26114673062182
 31
0.0
  0
ARC
  5
67E6
  8
0
 10
273.01625944875582
 20
436.92666748060788
 30
0.0
 40
20.000000000000028
 50
80.938183046064253
 51
99.061816953934922
  0
ARC
  5
67E7
  8
0
 10
273.01625944875582
 20
436.92666748060788
 30
0.0
 40
19.99999999999994
 50
260.93818304606538
 51
279.0618169539361
  0
ARC
  5
67EA
  8
0
 10
273.01625944875582
 20
459.42666748060827
 30
0.0
 40
20.0
 50
0.0
 51
180.0
  0
LINE
  5
67EF
  8
0
 10
293.01625900172098
 20
459.42666837467789
 30
0.0
 11
293.01625900172098
 21
426.82350646062758
 31
0.0
  0
LINE
  5
67F0
  8
0
 10
253.01625989579071
 20
447.20930223806738
 30
0.0
 11
253.01625989579071
 21
459.42666837467789
 31
0.0
  0
LINE
  5
67F6
  8
0
 10
253.01625989579071
 20
414.42666658653849
 30
0.0
 11
253.01625989579071
 21
426.64403272314911
 31
0.0
  0
ARC
  5
67F7
  8
0
 10
273.01625944875582
 20
414.42666748060827
 30
0.0
 40
20.0
 50
180.0
 51
341.4550213159232
  0
CIRCLE
  5
6803
  8
0
 10
273.01625944875582
 20
436.92666748060788
 30
0.0
 40
6.0499999999999803
  0
LINE
  5
681B
  8
1
 10
273.01625944875582
 20
436.92666748060799
 30
0.0
 11
347.26247147334431
 21
362.68045545602172
 31
0.0
  0
ARC
  5
68A2
  8
0
 10
101.1407844673397
 20
292.64794715192062
 30
0.0
 40
5.0000000000000151
 50
45.572995999194468
 51
134.42700400080551
  0
ARC
  5
68AB
  8
0
 10
160.06423732036441
 20
296.77879401979322
 30
0.0
 40
16.608854920896281
 50
275.19810465287651
 51
16.666859517564419
  0
ARC
  5
68AC
  8
0
 10
160.1842006964151
 20
296.75794715192052
 30
0.0
 40
16.50000000000005
 50
16.8556835926044
 51
90.0
  0
ARC
  5
68AD
  8
0
 10
87.640784467339515
 20
302.25794715192058
 30
0.0
 40
1.5
 50
90.0
 51
179.99999999999989
  0
ARC
  5
68AE
  8
0
 10
114.6407844673395
 20
302.25794715192058
 30
0.0
 40
1.5
 50
0.0000000000000679
 51
90.0
  0
ARC
  5
68AF
  8
0
 10
115.3407844673395
 20
290.55794715192047
 30
0.0
 40
0.8000000000000113
 50
270.0000000000008
 51
0.0
  0
ARC
  5
68B0
  8
0
 10
86.94078446733954
 20
290.55794715192047
 30
0.0
 40
0.7999999999999972
 50
180.0
 51
270.0000000000008
  0
ARC
  5
68B9
  8
0
 10
86.94078446733954
 20
288.95794715192062
 30
0.0
 40
0.8000000000000113
 50
90.0
 51
180.0
  0
ARC
  5
68BA
  8
0
 10
115.3407844673395
 20
288.95794715192062
 30
0.0
 40
0.8000000000000113
 50
0.0
 51
90.0
  0
ARC
  5
68BB
  8
0
 10
81.94078446733954
 20
226.0079465135544
 30
0.0
 40
0.7999999999999972
 50
180.0
 51
270.0000000000008
  0
ARC
  5
68BC
  8
0
 10
120.3407844673395
 20
226.0079465135544
 30
0.0
 40
0.7999999999999972
 50
270.0000000000008
 51
0.0
  0
ARC
  5
68C0
  8
0
 10
59.44078446733954
 20
218.34794715192061
 30
0.0
 40
0.7999999999999972
 50
90.0
 51
180.0
  0
ARC
  5
68C8
  8
0
 10
142.84078446733949
 20
218.34794715192061
 30
0.0
 40
0.7999999999999972
 50
0.0
 51
90.0
  0
ARC
  5
68C9
  8
0
 10
85.640784467339529
 20
223.64794715192059
 30
0.0
 40
1.5
 50
270.0000000000008
 51
0.0
  0
ARC
  5
68CA
  8
0
 10
116.6407844673395
 20
223.64794715192059
 30
0.0
 40
1.5
 50
180.0
 51
270.0000000000008
  0
LINE
  5
68D8
  8
0
 10
101.1407844673397
 20
264.14794581081611
 30
0.0
 11
99.939144700534854
 21
264.14794581081611
 31
0.0
  0
LINE
  5
68D9
  8
0
 10
93.842424354285214
 20
264.14794581081611
 30
0.0
 11
92.640784005403702
 21
264.14794581081611
 31
0.0
  0
LINE
  5
68DC
  8
0
 10
109.6407849292757
 20
264.14794581081611
 30
0.0
 11
108.4391445803942
 21
264.14794581081611
 31
0.0
  0
LINE
  5
68DD
  8
0
 10
102.3424242341446
 20
264.14794581081611
 30
0.0
 11
101.1407844673397
 21
264.14794581081611
 31
0.0
  0
LINE
  5
68DF
  8
0
 10
101.1407844673397
 20
240.64794661547879
 30
0.0
 11
101.1407844673397
 21
247.64794590022299
 31
0.0
  0
LINE
  5
68E0
  8
0
 10
92.640784005403702
 20
240.64794661547879
 30
0.0
 11
92.640784005403702
 21
247.64794590022299
 31
0.0
  0
LINE
  5
68E1
  8
0
 10
101.1407844673397
 20
240.64794661547879
 30
0.0
 11
92.640784005403702
 21
240.64794661547879
 31
0.0
  0
LINE
  5
68E2
  8
0
 10
109.6407849292757
 20
247.64794590022299
 30
0.0
 11
92.640784005403702
 21
247.64794590022299
 31
0.0
  0
LINE
  5
68E3
  8
0
 10
109.6407849292757
 20
240.64794661547879
 30
0.0
 11
109.6407849292757
 21
247.64794590022299
 31
0.0
  0
LINE
  5
68E4
  8
0
 10
109.6407849292757
 20
240.64794661547879
 30
0.0
 11
101.1407844673397
 21
240.64794661547879
 31
0.0
  0
LINE
  5
68E5
  8
0
 10
237.83121295474871
 20
247.64794590022299
 30
0.0
 11
218.20130609177451
 21
247.64794590022299
 31
0.0
  0
LINE
  5
68E6
  8
0
 10
101.1407844673397
 20
293.0139723613475
 30
0.0
 11
97.640784359306281
 21
293.0139723613475
 31
0.0
  0
LINE
  5
68E7
  8
0
 10
104.6407845753731
 20
293.0139723613475
 30
0.0
 11
101.1407844673397
 21
293.0139723613475
 31
0.0
  0
LINE
  5
68E8
  8
0
 10
101.1407844673397
 20
296.2186607911799
 30
0.0
 11
97.640784359306281
 21
296.2186607911799
 31
0.0
  0
LINE
  5
68E9
  8
0
 10
104.6407845753731
 20
296.2186607911799
 30
0.0
 11
101.1407844673397
 21
296.2186607911799
 31
0.0
  0
LINE
  5
68EC
  8
0
 10
131.44714235770689
 20
306.27458276297779
 30
0.0
 11
131.03094361233701
 21
306.01836474683017
 31
0.0
  0
ARC
  5
68EE
  8
0
 10
133.6829483891529
 20
293.81409881906291
 30
0.0
 40
3.5382538387509328
 50
239.73989291542159
 51
316.94659435092137
  0
LINE
  5
68EF
  8
0
 10
87.640784117162255
 20
303.7579480006907
 30
0.0
 11
114.6407848175168
 21
303.7579480006907
 31
0.0
  0
LINE
  5
68F0
  8
0
 10
115.3407845597267
 20
289.75794943120218
 30
0.0
 11
109.6407849292756
 21
289.75794943120218
 31
0.0
  0
LINE
  5
68F1
  8
0
 10
92.640784005403589
 20
289.75794943120218
 30
0.0
 11
86.940784374952344
 21
289.75794943120218
 31
0.0
  0
LINE
  5
68F4
  8
0
 10
126.180719951868
 20
303.75474425103403
 30
0.0
 11
126.0309427927732
 21
303.7579480006907
 31
0.0
  0
LINE
  5
68FE
  8
0
 10
91.140784690857103
 20
286.14794941689712
 30
0.0
 11
91.140784690857103
 21
264.94794817712051
 31
0.0
  0
LINE
  5
68FF
  8
0
 10
111.1407842438222
 20
286.14794941689712
 30
0.0
 11
111.1407842438222
 21
264.94794817712051
 31
0.0
  0
LINE
  5
6900
  8
0
 10
110.34078467148559
 20
264.14794581081611
 30
0.0
 11
109.6407849292757
 21
264.14794581081611
 31
0.0
  0
LINE
  5
6901
  8
0
 10
108.4391445803942
 20
264.14794581081611
 30
0.0
 11
102.3424242341446
 21
264.14794581081611
 31
0.0
  0
LINE
  5
6902
  8
0
 10
99.939144700534854
 20
264.14794581081611
 30
0.0
 11
93.842424354285214
 21
264.14794581081611
 31
0.0
  0
LINE
  5
6903
  8
0
 10
92.640784005403702
 20
264.14794581081611
 30
0.0
 11
91.940784263193791
 21
264.14794581081611
 31
0.0
  0
ARC
  5
6904
  8
0
 10
91.940784467339711
 20
264.94794715192057
 30
0.0
 40
0.7999999999999972
 50
180.0
 51
270.0000000000008
  0
ARC
  5
6905
  8
0
 10
110.3407844673397
 20
264.94794715192057
 30
0.0
 40
0.8000000000000113
 50
270.0000000000008
 51
0.0
  0
LINE
  5
690A
  8
0
 10
120.34078537929059
 20
225.20794639434521
 30
0.0
 11
81.940783555388464
 21
225.20794639434521
 31
0.0
  0
LINE
  5
690C
  8
0
 10
120.8911634932756
 20
283.14795078780389
 30
0.0
 11
120.8911634932756
 21
285.34795077588302
 31
0.0
  0
LINE
  5
690D
  8
0
 10
120.8911634932756
 20
283.14795078780389
 30
0.0
 11
121.14078402030469
 21
283.14795078780389
 31
0.0
  0
LINE
  5
690E
  8
0
 10
81.140784914374365
 20
283.14795078780389
 30
0.0
 11
81.390405441403431
 21
283.14795078780389
 31
0.0
  0
LINE
  5
690F
  8
0
 10
81.390405441403431
 20
283.14795078780389
 30
0.0
 11
81.390405441403431
 21
285.34795077588302
 31
0.0
  0
LINE
  5
6912
  8
0
 10
82.351493085503606
 20
286.14794941689712
 30
0.0
 11
119.93007584917549
 21
286.14794941689712
 31
0.0
  0
LINE
  5
6915
  8
0
 10
59.440782661318792
 20
219.14794681664441
 30
0.0
 11
142.84151688912121
 21
219.14794681664441
 31
0.0
  0
LINE
  5
6919
  8
0
 10
81.940783555388464
 20
222.14794637706021
 30
0.0
 11
120.34078537929059
 21
222.14794637706021
 31
0.0
  0
ARC
  5
691F
  8
0
 10
134.1518508998339
 20
292.12157345931888
 30
0.0
 40
5.5796398029076579
 50
241.00604279841289
 51
316.9289456021329
  0
LINE
  5
6926
  8
1
 10
185.37666809199561
 20
296.7579487159465
 30
0.0
 11
101.1407844673395
 21
296.7579487159465
 31
0.0
  0
LINE
  5
6927
  8
0
 10
130.98069130885591
 20
296.73436762835718
 30
0.0
 11
130.98069130885591
 21
296.7579487159465
 31
0.0
  0
LINE
  5
692A
  8
0
 10
114.4741181235314
 20
257.14794652607179
 30
0.0
 11
106.14078435558091
 21
257.14794652607179
 31
0.0
  0
LINE
  5
692B
  8
0
 10
96.140784579098323
 20
257.14794652607179
 30
0.0
 11
87.80745081114776
 21
257.14794652607179
 31
0.0
  0
LINE
  5
692C
  8
0
 10
87.80745081114776
 20
257.14794652607179
 30
0.0
 11
87.80745081114776
 21
286.14794941689712
 31
0.0
  0
LINE
  5
692F
  8
0
 10
114.4741181235314
 20
286.14794941689712
 30
0.0
 11
114.4741181235314
 21
257.14794652607179
 31
0.0
  0
LINE
  5
6930
  8
1
 10
69.14078446733987
 20
222.14794681664441
 30
0.0
 11
69.14078446733987
 21
201.1479471519205
 31
0.0
  0
LINE
  5
6933
  8
1
 10
133.14078446733919
 20
222.14794681664441
 30
0.0
 11
133.14078446733919
 21
201.1479471519205
 31
0.0
  0
LINE
  5
6936
  8
1
 10
101.1407844673395
 20
308.77496885266862
 30
0.0
 11
101.1407844673395
 21
199.1479471519205
 31
0.0
  0
LINE
  5
714F
  8
0
 10
121.1407844673395
 20
226.0079465135544
 30
0.0
 11
121.1407844673395
 21
233.21103445302711
 31
0.0
  0
LINE
  5
7150
  8
0
 10
81.140784467339529
 20
226.0079465135544
 30
0.0
 11
81.140784467339529
 21
233.21103445302711
 31
0.0
  0
LINE
  5
7151
  8
0
 10
130.98069130885591
 20
296.7579487159465
 30
0.0
 11
130.88558278489111
 21
298.1235805347178
 31
0.0
  0
LINE
  5
7152
  8
0
 10
130.88558278489111
 20
298.1235805347178
 30
0.0
 11
130.60391358542441
 21
299.43673046376438
 31
0.0
  0
LINE
  5
7153
  8
0
 10
130.60391358542441
 20
299.43673046376438
 30
0.0
 11
130.146507541418
 21
300.64693572070342
 31
0.0
  0
LINE
  5
7154
  8
0
 10
130.146507541418
 20
300.64693572070342
 30
0.0
 11
129.53094243514531
 21
301.7076972320292
 31
0.0
  0
LINE
  5
7155
  8
0
 10
129.53094243514531
 20
301.7076972320292
 30
0.0
 11
128.78087572264661
 21
302.57823797013498
 31
0.0
  0
LINE
  5
7156
  8
0
 10
128.78087572264661
 20
302.57823797013498
 30
0.0
 11
127.92512997496119
 21
303.2251048281405
 31
0.0
  0
LINE
  5
7157
  8
0
 10
127.92512997496119
 20
303.2251048281405
 30
0.0
 11
126.9965901921987
 21
303.62344266917438
 31
0.0
  0
LINE
  5
7158
  8
0
 10
126.9965901921987
 20
303.62344266917438
 30
0.0
 11
126.180719951868
 21
303.75474425103403
 31
0.0
  0
LINE
  5
717B
  8
0
 10
138.22781890141951
 20
288.3112105920527
 30
0.0
 11
139.11169990408411
 21
289.32201596047622
 31
0.0
  0
LINE
  5
717C
  8
0
 10
139.11169990408411
 20
289.32201596047622
 30
0.0
 11
139.8728847454785
 21
290.51591934706897
 31
0.0
  0
LINE
  5
717D
  8
0
 10
139.8728847454785
 20
290.51591934706897
 30
0.0
 11
140.49263521540161
 21
291.86352821137638
 31
0.0
  0
LINE
  5
717E
  8
0
 10
140.49263521540161
 20
291.86352821137638
 30
0.0
 11
140.95568507421009
 21
293.33164276625848
 31
0.0
  0
LINE
  5
717F
  8
0
 10
140.95568507421009
 20
293.33164276625848
 30
0.0
 11
141.25063865888109
 21
294.88413514640069
 31
0.0
  0
LINE
  5
7180
  8
0
 10
141.25063865888109
 20
294.88413514640069
 30
0.0
 11
141.37023165333261
 21
296.48276152159912
 31
0.0
  0
LINE
  5
7181
  8
0
 10
141.37023165333261
 20
296.48276152159912
 30
0.0
 11
141.31152107822891
 21
298.08816047456003
 31
0.0
  0
LINE
  5
7182
  8
0
 10
141.31152107822891
 20
298.08816047456003
 30
0.0
 11
141.07594862091531
 21
299.66081412579751
 31
0.0
  0
LINE
  5
7183
  8
0
 10
141.07594862091531
 20
299.66081412579751
 30
0.0
 11
140.6693145583867
 21
301.16197945620752
 31
0.0
  0
LINE
  5
7184
  8
0
 10
140.6693145583867
 20
301.16197945620752
 30
0.0
 11
140.10163619625561
 21
302.55470903660989
 31
0.0
  0
LINE
  5
7185
  8
0
 10
140.10163619625561
 20
302.55470903660989
 30
0.0
 11
139.38688709843149
 21
303.804707844517
 31
0.0
  0
LINE
  5
7186
  8
0
 10
139.38688709843149
 20
303.804707844517
 30
0.0
 11
138.5426692615747
 21
304.8811826303218
 31
0.0
  0
LINE
  5
7187
  8
0
 10
138.5426692615747
 20
304.8811826303218
 30
0.0
 11
137.5897698055505
 21
305.75763912942148
 31
0.0
  0
LINE
  5
7188
  8
0
 10
137.5897698055505
 20
305.75763912942148
 30
0.0
 11
136.55165060865869
 21
306.4124930098269
 31
0.0
  0
LINE
  5
7189
  8
0
 10
136.55165060865869
 20
306.4124930098269
 30
0.0
 11
135.45387461292731
 21
306.82962121512628
 31
0.0
  0
LINE
  5
718A
  8
0
 10
135.45387461292731
 20
306.82962121512628
 30
0.0
 11
134.32347625005229
 21
306.99875684525711
 31
0.0
  0
LINE
  5
718B
  8
0
 10
134.32347625005229
 20
306.99875684525711
 30
0.0
 11
133.18828343856319
 21
306.91572012450428
 31
0.0
  0
LINE
  5
718C
  8
0
 10
133.18828343856319
 20
306.91572012450428
 30
0.0
 11
132.07625448215001
 21
306.58256741311288
 31
0.0
  0
LINE
  5
718D
  8
0
 10
132.07625448215001
 20
306.58256741311288
 30
0.0
 11
131.44714235770689
 21
306.27458276297779
 31
0.0
  0
LINE
  5
718E
  8
0
 10
136.2684130619763
 20
291.39860453154779
 30
0.0
 11
136.95775940525519
 21
292.21912207152582
 31
0.0
  0
LINE
  5
718F
  8
0
 10
136.95775940525519
 20
292.21912207152582
 30
0.0
 11
137.5206731210946
 21
293.21405770327777
 31
0.0
  0
LINE
  5
7190
  8
0
 10
137.5206731210946
 20
293.21405770327777
 30
0.0
 11
137.935517723441
 21
294.34518994834161
 31
0.0
  0
LINE
  5
7191
  8
0
 10
137.935517723441
 20
294.34518994834161
 30
0.0
 11
138.18635269510739
 21
295.56903721835351
 31
0.0
  0
LINE
  5
7192
  8
0
 10
138.18635269510739
 20
295.56903721835351
 30
0.0
 11
138.26353698480119
 21
296.83857889916641
 31
0.0
  0
LINE
  5
7193
  8
0
 10
138.26353698480119
 20
296.83857889916641
 30
0.0
 11
138.164105261445
 21
298.10501368787033
 31
0.0
  0
LINE
  5
7194
  8
0
 10
138.164105261445
 20
298.10501368787033
 30
0.0
 11
137.89187967288481
 21
299.31968929316741
 31
0.0
  0
LINE
  5
7195
  8
0
 10
137.89187967288481
 20
299.31968929316741
 30
0.0
 11
137.45732455956929
 21
300.43591292645669
 31
0.0
  0
LINE
  5
7196
  8
0
 10
137.45732455956929
 20
300.43591292645669
 30
0.0
 11
136.87713294732561
 21
301.41079904582239
 31
0.0
  0
LINE
  5
7197
  8
0
 10
136.87713294732561
 20
301.41079904582239
 30
0.0
 11
136.17360442388051
 21
302.2068786814425
 31
0.0
  0
LINE
  5
7198
  8
0
 10
136.17360442388051
 20
302.2068786814425
 30
0.0
 11
135.37377342092981
 21
302.79355974938608
 31
0.0
  0
LINE
  5
7199
  8
0
 10
135.37377342092981
 20
302.79355974938608
 30
0.0
 11
134.50838103401651
 21
303.14828934218622
 31
0.0
  0
LINE
  5
719A
  8
0
 10
134.50838103401651
 20
303.14828934218622
 30
0.0
 11
133.61068292963489
 21
303.25744779851181
 31
0.0
  0
LINE
  5
719B
  8
0
 10
133.61068292963489
 20
303.25744779851181
 30
0.0
 11
132.71517529594891
 21
303.116832990906
 31
0.0
  0
LINE
  5
719C
  8
0
 10
132.71517529594891
 20
303.116832990906
 30
0.0
 11
131.89992904174321
 21
302.75794597413278
 31
0.0
  0
LINE
  5
7293
  8
0
 10
313.24570663474913
 20
411.17990659072012
 30
0.0
 11
313.24832178853859
 21
411.18251988186449
 31
0.0
  0
LINE
  5
7296
  8
0
 10
302.85616629027243
 20
415.85488514496888
 30
0.0
 11
302.76036299966682
 21
415.75908371700859
 31
0.0
  0
LINE
  5
7297
  8
0
 10
302.76036299966682
 20
415.75908371700859
 30
0.0
 11
294.18384321235533
 21
407.18256392969698
 31
0.0
  0
LINE
  5
72A4
  8
0
 10
294.18384321235533
 20
407.18256392969698
 30
0.0
 11
294.08804178439487
 21
407.08676063909149
 31
0.0
  0
LINE
  5
72B7
  8
0
 10
298.96218134155117
 20
397.81876550424118
 30
0.0
 11
312.10136823557718
 21
410.95795193209261
 31
0.0
  0
LINE
  5
72B8
  8
0
 10
312.10136823557718
 20
410.95795193209261
 30
0.0
 11
312.12416328691347
 21
410.98074512078381
 31
0.0
  0
LINE
  5
7306
  8
0
 10
292.95667112075199
 20
296.7579487159465
 30
0.0
 11
293.05177778207172
 21
298.1235805347178
 31
0.0
  0
LINE
  5
7307
  8
0
 10
293.05177778207172
 20
298.1235805347178
 30
0.0
 11
293.33344698153837
 21
299.43673046376438
 31
0.0
  0
LINE
  5
7308
  8
0
 10
293.33344698153837
 20
299.43673046376438
 30
0.0
 11
293.79085302554478
 21
300.64693572070342
 31
0.0
  0
LINE
  5
7309
  8
0
 10
293.79085302554478
 20
300.64693572070342
 30
0.0
 11
294.40641813181747
 21
301.7076972320292
 31
0.0
  0
LINE
  5
730A
  8
0
 10
294.40641813181747
 20
301.7076972320292
 30
0.0
 11
295.15648670696129
 21
302.57823797013498
 31
0.0
  0
LINE
  5
730B
  8
0
 10
295.15648670696129
 20
302.57823797013498
 30
0.0
 11
296.01223245464672
 21
303.2251048281405
 31
0.0
  0
LINE
  5
730C
  8
0
 10
296.01223245464672
 20
303.2251048281405
 30
0.0
 11
296.9407703747641
 21
303.62344266917438
 31
0.0
  0
LINE
  5
730D
  8
0
 10
296.9407703747641
 20
303.62344266917438
 30
0.0
 11
297.90641777418961
 21
303.7579480006907
 31
0.0
  0
LINE
  5
730E
  8
0
 10
301.9054330905567
 20
288.3112105920527
 30
0.0
 11
301.02155395053728
 21
289.32201596047622
 31
0.0
  0
LINE
  5
730F
  8
0
 10
301.02155395053728
 20
289.32201596047622
 30
0.0
 11
300.26036910914291
 21
290.51591934706897
 31
0.0
  0
LINE
  5
7310
  8
0
 10
300.26036910914291
 20
290.51591934706897
 30
0.0
 11
299.64062050186499
 21
291.86352821137638
 31
0.0
  0
LINE
  5
7311
  8
0
 10
299.64062050186499
 20
291.86352821137638
 30
0.0
 11
299.17756691776623
 21
293.33164276625848
 31
0.0
  0
LINE
  5
7312
  8
0
 10
299.17756691776623
 20
293.33164276625848
 30
0.0
 11
298.88261333309521
 21
294.88413514640069
 31
0.0
  0
LINE
  5
7313
  8
0
 10
298.88261333309521
 20
294.88413514640069
 30
0.0
 11
298.76302033864368
 21
296.48276152159912
 31
0.0
  0
LINE
  5
7314
  8
0
 10
298.76302033864368
 20
296.48276152159912
 30
0.0
 11
298.82173277639259
 21
298.08816047456003
 31
0.0
  0
LINE
  5
7315
  8
0
 10
298.82173277639259
 20
298.08816047456003
 30
0.0
 11
299.05730709635128
 21
299.66081412579751
 31
0.0
  0
LINE
  5
7316
  8
0
 10
299.05730709635128
 20
299.66081412579751
 30
0.0
 11
299.46393929623468
 21
301.16197945620752
 31
0.0
  0
LINE
  5
7317
  8
0
 10
299.46393929623468
 20
301.16197945620752
 30
0.0
 11
300.03161952101101
 21
302.55470903660989
 31
0.0
  0
LINE
  5
7318
  8
0
 10
300.03161952101101
 20
302.55470903660989
 30
0.0
 11
300.7463667561899
 21
303.804707844517
 31
0.0
  0
LINE
  5
7319
  8
0
 10
300.7463667561899
 20
303.804707844517
 30
0.0
 11
301.5905845930468
 21
304.8811826303218
 31
0.0
  0
LINE
  5
731A
  8
0
 10
301.5905845930468
 20
304.8811826303218
 30
0.0
 11
302.54348591171612
 21
305.75763912942148
 31
0.0
  0
LINE
  5
731B
  8
0
 10
302.54348591171612
 20
305.75763912942148
 30
0.0
 11
303.32683995567669
 21
306.27695949818832
 31
0.0
  0
LINE
  5
731C
  8
0
 10
303.05945165656908
 20
287.39820154454452
 30
0.0
 11
302.8902415206324
 21
287.50838818099243
 31
0.0
  0
LINE
  5
731D
  8
0
 10
302.8902415206324
 20
287.50838818099243
 30
0.0
 11
301.9054330905567
 21
288.3112105920527
 31
0.0
  0
LINE
  5
7334
  8
0
 10
298.82565736972202
 20
302.75794597413278
 30
0.0
 11
298.35594855450501
 21
302.72106560017801
 31
0.0
  0
LINE
  5
7335
  8
0
 10
298.35594855450501
 20
302.72106560017801
 30
0.0
 11
297.51677662335737
 21
302.46527971770502
 31
0.0
  0
LINE
  5
7336
  8
0
 10
297.51677662335737
 20
302.46527971770502
 30
0.0
 11
296.73118926786287
 21
301.97584362771249
 31
0.0
  0
LINE
  5
7337
  8
0
 10
296.73118926786287
 20
301.97584362771249
 30
0.0
 11
296.03135064445843
 21
301.27277704026437
 31
0.0
  0
LINE
  5
7338
  8
0
 10
296.03135064445843
 20
301.27277704026437
 30
0.0
 11
295.44591196082939
 21
300.38487644936782
 31
0.0
  0
LINE
  5
7339
  8
0
 10
295.44591196082939
 20
300.38487644936782
 30
0.0
 11
294.99883800946583
 21
299.34849323775512
 31
0.0
  0
LINE
  5
733A
  8
0
 10
294.99883800946583
 20
299.34849323775512
 30
0.0
 11
294.70843672953953
 21
298.20605101134521
 31
0.0
  0
LINE
  5
733B
  8
0
 10
294.70843672953953
 20
298.20605101134521
 30
0.0
 11
294.58659365974768
 21
297.00431706454492
 31
0.0
  0
LINE
  5
733C
  8
0
 10
294.58659365974768
 20
297.00431706454492
 30
0.0
 11
294.63830068909039
 21
295.79250248219711
 31
0.0
  0
LINE
  5
733D
  8
0
 10
294.63830068909039
 20
295.79250248219711
 30
0.0
 11
294.86143626474251
 21
294.62021322991592
 31
0.0
  0
LINE
  5
733E
  8
0
 10
294.86143626474251
 20
294.62021322991592
 30
0.0
 11
295.24686783753742
 21
293.53544594790679
 31
0.0
  0
LINE
  5
733F
  8
0
 10
295.24686783753742
 20
293.53544594790679
 30
0.0
 11
295.77881507777079
 21
292.5825986459468
 31
0.0
  0
LINE
  5
7340
  8
0
 10
295.77881507777079
 20
292.5825986459468
 30
0.0
 11
296.43550180100311
 21
291.80069746520257
 31
0.0
  0
LINE
  5
7341
  8
0
 10
296.43550180100311
 20
291.80069746520257
 30
0.0
 11
297.19004072450508
 21
291.22174264933801
 31
0.0
  0
LINE
  5
7342
  8
0
 10
297.19004072450508
 20
291.22174264933801
 30
0.0
 11
298.0115417411219
 21
290.86944939639312
 31
0.0
  0
LINE
  5
7343
  8
0
 10
298.0115417411219
 20
290.86944939639312
 30
0.0
 11
298.82565736972202
 21
290.7579440071795
 31
0.0
  0
LINE
  5
764B
  8
0
 10
114.6407848175168
 20
303.7579480006907
 30
0.0
 11
126.2079826404625
 21
303.75035674679469
 31
0.0
  0
LINE
  5
764C
  8
0
 10
116.1407844673395
 20
288.95794715192062
 30
0.0
 11
116.1407844673395
 21
286.14794941689712
 31
0.0
  0
LINE
  5
764D
  8
0
 10
116.1407841320634
 20
290.55794807221628
 30
0.0
 11
116.1407841320634
 21
302.25794496085382
 31
0.0
  0
LINE
  5
764E
  8
0
 10
115.34269415361349
 20
289.75794943123731
 30
0.0
 11
126.0476419267429
 21
289.75794943116853
 31
0.0
  0
LINE
  5
764F
  8
0
 10
135.43546422827231
 20
290.7579440071795
 30
0.0
 11
128.7273023693559
 21
290.7579440071795
 31
0.0
  0
LINE
  5
7650
  8
0
 10
135.37377342092981
 20
302.75794597413278
 30
0.0
 11
128.68338860082619
 21
302.75794597413278
 31
0.0
  0
LINE
  5
7651
  8
0
 10
104.6407845753731
 20
296.2186607911799
 30
0.0
 11
104.6407845753731
 21
293.0139723613475
 31
0.0
  0
LINE
  5
7652
  8
0
 10
104.6407845753731
 20
293.0139723613475
 30
0.0
 11
106.140784355581
 21
292.1479466750834
 31
0.0
  0
LINE
  5
7653
  8
0
 10
97.640784359306281
 20
296.2186607911799
 30
0.0
 11
97.640784359306281
 21
293.0139723613475
 31
0.0
  0
LINE
  5
7654
  8
0
 10
97.640784359306281
 20
293.0139723613475
 30
0.0
 11
96.140784579098394
 21
292.1479466750834
 31
0.0
  0
LINE
  5
7655
  8
0
 10
86.140784467339529
 20
302.25794715192058
 30
0.0
 11
86.140784467339529
 21
290.55794715192047
 31
0.0
  0
LINE
  5
7656
  8
0
 10
86.140784467339529
 20
288.95794715192062
 30
0.0
 11
86.140784467339529
 21
286.14794941689712
 31
0.0
  0
LINE
  5
7657
  8
0
 10
82.351493085503606
 20
286.14794941689712
 30
0.0
 11
81.390405441403431
 21
285.34795077588302
 31
0.0
  0
LINE
  5
7658
  8
0
 10
81.140784914374365
 20
283.14795078780389
 30
0.0
 11
81.140784467339529
 21
233.21103445302711
 31
0.0
  0
LINE
  5
7659
  8
0
 10
87.140784035205854
 20
225.20794639434521
 30
0.0
 11
87.140784035205854
 21
223.64794755425191
 31
0.0
  0
LINE
  5
765A
  8
0
 10
81.940783555388464
 20
222.14794637706021
 30
0.0
 11
81.140784914374365
 21
221.34794773604611
 31
0.0
  0
LINE
  5
765B
  8
0
 10
81.140784914374365
 20
221.34794773604611
 30
0.0
 11
81.140784914374365
 21
219.14794681664441
 31
0.0
  0
LINE
  5
765C
  8
0
 10
58.64078446733955
 20
218.34794715192061
 30
0.0
 11
58.640784467339529
 21
204.14794715192059
 31
0.0
  0
LINE
  5
765D
  8
0
 10
143.6407844673395
 20
218.34794715192061
 30
0.0
 11
143.6407844673395
 21
204.14794715192059
 31
0.0
  0
LINE
  5
765E
  8
0
 10
115.1407848994732
 20
225.20794639434521
 30
0.0
 11
115.1407848994732
 21
223.64794755425191
 31
0.0
  0
LINE
  5
765F
  8
0
 10
120.34078537929059
 20
222.14794637706021
 30
0.0
 11
121.14078402030469
 21
221.34794773604611
 31
0.0
  0
LINE
  5
7660
  8
0
 10
121.14078402030469
 20
221.34794773604611
 30
0.0
 11
121.14078402030469
 21
219.14794681664441
 31
0.0
  0
LINE
  5
7661
  8
0
 10
121.1407844673395
 20
233.21103445302711
 30
0.0
 11
121.1407844673395
 21
283.14795078780389
 31
0.0
  0
LINE
  5
7662
  8
0
 10
119.93007584917549
 20
286.14794941689712
 30
0.0
 11
120.8911634932756
 21
285.34795077588302
 31
0.0
  0
LINE
  5
7663
  8
0
 10
106.140784355581
 20
258.14794855262971
 30
0.0
 11
106.140784355581
 21
247.64794590022299
 31
0.0
  0
LINE
  5
7664
  8
0
 10
96.140784579098394
 20
258.14794855262971
 30
0.0
 11
96.140784579098394
 21
247.64794590022299
 31
0.0
  0
LINE
  5
7665
  8
0
 10
160.4043006848095
 20
313.25500937249399
 30
0.0
 11
159.31486546434229
 21
313.25261448329991
 31
0.0
  0
LINE
  5
7666
  8
0
 10
159.31486546434229
 20
313.25261448329991
 30
0.0
 11
158.42788931073341
 21
313.26604901630151
 31
0.0
  0
LINE
  5
7667
  8
0
 10
158.42788931073341
 20
313.26604901630151
 30
0.0
 11
157.50059871884821
 21
313.25261448329991
 31
0.0
  0
LINE
  5
7668
  8
0
 10
157.50059871884821
 20
313.25261448329991
 30
0.0
 11
156.3582817275005
 21
313.21231293913382
 31
0.0
  0
LINE
  5
7669
  8
0
 10
156.3582817275005
 20
313.21231293913382
 30
0.0
 11
154.69184606186801
 21
313.11827326296168
 31
0.0
  0
LINE
  5
766A
  8
0
 10
154.69184606186801
 20
313.11827326296168
 30
0.0
 11
153.6704792690588
 21
313.03766606495248
 31
0.0
  0
LINE
  5
766B
  8
0
 10
153.6704792690588
 20
313.03766606495248
 30
0.0
 11
152.34188912825891
 21
312.92110330584529
 31
0.0
  0
LINE
  5
766C
  8
0
 10
152.34188912825891
 20
312.92110330584529
 30
0.0
 11
151.11768354171949
 21
312.77425017491572
 31
0.0
  0
LINE
  5
766D
  8
0
 10
151.11768354171949
 20
312.77425017491572
 30
0.0
 11
149.50173299353301
 21
312.5294963265913
 31
0.0
  0
LINE
  5
766E
  8
0
 10
149.50173299353301
 20
312.5294963265913
 30
0.0
 11
148.24488486173499
 21
312.30105789460771
 31
0.0
  0
LINE
  5
766F
  8
0
 10
148.24488486173499
 20
312.30105789460771
 30
0.0
 11
144.63694054258701
 21
311.57476501267939
 31
0.0
  0
LINE
  5
7670
  8
0
 10
144.63694054258701
 20
311.57476501267939
 30
0.0
 11
141.59739779389599
 21
310.66027154294568
 31
0.0
  0
LINE
  5
7671
  8
0
 10
141.59739779389599
 20
310.66027154294568
 30
0.0
 11
138.07051258307681
 21
309.47723741637941
 31
0.0
  0
LINE
  5
7672
  8
0
 10
138.07051258307681
 20
309.47723741637941
 30
0.0
 11
135.3010659010919
 21
308.28272085322573
 31
0.0
  0
LINE
  5
7673
  8
0
 10
135.3010659010919
 20
308.28272085322573
 30
0.0
 11
133.35264944619161
 21
307.2895784464107
 31
0.0
  0
LINE
  5
7674
  8
0
 10
133.35264944619161
 20
307.2895784464107
 30
0.0
 11
132.07625448215001
 21
306.58256741311288
 31
0.0
  0
LINE
  5
7675
  8
0
 10
131.03475338448101
 20
306.0133409628728
 30
0.0
 11
130.19529546999539
 21
305.37795823834028
 31
0.0
  0
LINE
  5
7677
  8
0
 10
130.18417483906609
 20
305.37211222329182
 30
0.0
 11
129.87643521294501
 21
305.06072818727932
 31
0.0
  0
LINE
  5
7678
  8
0
 10
129.87643521294501
 20
305.06072818727932
 30
0.0
 11
129.51615224056459
 21
304.6855660791806
 31
0.0
  0
LINE
  5
7679
  8
0
 10
129.51615224056459
 20
304.6855660791806
 30
0.0
 11
129.15211764710321
 21
304.2466258989956
 31
0.0
  0
LINE
  5
767A
  8
0
 10
129.15211764710321
 20
304.2466258989956
 30
0.0
 11
128.8851674351389
 21
303.8970609119732
 31
0.0
  0
LINE
  5
767B
  8
0
 10
128.8851674351389
 20
303.8970609119732
 30
0.0
 11
128.57990938589759
 21
303.39822424930742
 31
0.0
  0
LINE
  5
767C
  8
0
 10
128.57990938589759
 20
303.39822424930742
 30
0.0
 11
128.29660004090729
 21
302.94287413021891
 31
0.0
  0
LINE
  5
768D
  8
0
 10
131.44714235770689
 20
287.24131466891509
 30
0.0
 11
130.87251126107219
 21
287.57115462214313
 31
0.0
  0
LINE
  5
768E
  8
0
 10
130.98069130885591
 20
296.7579487159465
 30
0.0
 11
130.88558278489111
 21
295.39231689717508
 31
0.0
  0
LINE
  5
768F
  8
0
 10
128.78087572264661
 20
290.93765946175802
 30
0.0
 11
127.92512997496119
 21
290.29079260375238
 31
0.0
  0
LINE
  5
7690
  8
0
 10
130.146507541418
 20
292.86896171118963
 30
0.0
 11
129.53094243514531
 21
291.80820019986368
 31
0.0
  0
LINE
  5
7691
  8
0
 10
130.60391358542441
 20
294.0791669681285
 30
0.0
 11
130.146507541418
 21
292.86896171118963
 31
0.0
  0
LINE
  5
7692
  8
0
 10
130.88558278489111
 20
295.39231689717508
 30
0.0
 11
130.60391358542441
 21
294.0791669681285
 31
0.0
  0
LINE
  5
7693
  8
0
 10
129.53094243514531
 20
291.80820019986368
 30
0.0
 11
128.78087572264661
 21
290.93765946175802
 31
0.0
  0
LINE
  5
7694
  8
0
 10
126.9965901921987
 20
289.8924547627185
 30
0.0
 11
126.180719951868
 21
289.76115318085891
 31
0.0
  0
LINE
  5
7695
  8
0
 10
127.92512997496119
 20
290.29079260375238
 30
0.0
 11
126.9965901921987
 21
289.8924547627185
 31
0.0
  0
LINE
  5
7696
  8
0
 10
144.58923215690709
 20
281.85020982063071
 30
0.0
 11
141.55264061404171
 21
282.77445558291703
 31
0.0
  0
LINE
  5
7697
  8
0
 10
148.19482647008579
 20
281.11233909402279
 30
0.0
 11
144.58923215690709
 21
281.85020982063071
 31
0.0
  0
LINE
  5
7698
  8
0
 10
149.45093483365491
 20
280.87986732674102
 30
0.0
 11
148.19482647008579
 21
281.11233909402279
 31
0.0
  0
LINE
  5
7699
  8
0
 10
151.06609139059429
 20
280.6299274999235
 30
0.0
 11
149.45093483365491
 21
280.87986732674102
 31
0.0
  0
LINE
  5
769A
  8
0
 10
152.28981926783069
 20
280.47914539669949
 30
0.0
 11
151.06609139059429
 21
280.6299274999235
 31
0.0
  0
LINE
  5
769B
  8
0
 10
153.61802839433409
 20
280.3583184323486
 30
0.0
 11
152.28981926783069
 21
280.47914539669949
 31
0.0
  0
LINE
  5
769C
  8
0
 10
154.63913117390629
 20
280.27443303806473
 30
0.0
 11
153.61802839433409
 21
280.3583184323486
 31
0.0
  0
LINE
  5
769D
  8
0
 10
156.30525638424439
 20
280.17504454847739
 30
0.0
 11
154.63913117390629
 21
280.27443303806473
 31
0.0
  0
LINE
  5
769E
  8
0
 10
157.44743812130551
 20
280.13107634737679
 30
0.0
 11
156.30525638424439
 21
280.17504454847739
 31
0.0
  0
LINE
  5
769F
  8
0
 10
158.37468081049161
 20
280.11466525884867
 30
0.0
 11
157.44743812130551
 21
280.13107634737679
 31
0.0
  0
LINE
  5
76A0
  8
0
 10
159.26169551944469
 20
280.12525250819152
 30
0.0
 11
158.37468081049161
 21
280.11466525884867
 31
0.0
  0
LINE
  5
76A1
  8
0
 10
160.35111743933891
 20
280.11936051849841
 30
0.0
 11
159.26169551944469
 21
280.12525250819152
 31
0.0
  0
LINE
  5
76A2
  8
0
 10
161.56899353463879
 20
280.23824473873901
 30
0.0
 11
160.35111743933891
 21
280.11936051849841
 31
0.0
  0
LINE
  5
76A3
  8
0
 10
138.02957114176729
 20
283.96880499931268
 30
0.0
 11
135.26397315479181
 21
285.17220539753532
 31
0.0
  0
LINE
  5
76A4
  8
0
 10
141.55264061404171
 20
282.77445558291703
 30
0.0
 11
138.02957114176729
 21
283.96880499931268
 31
0.0
  0
LINE
  5
76A5
  8
0
 10
133.3187547490316
 20
286.17159715046932
 30
0.0
 11
132.04463588330199
 21
286.88270179918658
 31
0.0
  0
LINE
  5
76A6
  8
0
 10
135.26397315479181
 20
285.17220539753532
 30
0.0
 11
133.3187547490316
 21
286.17159715046932
 31
0.0
  0
LINE
  5
76A7
  8
0
 10
131.00496738196699
 20
287.45526855986208
 30
0.0
 11
129.8497130877995
 21
288.41159465620262
 31
0.0
  0
LINE
  5
76A8
  8
0
 10
132.04463588330199
 20
286.88270179918658
 30
0.0
 11
131.41651563814719
 21
287.19270432734851
 31
0.0
  0
LINE
  5
76A9
  8
0
 10
131.41651563814719
 20
287.19270432734851
 30
0.0
 11
131.00350479017419
 21
287.4574768560513
 31
0.0
  0
LINE
  5
76AA
  8
0
 10
129.49063625089181
 20
288.78791134828089
 30
0.0
 11
129.12801254135269
 21
289.22801782664442
 31
0.0
  0
LINE
  5
76AB
  8
0
 10
129.8497130877995
 20
288.41159465620262
 30
0.0
 11
129.49063625089181
 21
288.78791134828089
 31
0.0
  0
LINE
  5
76AC
  8
0
 10
128.55853061761559
 20
290.07825190730819
 30
0.0
 11
128.276684416932
 21
290.5345091100711
 31
0.0
  0
LINE
  5
76AD
  8
0
 10
128.8621858166334
 20
289.57843792915668
 30
0.0
 11
128.55853061761559
 21
290.07825190730819
 31
0.0
  0
LINE
  5
76AE
  8
0
 10
129.12801254135269
 20
289.22801782664442
 30
0.0
 11
128.8621858166334
 21
289.57843792915668
 31
0.0
  0
CIRCLE
  5
76C3
  8
0
 10
273.01625944875582
 20
436.92666748060799
 30
0.0
 40
14.99999996313648
  0
LINE
  5
76C7
  8
0
 10
309.78581335305017
 20
408.64239727892561
 30
0.0
 11
302.71472185533918
 21
415.71344227251302
 31
0.0
  0
LINE
  5
76C8
  8
0
 10
301.3005297651182
 20
400.15711346163363
 30
0.0
 11
294.2294846568513
 21
407.22820507402503
 31
0.0
  0
LINE
  5
76D3
  8
1
 10
228.01625944875579
 20
425.42666701867182
 30
0.0
 11
228.0162594487559
 21
448.42666794254399
 31
0.0
  0
LINE
  5
76D6
  8
1
 10
236.0162594487559
 20
445.12666748060792
 30
0.0
 11
236.0162594487559
 21
428.726667480608
 31
0.0
  0
LINE
  5
76D8
  8
1
 10
213.0162594487559
 20
436.92666748060788
 30
0.0
 11
298.0162590017211
 21
436.92666748060799
 31
0.0
  0
LINE
  5
76D9
  8
1
 10
273.01625944875582
 20
389.42666748060827
 30
0.0
 11
273.01625944875582
 21
484.42666748060827
 31
0.0
  0
LINE
  5
7754
  8
3
 10
96.952784467339441
 20
247.64794590022299
 30
0.0
 11
96.952784467339313
 21
258.14794855262971
 31
0.0
  0
LINE
  5
775C
  8
3
 10
105.3287844673396
 20
247.64794590022299
 30
0.0
 11
105.3287844673398
 21
258.14794855262971
 31
0.0
  0
LINE
  5
775D
  8
3
 10
232.20425952326181
 20
247.64794590022299
 30
0.0
 11
232.2042595232619
 21
258.14794581081588
 31
0.0
  0
LINE
  5
775E
  8
0
 10
233.01625941150311
 20
258.14794581081588
 30
0.0
 11
233.01625941150311
 21
247.64794590022299
 31
0.0
  0
LINE
  5
775F
  8
3
 10
223.82825952326149
 20
247.64794590022299
 30
0.0
 11
223.82825952326141
 21
258.14794581081588
 31
0.0
  0
LINE
  5
7760
  8
0
 10
223.0162596350205
 20
258.14794581081588
 30
0.0
 11
223.0162596350205
 21
247.64794590022299
 31
0.0
  0
LINE
  5
7767
  8
0
 10
292.21626036070688
 20
222.14794637706021
 30
0.0
 11
293.01625900172098
 21
221.34794773604611
 31
0.0
  0
LINE
  5
776A
  8
0
 10
293.01625900172098
 20
285.34795077588302
 30
0.0
 11
292.21626036070688
 21
286.14794941689712
 31
0.0
  0
LINE
  5
776B
  8
0
 10
276.96625925802101
 20
286.14794941689712
 30
0.0
 11
276.16625945285358
 21
285.34795077588302
 31
0.0
  0
LINE
  5
776C
  8
0
 10
269.06625963949068
 20
286.14794941689712
 30
0.0
 11
269.866259444658
 21
285.34795077588302
 31
0.0
  0
LINE
  5
776D
  8
0
 10
258.01625978403189
 20
288.95795079018808
 30
0.0
 11
258.01625978403189
 21
286.14794941689712
 31
0.0
  0
LINE
  5
776E
  8
0
 10
288.01625911347969
 20
288.95795079018808
 30
0.0
 11
288.0162591134798
 21
286.14794941689712
 31
0.0
  0
LINE
  5
776F
  8
0
 10
258.01625978403189
 20
302.25794496085382
 30
0.0
 11
258.01625944875582
 21
290.55794715192047
 31
0.0
  0
LINE
  5
7770
  8
0
 10
231.51626003538539
 20
296.2186607911799
 30
0.0
 11
231.51626003538539
 21
293.0139723613475
 31
0.0
  0
LINE
  5
7771
  8
0
 10
231.51626003538539
 20
293.0139723613475
 30
0.0
 11
233.01626034282549
 21
292.1479466750834
 31
0.0
  0
LINE
  5
7772
  8
0
 10
224.5162580182444
 20
296.2186607911799
 30
0.0
 11
224.5162580182444
 21
293.0139723613475
 31
0.0
  0
LINE
  5
7773
  8
0
 10
224.5162580182444
 20
293.0139723613475
 30
0.0
 11
223.01625870369779
 21
292.1479466750834
 31
0.0
  0
LINE
  5
7775
  8
0
 10
218.0162597467791
 20
285.34795077588302
 30
0.0
 11
218.0162597467791
 21
264.14794581081628
 31
0.0
  0
LINE
  5
7777
  8
0
 10
259.67262443356623
 20
289.75794943120218
 30
0.0
 11
297.98696108401089
 21
289.77394899632731
 31
0.0
  0
LINE
  5
7778
  8
0
 10
298.82565736972202
 20
290.7579440071795
 30
0.0
 11
300.09281486474379
 21
290.7579440071795
 31
0.0
  0
LINE
  5
7779
  8
0
 10
298.82565736972202
 20
302.75794597413278
 30
0.0
 11
300.07444916595909
 21
302.75794597413278
 31
0.0
  0
LINE
  5
777A
  8
0
 10
300.24507123581031
 20
302.98371263504322
 30
0.0
 11
299.91560778401703
 21
303.1951404674773
 31
0.0
  0
LINE
  5
777B
  8
0
 10
299.91560778401703
 20
303.1951404674773
 30
0.0
 11
299.7668611709372
 21
303.3095230431166
 31
0.0
  0
LINE
  5
777C
  8
0
 10
299.7668611709372
 20
303.3095230431166
 30
0.0
 11
299.24051561698292
 21
303.51541167926678
 31
0.0
  0
LINE
  5
777D
  8
0
 10
299.24051561698292
 20
303.51541167926678
 30
0.0
 11
298.65696300432489
 21
303.62979425490619
 31
0.0
  0
LINE
  5
777E
  8
0
 10
298.65696300432489
 20
303.62979425490619
 30
0.0
 11
298.12500104509701
 21
303.75111581828332
 31
0.0
  0
LINE
  5
777F
  8
0
 10
298.61582146800981
 20
289.86196249233598
 30
0.0
 11
298.083143940512
 21
289.74382232344863
 31
0.0
  0
LINE
  5
7780
  8
0
 10
299.20004725728103
 20
289.97285547002281
 30
0.0
 11
298.61582146800981
 21
289.86196249233598
 31
0.0
  0
LINE
  5
7781
  8
0
 10
299.72761388810898
 20
290.17559476739751
 30
0.0
 11
299.20004725728103
 21
289.97285547002281
 31
0.0
  0
LINE
  5
7782
  8
0
 10
299.87704144298249
 20
290.28908632812829
 30
0.0
 11
299.72761388810898
 21
290.17559476739751
 31
0.0
  0
LINE
  5
7783
  8
0
 10
297.86452374128521
 20
289.7382966083743
 30
0.0
 11
298.083143940512
 21
289.74382232344863
 31
0.0
  0
LINE
  5
7785
  8
0
 10
300.2077625923186
 20
290.49854137289248
 30
0.0
 11
299.87704144298249
 21
290.28908632812829
 31
0.0
  0
LINE
  5
7786
  8
0
 10
296.89969744759537
 20
289.87857065169072
 30
0.0
 11
297.86452374128521
 21
289.7382966083743
 31
0.0
  0
LINE
  5
7787
  8
0
 10
295.12169222695269
 20
290.93442031212982
 30
0.0
 11
295.9735567442255
 21
290.2824507109371
 31
0.0
  0
LINE
  5
7788
  8
0
 10
295.9735567442255
 20
290.2824507109371
 30
0.0
 11
296.89969744759537
 21
289.87857065169072
 31
0.0
  0
LINE
  5
7789
  8
0
 10
294.37683976387098
 20
291.80942822772892
 30
0.0
 11
295.12169222695269
 21
290.93442031212982
 31
0.0
  0
LINE
  5
778A
  8
0
 10
293.76762520670292
 20
292.87384967025309
 30
0.0
 11
294.37683976387098
 21
291.80942822772892
 31
0.0
  0
LINE
  5
778B
  8
0
 10
293.31746002575761
 20
294.08676696458127
 30
0.0
 11
293.76762520670292
 21
292.87384967025309
 31
0.0
  0
LINE
  5
778C
  8
0
 10
293.04364379141879
 20
295.4015768154328
 30
0.0
 11
293.31746002575761
 21
294.08676696458127
 31
0.0
  0
LINE
  5
778D
  8
0
 10
292.95670041720319
 20
296.76775264275079
 30
0.0
 11
293.04364379141879
 21
295.4015768154328
 31
0.0
  0
LINE
  5
778E
  8
0
 10
303.32683995567669
 20
306.27695949818832
 30
0.0
 11
304.72879651490121
 21
307.0432218241894
 31
0.0
  0
LINE
  5
778F
  8
0
 10
304.72879651490121
 20
307.0432218241894
 30
0.0
 11
306.28734381869481
 21
307.77353396989099
 31
0.0
  0
LINE
  5
7790
  8
0
 10
306.28734381869481
 20
307.77353396989099
 30
0.0
 11
308.28422846447842
 21
308.74728281254733
 31
0.0
  0
LINE
  5
7791
  8
0
 10
308.28422846447842
 20
308.74728281254733
 30
0.0
 11
310.81686525175201
 21
309.81840633398531
 31
0.0
  0
LINE
  5
7792
  8
0
 10
310.81686525175201
 20
309.81840633398531
 30
0.0
 11
313.30079636020258
 21
310.64609315846872
 31
0.0
  0
LINE
  5
7793
  8
0
 10
313.30079636020258
 20
310.64609315846872
 30
0.0
 11
315.88213538444501
 21
311.37640530417042
 31
0.0
  0
LINE
  5
7794
  8
0
 10
315.88213538444501
 20
311.37640530417042
 30
0.0
 11
318.85311295556312
 21
312.10671539503329
 31
0.0
  0
LINE
  5
7795
  8
0
 10
318.85311295556312
 20
312.10671539503329
 30
0.0
 11
322.0676120370872
 21
312.59359084378082
 31
0.0
  0
LINE
  5
7796
  8
0
 10
322.0676120370872
 20
312.59359084378082
 30
0.0
 11
325.08729184517409
 21
313.08046423768963
 31
0.0
  0
LINE
  5
7797
  8
0
 10
325.08729184517409
 20
313.08046423768963
 30
0.0
 11
328.20438301090678
 21
313.32390298948241
 31
0.0
  0
LINE
  5
7798
  8
0
 10
328.20438301090678
 20
313.32390298948241
 30
0.0
 11
330.0551540620753
 21
313.2752156500913
 31
0.0
  0
LINE
  5
7799
  8
0
 10
330.0551540620753
 20
313.2752156500913
 30
0.0
 11
330.96301665547759
 21
313.25952094592799
 31
0.0
  0
LINE
  5
779A
  8
0
 10
322.06761668974087
 20
280.92231030420322
 30
0.0
 11
325.08729664087548
 21
280.43543779750348
 31
0.0
  0
LINE
  5
779B
  8
0
 10
318.85311746516862
 20
281.40918480850189
 30
0.0
 11
322.06761668974087
 21
280.92231030420322
 31
0.0
  0
LINE
  5
779D
  8
0
 10
283.11232756650628
 20
303.74711524935708
 30
0.0
 11
282.26265078689261
 21
303.68853797308373
 31
0.0
  0
LINE
  5
779E
  8
0
 10
282.26265078689261
 20
303.68853797308373
 30
0.0
 11
279.86012297219071
 21
303.161338376949
 31
0.0
  0
LINE
  5
779F
  8
0
 10
279.86012297219071
 20
303.161338376949
 30
0.0
 11
278.21937042261919
 21
302.3119606790541
 31
0.0
  0
LINE
  5
77A0
  8
0
 10
278.21937042261919
 20
302.3119606790541
 30
0.0
 11
277.28179901223018
 21
300.7010742799315
 31
0.0
  0
LINE
  5
77A1
  8
0
 10
277.28179901223018
 20
300.7010742799315
 30
0.0
 11
276.8765482146909
 21
299.78079644029862
 31
0.0
  0
LINE
  5
77A2
  8
0
 10
276.8765482146909
 20
299.78079644029862
 30
0.0
 11
276.55381587166261
 21
298.09857016403561
 31
0.0
  0
LINE
  5
77A3
  8
0
 10
276.55381587166261
 20
298.09857016403561
 30
0.0
 11
276.39926937610312
 21
296.7579487159465
 31
0.0
  0
LINE
  5
77A5
  8
0
 10
315.88213538444501
 20
282.13949212772252
 30
0.0
 11
318.85311295556312
 21
281.40918203685948
 31
0.0
  0
LINE
  5
77A6
  8
0
 10
313.30079636020258
 20
282.86980427342422
 30
0.0
 11
315.88213538444501
 21
282.13949212772252
 31
0.0
  0
LINE
  5
77A7
  8
0
 10
310.81686525175201
 20
283.69749109790757
 30
0.0
 11
313.30079636020258
 21
282.86980427342422
 31
0.0
  0
LINE
  5
77A8
  8
0
 10
308.28422846447842
 20
284.76861461934561
 30
0.0
 11
310.81686525175201
 21
283.69749109790757
 31
0.0
  0
LINE
  5
77A9
  8
0
 10
306.28734381869481
 20
285.74236346200189
 30
0.0
 11
308.28422846447842
 21
284.76861461934561
 31
0.0
  0
LINE
  5
77AA
  8
0
 10
325.08729184517409
 20
280.4354331942032
 30
0.0
 11
328.20438301090678
 21
280.19199444241042
 31
0.0
  0
LINE
  5
77AB
  8
0
 10
322.0676120370872
 20
280.92230658811212
 30
0.0
 11
325.08729184517409
 21
280.4354331942032
 31
0.0
  0
LINE
  5
77AC
  8
0
 10
318.85311295556312
 20
281.40918203685948
 30
0.0
 11
322.0676120370872
 21
280.92230658811212
 31
0.0
  0
LINE
  5
77AD
  8
0
 10
328.20438301090678
 20
280.19199444241042
 30
0.0
 11
330.08263726788431
 21
280.16597345495251
 31
0.0
  0
LINE
  5
77AE
  8
0
 10
330.08263726788431
 20
280.16597345495251
 30
0.0
 11
332.71725863055599
 21
280.27105585427768
 31
0.0
  0
LINE
  5
77AF
  8
0
 10
303.19137256794079
 20
287.31956811692447
 30
0.0
 11
304.34405228470217
 21
286.5955112185469
 31
0.0
  0
LINE
  5
77B0
  8
0
 10
304.34405228470217
 20
286.5955112185469
 30
0.0
 11
305.28256676314271
 21
286.14875854303119
 31
0.0
  0
LINE
  5
77B1
  8
0
 10
305.28256676314271
 20
286.14875854303119
 30
0.0
 11
306.28734381869481
 21
285.74236346200189
 31
0.0
  0
LINE
  5
77B2
  8
0
 10
332.05967567783313
 20
313.25794715192058
 30
0.0
 11
330.96301665547878
 21
313.25952094592799
 31
0.0
  0
LINE
  5
77B6
  8
0
 10
276.16625945285358
 20
283.14795078780389
 30
0.0
 11
276.16625945285358
 21
285.34795077588302
 31
0.0
  0
LINE
  5
77B7
  8
0
 10
269.866259444658
 20
283.14795078780389
 30
0.0
 11
276.16625945285358
 21
283.14795078780389
 31
0.0
  0
LINE
  5
77B8
  8
0
 10
269.866259444658
 20
283.14795078780389
 30
0.0
 11
269.866259444658
 21
285.34795077588302
 31
0.0
  0
LINE
  5
77B9
  8
0
 10
259.01625901662209
 20
225.2079463943455
 30
0.0
 11
259.01625901662209
 21
222.14794637706021
 31
0.0
  0
LINE
  5
77BA
  8
0
 10
287.01625988088949
 20
225.2079463943455
 30
0.0
 11
287.01625988088949
 21
222.14794637706021
 31
0.0
  0
LINE
  5
77BB
  8
0
 10
143.6407844673395
 20
204.14794715192059
 30
0.0
 11
58.640784467339529
 21
204.14794715192059
 31
0.0
  0
LINE
  5
77BC
  8
0
 10
293.01625900172098
 20
285.34795077588302
 30
0.0
 11
293.01625944875587
 21
226.0079471519206
 31
0.0
  0
LINE
  5
77C1
  8
0
 10
253.01625989579071
 20
226.0079468980048
 30
0.0
 11
253.01625944875579
 21
264.1479458108181
 31
0.0
  0
LINE
  5
77C4
  8
0
 10
218.8950706293474
 20
286.14794941689712
 30
0.0
 11
218.0162597467791
 21
285.34795077588302
 31
0.0
  0
LINE
  5
77C5
  8
1
 10
228.01625952326171
 20
302.77079991362677
 30
0.0
 11
228.01625952326171
 21
233.77017538580631
 31
0.0
  0
LINE
  5
780B
  8
0
 10
498.3180278541048
 20
226.0079468980048
 30
0.0
 11
498.3180283011398
 21
286.14794941689712
 31
0.0
  0
LINE
  5
7811
  8
0
 10
464.31802786900602
 20
225.2079463943455
 30
0.0
 11
464.3180278690059
 21
222.14794637706021
 31
0.0
  0
LINE
  5
7812
  8
0
 10
492.31802873327331
 20
225.2079463943455
 30
0.0
 11
492.31802873327331
 21
222.14794637706021
 31
0.0
  0
LINE
  5
7813
  8
0
 10
481.46802830523751
 20
283.14795078780389
 30
0.0
 11
481.46802830523751
 21
285.34795077588302
 31
0.0
  0
LINE
  5
7814
  8
0
 10
481.46802830523751
 20
283.14795078780389
 30
0.0
 11
475.16802829704187
 21
283.14795078780389
 31
0.0
  0
LINE
  5
7815
  8
0
 10
475.16802829704187
 20
283.14795078780389
 30
0.0
 11
475.16802829704187
 21
285.34795077588302
 31
0.0
  0
LINE
  5
7856
  8
0
 10
463.31802863641582
 20
288.95795079018808
 30
0.0
 11
463.3180286364157
 21
286.14794941689712
 31
0.0
  0
LINE
  5
7857
  8
0
 10
493.31802796586351
 20
288.95795079018808
 30
0.0
 11
493.31802796586351
 21
286.14794941689712
 31
0.0
  0
LINE
  5
7858
  8
0
 10
482.26802811040483
 20
286.14794941689712
 30
0.0
 11
481.46802830523751
 21
285.34795077588302
 31
0.0
  0
LINE
  5
7859
  8
0
 10
474.3680284918745
 20
286.14794941689712
 30
0.0
 11
475.16802829704187
 21
285.34795077588302
 31
0.0
  0
LINE
  5
785A
  8
0
 10
458.31802874817453
 20
285.34795077588302
 30
0.0
 11
459.11802738918863
 21
286.14794941689712
 31
0.0
  0
LINE
  5
785B
  8
0
 10
458.31802874817453
 20
226.0079468980048
 30
0.0
 11
458.31802874817453
 21
285.34795077588302
 31
0.0
  0
LINE
  5
7898
  8
0
 10
459.11802738918863
 20
225.2079463943455
 30
0.0
 11
478.31802830113969
 21
225.2079463943455
 31
0.0
  0
LINE
  5
7899
  8
0
 10
478.31802830113969
 20
225.2079463943455
 30
0.0
 11
497.5180292130907
 21
225.2079463943455
 31
0.0
  0
ARC
  5
78A8
  8
0
 10
459.1180283011397
 20
226.0079471519206
 30
0.0
 40
0.7999999999999972
 50
180.0
 51
269.9999999999992
  0
ARC
  5
78A9
  8
0
 10
497.51802830113968
 20
226.0079471519206
 30
0.0
 40
0.7999999999999972
 50
269.9999999999992
 51
0.000000000000007
  0
LINE
  5
78C4
  8
1
 10
393.22749533179092
 20
296.75794715192058
 30
0.0
 11
478.31802830113969
 21
296.75794715192058
 31
0.0
  0
LINE
  5
78DB
  8
0
 10
474.3680284918745
 20
286.14794941689712
 30
0.0
 11
459.11802738918863
 21
286.14794941689712
 31
0.0
  0
LINE
  5
7908
  8
0
 10
459.11802738918851
 20
222.14794637706021
 30
0.0
 11
497.51802921309059
 21
222.14794637706021
 31
0.0
  0
LINE
  5
790A
  8
0
 10
458.31802874817441
 20
221.34794773604611
 30
0.0
 11
458.31802874817441
 21
219.14794681664441
 31
0.0
  0
LINE
  5
790B
  8
0
 10
459.11802738918851
 20
222.14794637706021
 30
0.0
 11
458.31802874817441
 21
221.34794773604611
 31
0.0
  0
LINE
  5
790E
  8
0
 10
498.31802785410468
 20
221.34794773604611
 30
0.0
 11
498.31802785410468
 21
219.14794681664441
 31
0.0
  0
LINE
  5
790F
  8
0
 10
497.51802921309059
 20
222.14794637706021
 30
0.0
 11
498.31802785410468
 21
221.34794773604611
 31
0.0
  0
LINE
  5
7919
  8
0
 10
497.51802921309059
 20
222.14794637706021
 30
0.0
 11
498.31802785410468
 21
221.34794773604611
 31
0.0
  0
LINE
  5
791D
  8
0
 10
459.11802738918851
 20
222.14794637706021
 30
0.0
 11
458.31802874817441
 21
221.34794773604611
 31
0.0
  0
LINE
  5
79E9
  8
1
 10
687.8629799560033
 20
302.77079991362638
 30
0.0
 11
687.8629799560033
 21
233.77017538580591
 31
0.0
  0
LINE
  5
79EA
  8
0
 10
696.98416884991752
 20
286.14794941689672
 30
0.0
 11
697.86297973248588
 21
285.34795077588262
 31
0.0
  0
LINE
  5
79EC
  8
0
 10
697.86297973248588
 20
285.34795077588262
 30
0.0
 11
697.86297973248588
 21
264.14794581081588
 31
0.0
  0
LINE
  5
7A2F
  8
0
 10
691.36298146102058
 20
293.01397236134699
 30
0.0
 11
692.86298077556717
 21
292.14794667508312
 31
0.0
  0
LINE
  5
7A30
  8
0
 10
691.36298146102058
 20
296.2186607911795
 30
0.0
 11
691.36298146102058
 21
293.01397236134699
 31
0.0
  0
LINE
  5
7A31
  8
0
 10
684.36297944387945
 20
293.0139723613471
 30
0.0
 11
682.86297913643944
 21
292.14794667508312
 31
0.0
  0
LINE
  5
7A32
  8
0
 10
684.36297944387945
 20
296.21866079117962
 30
0.0
 11
684.36297944387945
 21
293.0139723613471
 31
0.0
  0
LINE
  5
7A39
  8
0
 10
622.86298047754394
 20
226.00794689800441
 30
0.0
 11
622.86298047754394
 21
285.34795077588262
 31
0.0
  0
LINE
  5
7A3A
  8
0
 10
692.86297984424459
 20
258.1479458108156
 30
0.0
 11
692.86297984424459
 21
247.64794590022271
 31
0.0
  0
LINE
  5
7A3B
  8
3
 10
692.0509799560034
 20
247.64794590022271
 30
0.0
 11
692.05097995600363
 21
258.1479458108156
 31
0.0
  0
LINE
  5
7A3C
  8
0
 10
682.86298006776201
 20
258.1479458108156
 30
0.0
 11
682.86298006776201
 21
247.64794590022271
 31
0.0
  0
LINE
  5
7A3D
  8
3
 10
683.67497995600309
 20
247.64794590022271
 30
0.0
 11
683.67497995600309
 21
258.1479458108156
 31
0.0
  0
LINE
  5
7A66
  8
0
 10
678.04802652451644
 20
247.64794590022271
 30
0.0
 11
697.67793338749061
 21
247.64794590022271
 31
0.0
  0
LINE
  5
7A6C
  8
0
 10
697.67793338749038
 20
240.64794661547859
 30
0.0
 11
697.67793338749038
 21
247.64794590022271
 31
0.0
  0
LINE
  5
7A6D
  8
0
 10
692.77045574042427
 20
240.64794661547859
 30
0.0
 11
692.77045574042427
 21
247.64794590022271
 31
0.0
  0
LINE
  5
7A6E
  8
0
 10
682.95550417158233
 20
240.64794661547859
 30
0.0
 11
682.95550417158233
 21
247.64794590022271
 31
0.0
  0
LINE
  5
7A6F
  8
0
 10
678.04802652451622
 20
240.64794661547859
 30
0.0
 11
678.04802652451622
 21
247.64794590022271
 31
0.0
  0
LINE
  5
7A7C
  8
1
 10
642.86298003050911
 20
308.55832252720319
 30
0.0
 11
642.86298003050911
 21
199.14794715192019
 31
0.0
  0
LINE
  5
7A85
  8
0
 10
696.98416884991752
 20
286.14794941689672
 30
0.0
 11
646.81297983977424
 21
286.14794941689712
 31
0.0
  0
LINE
  5
7A90
  8
0
 10
684.36297845098602
 20
296.21866079117962
 30
0.0
 11
691.36298146102058
 21
296.21866079117962
 31
0.0
  0
LINE
  5
7A91
  8
0
 10
684.36297845098602
 20
293.0139723613471
 30
0.0
 11
691.36298146102058
 21
293.0139723613471
 31
0.0
  0
LINE
  5
7A92
  8
0
 10
692.77045574042427
 20
240.64794661547839
 30
0.0
 11
697.67793338749038
 21
240.64794661547839
 31
0.0
  0
LINE
  5
7A93
  8
0
 10
682.95550417158233
 20
240.64794661547839
 30
0.0
 11
692.77045574042427
 21
240.64794661547839
 31
0.0
  0
LINE
  5
7A94
  8
0
 10
678.04802652451622
 20
240.64794661547839
 30
0.0
 11
682.95550417158233
 21
240.64794661547839
 31
0.0
  0
LINE
  5
7A95
  8
0
 10
691.38292293998825
 20
264.14794581081571
 30
0.0
 11
692.77045574042427
 21
264.14794581081571
 31
0.0
  0
LINE
  5
7A97
  8
0
 10
692.77045574042427
 20
264.14794581081571
 30
0.0
 11
693.46422400328743
 21
264.14794581081571
 31
0.0
  0
LINE
  5
7A99
  8
0
 10
692.77045574042427
 20
292.14794667508312
 30
0.0
 11
682.95550417158233
 21
292.14794667508312
 31
0.0
  0
ARC
  5
7AA1
  8
0
 10
687.86298003050911
 20
292.64794715192011
 30
0.0
 40
5.0000000000000151
 50
45.572995999194461
 51
134.42700400080551
  0
LINE
  5
7AD6
  8
0
 10
692.77045574042427
 20
292.14794667508312
 30
0.0
 11
682.95550417158233
 21
292.14794667508312
 31
0.0
  0
LINE
  5
7AD8
  8
0
 10
692.77045574042427
 20
264.14794581081571
 30
0.0
 11
693.46422400328743
 21
264.14794581081571
 31
0.0
  0
LINE
  5
7ADA
  8
0
 10
691.38292293998825
 20
264.14794581081571
 30
0.0
 11
692.77045574042427
 21
264.14794581081571
 31
0.0
  0
LINE
  5
7B86
  8
1
 10
687.8629799560033
 20
302.77079991362638
 30
0.0
 11
687.8629799560033
 21
233.77017538580591
 31
0.0
  0
LINE
  5
7BA3
  8
0
 10
614.87575195649595
 20
289.22801782664442
 30
0.0
 11
615.14157868121538
 21
289.57843792915668
 31
0.0
  0
LINE
  5
7BA4
  8
0
 10
615.14157868121538
 20
289.57843792915668
 30
0.0
 11
615.44523388023322
 21
290.07825190730819
 31
0.0
  0
LINE
  5
7BA5
  8
0
 10
615.44523388023322
 20
290.07825190730819
 30
0.0
 11
615.72708008091695
 21
290.5345091100711
 31
0.0
  0
LINE
  5
7BA6
  8
0
 10
614.15405141004919
 20
288.41159465620262
 30
0.0
 11
614.51312824695685
 21
288.78791134828089
 31
0.0
  0
LINE
  5
7BA7
  8
0
 10
614.51312824695685
 20
288.78791134828089
 30
0.0
 11
614.87575195649595
 21
289.22801782664442
 31
0.0
  0
LINE
  5
7BA8
  8
0
 10
612.58724885970173
 20
287.19270432734851
 30
0.0
 11
613.00025970767479
 21
287.4574768560513
 31
0.0
  0
LINE
  5
7BA9
  8
0
 10
611.95912861454678
 20
286.88270179918658
 30
0.0
 11
612.58724885970173
 21
287.19270432734851
 31
0.0
  0
LINE
  5
7BAA
  8
0
 10
612.99879711588176
 20
287.45526855986208
 30
0.0
 11
614.15405141004919
 21
288.41159465620262
 31
0.0
  0
LINE
  5
7BAB
  8
0
 10
608.73979134305705
 20
285.17220539753532
 30
0.0
 11
610.68500974881715
 21
286.17159715046932
 31
0.0
  0
LINE
  5
7BAC
  8
0
 10
610.68500974881715
 20
286.17159715046932
 30
0.0
 11
611.95912861454678
 21
286.88270179918658
 31
0.0
  0
LINE
  5
7BAD
  8
0
 10
602.45112388380721
 20
282.77445558291703
 30
0.0
 11
605.97419335608151
 21
283.96880499931268
 31
0.0
  0
LINE
  5
7BAE
  8
0
 10
605.97419335608151
 20
283.96880499931268
 30
0.0
 11
608.73979134305705
 21
285.17220539753532
 31
0.0
  0
LINE
  5
7BAF
  8
0
 10
582.43477096320998
 20
280.23824473873901
 30
0.0
 11
583.65264705850996
 21
280.11936051849841
 31
0.0
  0
LINE
  5
7BB0
  8
0
 10
583.65264705850996
 20
280.11936051849841
 30
0.0
 11
584.74206897840406
 21
280.12525250819152
 31
0.0
  0
LINE
  5
7BB1
  8
0
 10
584.74206897840406
 20
280.12525250819152
 30
0.0
 11
585.62908368735725
 21
280.11466525884867
 31
0.0
  0
LINE
  5
7BB2
  8
0
 10
585.62908368735725
 20
280.11466525884867
 30
0.0
 11
586.55632637654344
 21
280.13107634737679
 31
0.0
  0
LINE
  5
7BB3
  8
0
 10
586.55632637654344
 20
280.13107634737679
 30
0.0
 11
587.69850811360436
 21
280.17504454847739
 31
0.0
  0
LINE
  5
7BB4
  8
0
 10
587.69850811360436
 20
280.17504454847739
 30
0.0
 11
589.36463332394248
 21
280.27443303806473
 31
0.0
  0
LINE
  5
7BB5
  8
0
 10
589.36463332394248
 20
280.27443303806473
 30
0.0
 11
590.38573610351466
 21
280.3583184323486
 31
0.0
  0
LINE
  5
7BB6
  8
0
 10
590.38573610351466
 20
280.3583184323486
 30
0.0
 11
591.71394523001823
 21
280.47914539669949
 31
0.0
  0
LINE
  5
7BB7
  8
0
 10
591.71394523001823
 20
280.47914539669949
 30
0.0
 11
592.93767310725457
 21
280.6299274999235
 31
0.0
  0
LINE
  5
7BB8
  8
0
 10
592.93767310725457
 20
280.6299274999235
 30
0.0
 11
594.55282966419395
 21
280.87986732674102
 31
0.0
  0
LINE
  5
7BB9
  8
0
 10
594.55282966419395
 20
280.87986732674102
 30
0.0
 11
595.80893802776313
 21
281.11233909402279
 31
0.0
  0
LINE
  5
7BBA
  8
0
 10
595.80893802776313
 20
281.11233909402279
 30
0.0
 11
599.41453234094183
 21
281.85020982063071
 31
0.0
  0
LINE
  5
7BBB
  8
0
 10
599.41453234094183
 20
281.85020982063071
 30
0.0
 11
602.45112388380721
 21
282.77445558291703
 31
0.0
  0
LINE
  5
7BBC
  8
0
 10
616.07863452288746
 20
290.29079260375238
 30
0.0
 11
617.00717430564998
 21
289.8924547627185
 31
0.0
  0
LINE
  5
7BBD
  8
0
 10
617.00717430564998
 20
289.8924547627185
 30
0.0
 11
617.82304454598068
 21
289.76115318085891
 31
0.0
  0
LINE
  5
7BBE
  8
0
 10
614.47282206270336
 20
291.80820019986368
 30
0.0
 11
615.22288877520214
 21
290.93765946175802
 31
0.0
  0
LINE
  5
7BBF
  8
0
 10
613.11818171295772
 20
295.39231689717508
 30
0.0
 11
613.39985091242443
 21
294.0791669681285
 31
0.0
  0
LINE
  5
7BC0
  8
0
 10
613.39985091242443
 20
294.0791669681285
 30
0.0
 11
613.85725695643066
 21
292.86896171118963
 31
0.0
  0
LINE
  5
7BC1
  8
0
 10
613.85725695643066
 20
292.86896171118963
 30
0.0
 11
614.47282206270336
 21
291.80820019986368
 31
0.0
  0
LINE
  5
7BC2
  8
0
 10
615.22288877520214
 20
290.93765946175802
 30
0.0
 11
616.07863452288746
 21
290.29079260375238
 31
0.0
  0
LINE
  5
7BC3
  8
0
 10
613.02307318899284
 20
296.7579487159465
 30
0.0
 11
613.11818171295772
 21
295.39231689717508
 31
0.0
  0
LINE
  5
7BC4
  8
0
 10
612.55662214014205
 20
287.24131466891509
 30
0.0
 11
613.13125323677673
 21
287.57115462214313
 31
0.0
  0
LINE
  5
7BC5
  8
0
 10
615.4238551119513
 20
303.39822424930742
 30
0.0
 11
615.70716445694165
 21
302.94287413021891
 31
0.0
  0
LINE
  5
7BC6
  8
0
 10
615.11859706271002
 20
303.8970609119732
 30
0.0
 11
615.4238551119513
 21
303.39822424930742
 31
0.0
  0
LINE
  5
7BC7
  8
0
 10
614.85164685074574
 20
304.2466258989956
 30
0.0
 11
615.11859706271002
 21
303.8970609119732
 31
0.0
  0
LINE
  5
7BC8
  8
0
 10
614.48761225728435
 20
304.6855660791806
 30
0.0
 11
614.85164685074574
 21
304.2466258989956
 31
0.0
  0
LINE
  5
7BC9
  8
0
 10
614.12732928490391
 20
305.06072818727932
 30
0.0
 11
614.48761225728435
 21
304.6855660791806
 31
0.0
  0
LINE
  5
7BCA
  8
0
 10
613.81958965878289
 20
305.37211222329182
 30
0.0
 11
614.12732928490391
 21
305.06072818727932
 31
0.0
  0
LINE
  5
7BCB
  8
0
 10
612.96901111336797
 20
306.0133409628728
 30
0.0
 11
613.80846902785345
 21
305.37795823834028
 31
0.0
  0
LINE
  5
7BCC
  8
0
 10
610.65111505165726
 20
307.2895784464107
 30
0.0
 11
611.927510015699
 21
306.58256741311288
 31
0.0
  0
LINE
  5
7BCD
  8
0
 10
608.70269859675705
 20
308.28272085322573
 30
0.0
 11
610.65111505165726
 21
307.2895784464107
 31
0.0
  0
LINE
  5
7BCE
  8
0
 10
605.9332519147722
 20
309.47723741637941
 30
0.0
 11
608.70269859675705
 21
308.28272085322573
 31
0.0
  0
LINE
  5
7BCF
  8
0
 10
602.40636670395293
 20
310.66027154294568
 30
0.0
 11
605.9332519147722
 21
309.47723741637941
 31
0.0
  0
LINE
  5
7BD0
  8
0
 10
599.36682395526191
 20
311.57476501267939
 30
0.0
 11
602.40636670395293
 21
310.66027154294568
 31
0.0
  0
LINE
  5
7BD1
  8
0
 10
595.75887963611399
 20
312.30105789460771
 30
0.0
 11
599.36682395526191
 21
311.57476501267939
 31
0.0
  0
LINE
  5
7BD2
  8
0
 10
594.50203150431594
 20
312.5294963265913
 30
0.0
 11
595.75887963611399
 21
312.30105789460771
 31
0.0
  0
LINE
  5
7BD3
  8
0
 10
592.88608095612938
 20
312.77425017491572
 30
0.0
 11
594.50203150431594
 21
312.5294963265913
 31
0.0
  0
LINE
  5
7BD4
  8
0
 10
591.66187536959001
 20
312.92110330584529
 30
0.0
 11
592.88608095612938
 21
312.77425017491572
 31
0.0
  0
LINE
  5
7BD5
  8
0
 10
590.33328522879015
 20
313.03766606495248
 30
0.0
 11
591.66187536959001
 21
312.92110330584529
 31
0.0
  0
LINE
  5
7BD6
  8
0
 10
589.31191843598094
 20
313.11827326296168
 30
0.0
 11
590.33328522879015
 21
313.03766606495248
 31
0.0
  0
LINE
  5
7BD7
  8
0
 10
587.64548277034851
 20
313.21231293913382
 30
0.0
 11
589.31191843598094
 21
313.11827326296168
 31
0.0
  0
LINE
  5
7BD8
  8
0
 10
586.50316577900071
 20
313.25261448329991
 30
0.0
 11
587.64548277034851
 21
313.21231293913382
 31
0.0
  0
LINE
  5
7BD9
  8
0
 10
585.57587518711557
 20
313.26604901630151
 30
0.0
 11
586.50316577900071
 21
313.25261448329991
 31
0.0
  0
LINE
  5
7BDA
  8
0
 10
584.68889903350669
 20
313.25261448329991
 30
0.0
 11
585.57587518711557
 21
313.26604901630151
 31
0.0
  0
LINE
  5
7BDB
  8
0
 10
583.59946381303939
 20
313.25500937249399
 30
0.0
 11
584.68889903350669
 21
313.25261448329991
 31
0.0
  0
LINE
  5
7BDC
  8
0
 10
657.86298003050933
 20
288.95794715192062
 30
0.0
 11
657.86298003050933
 21
286.14794941689712
 31
0.0
  0
LINE
  5
7BDD
  8
0
 10
657.86298003050933
 20
302.25794715192058
 30
0.0
 11
657.86298003050933
 21
290.55794715192047
 31
0.0
  0
LINE
  5
7BE2
  8
0
 10
608.62999107691905
 20
302.75794597413278
 30
0.0
 11
615.32037589702281
 21
302.75794597413278
 31
0.0
  0
LINE
  5
7BE3
  8
0
 10
608.56830026957664
 20
290.7579440071795
 30
0.0
 11
615.27646212849299
 21
290.7579440071795
 31
0.0
  0
LINE
  5
7BE4
  8
0
 10
628.66107034423544
 20
289.75794943123731
 30
0.0
 11
617.95612257110611
 21
289.75794943116853
 31
0.0
  0
LINE
  5
7BE5
  8
0
 10
627.86298036578535
 20
290.55794807221628
 30
0.0
 11
627.86298036578535
 21
302.25794496085382
 31
0.0
  0
LINE
  5
7BE6
  8
0
 10
627.86298003050933
 20
288.95794715192062
 30
0.0
 11
627.86298003050933
 21
286.14794941689712
 31
0.0
  0
LINE
  5
7BE7
  8
0
 10
629.36297968033205
 20
303.7579480006907
 30
0.0
 11
617.79578185738626
 21
303.75035674679469
 31
0.0
  0
LINE
  5
7BE8
  8
0
 10
611.28858920190009
 20
303.116832990906
 30
0.0
 11
612.1038354561058
 21
302.75794597413278
 31
0.0
  0
LINE
  5
7BE9
  8
0
 10
610.39308156821403
 20
303.25744779851181
 30
0.0
 11
611.28858920190009
 21
303.116832990906
 31
0.0
  0
LINE
  5
7BEA
  8
0
 10
609.49538346383235
 20
303.14828934218622
 30
0.0
 11
610.39308156821403
 21
303.25744779851181
 31
0.0
  0
LINE
  5
7BEB
  8
0
 10
608.62999107691905
 20
302.79355974938608
 30
0.0
 11
609.49538346383235
 21
303.14828934218622
 31
0.0
  0
LINE
  5
7BEC
  8
0
 10
607.8301600739685
 20
302.2068786814425
 30
0.0
 11
608.62999107691905
 21
302.79355974938608
 31
0.0
  0
LINE
  5
7BED
  8
0
 10
607.12663155052326
 20
301.41079904582239
 30
0.0
 11
607.8301600739685
 21
302.2068786814425
 31
0.0
  0
LINE
  5
7BEE
  8
0
 10
606.54643993827972
 20
300.43591292645669
 30
0.0
 11
607.12663155052326
 21
301.41079904582239
 31
0.0
  0
LINE
  5
7BEF
  8
0
 10
606.11188482496414
 20
299.31968929316741
 30
0.0
 11
606.54643993827972
 21
300.43591292645669
 31
0.0
  0
LINE
  5
7BF0
  8
0
 10
605.83965923640403
 20
298.10501368787033
 30
0.0
 11
606.11188482496414
 21
299.31968929316741
 31
0.0
  0
LINE
  5
7BF1
  8
0
 10
605.74022751304778
 20
296.83857889916641
 30
0.0
 11
605.83965923640403
 21
298.10501368787033
 31
0.0
  0
LINE
  5
7BF2
  8
0
 10
605.81741180274162
 20
295.56903721835351
 30
0.0
 11
605.74022751304778
 21
296.83857889916641
 31
0.0
  0
LINE
  5
7BF3
  8
0
 10
606.06824677440795
 20
294.34518994834161
 30
0.0
 11
605.81741180274162
 21
295.56903721835351
 31
0.0
  0
LINE
  5
7BF4
  8
0
 10
606.48309137675437
 20
293.21405770327777
 30
0.0
 11
606.06824677440795
 21
294.34518994834161
 31
0.0
  0
LINE
  5
7BF5
  8
0
 10
607.04600509259365
 20
292.21912207152582
 30
0.0
 11
606.48309137675437
 21
293.21405770327777
 31
0.0
  0
LINE
  5
7BF6
  8
0
 10
607.73535143587264
 20
291.39860453154779
 30
0.0
 11
607.04600509259365
 21
292.21912207152582
 31
0.0
  0
LINE
  5
7BF7
  8
0
 10
611.927510015699
 20
306.58256741311288
 30
0.0
 11
612.55662214014205
 21
306.27458276297779
 31
0.0
  0
LINE
  5
7BF8
  8
0
 10
610.81548105928573
 20
306.91572012450428
 30
0.0
 11
611.927510015699
 21
306.58256741311288
 31
0.0
  0
LINE
  5
7BF9
  8
0
 10
609.68028824779663
 20
306.99875684525711
 30
0.0
 11
610.81548105928573
 21
306.91572012450428
 31
0.0
  0
LINE
  5
7BFA
  8
0
 10
608.54988988492164
 20
306.82962121512628
 30
0.0
 11
609.68028824779663
 21
306.99875684525711
 31
0.0
  0
LINE
  5
7BFB
  8
0
 10
607.45211388919029
 20
306.4124930098269
 30
0.0
 11
608.54988988492164
 21
306.82962121512628
 31
0.0
  0
LINE
  5
7BFC
  8
0
 10
606.4139946922985
 20
305.75763912942148
 30
0.0
 11
607.45211388919029
 21
306.4124930098269
 31
0.0
  0
LINE
  5
7BFD
  8
0
 10
605.46109523627433
 20
304.8811826303218
 30
0.0
 11
606.4139946922985
 21
305.75763912942148
 31
0.0
  0
LINE
  5
7BFE
  8
0
 10
604.61687739941749
 20
303.804707844517
 30
0.0
 11
605.46109523627433
 21
304.8811826303218
 31
0.0
  0
LINE
  5
7BFF
  8
0
 10
603.90212830159339
 20
302.55470903660989
 30
0.0
 11
604.61687739941749
 21
303.804707844517
 31
0.0
  0
LINE
  5
7C00
  8
0
 10
603.33444993946205
 20
301.16197945620752
 30
0.0
 11
603.90212830159339
 21
302.55470903660989
 31
0.0
  0
LINE
  5
7C01
  8
0
 10
602.92781587693344
 20
299.66081412579751
 30
0.0
 11
603.33444993946205
 21
301.16197945620752
 31
0.0
  0
LINE
  5
7C02
  8
0
 10
602.69224341961979
 20
298.08816047456003
 30
0.0
 11
602.92781587693344
 21
299.66081412579751
 31
0.0
  0
LINE
  5
7C03
  8
0
 10
602.63353284451614
 20
296.48276152159912
 30
0.0
 11
602.69224341961979
 21
298.08816047456003
 31
0.0
  0
LINE
  5
7C04
  8
0
 10
602.75312583896755
 20
294.88413514640069
 30
0.0
 11
602.63353284451614
 21
296.48276152159912
 31
0.0
  0
LINE
  5
7C05
  8
0
 10
603.04807942363857
 20
293.33164276625848
 30
0.0
 11
602.75312583896755
 21
294.88413514640069
 31
0.0
  0
LINE
  5
7C06
  8
0
 10
603.51112928244709
 20
291.86352821137638
 30
0.0
 11
603.04807942363857
 21
293.33164276625848
 31
0.0
  0
LINE
  5
7C07
  8
0
 10
604.13087975237045
 20
290.51591934706897
 30
0.0
 11
603.51112928244709
 21
291.86352821137638
 31
0.0
  0
LINE
  5
7C08
  8
0
 10
604.89206459376476
 20
289.32201596047622
 30
0.0
 11
604.13087975237045
 21
290.51591934706897
 31
0.0
  0
LINE
  5
7C09
  8
0
 10
605.77594559642944
 20
288.3112105920527
 30
0.0
 11
604.89206459376476
 21
289.32201596047622
 31
0.0
  0
LINE
  5
7C0A
  8
0
 10
617.00717430564998
 20
303.62344266917438
 30
0.0
 11
617.82304454598068
 21
303.75474425103403
 31
0.0
  0
LINE
  5
7C0B
  8
0
 10
616.07863452288746
 20
303.2251048281405
 30
0.0
 11
617.00717430564998
 21
303.62344266917438
 31
0.0
  0
LINE
  5
7C0C
  8
0
 10
615.22288877520214
 20
302.57823797013498
 30
0.0
 11
616.07863452288746
 21
303.2251048281405
 31
0.0
  0
LINE
  5
7C0D
  8
0
 10
614.47282206270336
 20
301.7076972320292
 30
0.0
 11
615.22288877520214
 21
302.57823797013498
 31
0.0
  0
LINE
  5
7C0E
  8
0
 10
613.85725695643066
 20
300.64693572070342
 30
0.0
 11
614.47282206270336
 21
301.7076972320292
 31
0.0
  0
LINE
  5
7C0F
  8
0
 10
613.39985091242443
 20
299.43673046376438
 30
0.0
 11
613.85725695643066
 21
300.64693572070342
 31
0.0
  0
LINE
  5
7C10
  8
0
 10
613.11818171295772
 20
298.1235805347178
 30
0.0
 11
613.39985091242443
 21
299.43673046376438
 31
0.0
  0
LINE
  5
7C11
  8
0
 10
613.02307318899284
 20
296.7579487159465
 30
0.0
 11
613.11818171295772
 21
298.1235805347178
 31
0.0
  0
LINE
  5
7C12
  8
0
 10
613.02307318899284
 20
296.73436762835718
 30
0.0
 11
613.02307318899284
 21
296.7579487159465
 31
0.0
  0
LINE
  5
7C13
  8
1
 10
558.62709640585331
 20
296.7579487159465
 30
0.0
 11
642.86298003050933
 21
296.7579487159465
 31
0.0
  0
ARC
  5
7C15
  8
0
 10
609.85191359801502
 20
292.12157345931888
 30
0.0
 40
5.5796398029076579
 50
223.0710543978671
 51
298.99395720158708
  0
LINE
  5
7C1E
  8
0
 10
657.06297971061019
 20
289.75794715192058
 30
0.0
 11
628.66297993812213
 21
289.75794943120218
 31
0.0
  0
LINE
  5
7C1F
  8
0
 10
617.82304454598068
 20
303.75474425103403
 30
0.0
 11
617.97282170507549
 21
303.7579480006907
 31
0.0
  0
LINE
  5
7C22
  8
0
 10
656.36298038068662
 20
303.7579480006907
 30
0.0
 11
629.36297968033205
 21
303.7579480006907
 31
0.0
  0
ARC
  5
7C23
  8
0
 10
610.32081610869591
 20
293.81409881906291
 30
0.0
 40
3.5382538387509328
 50
223.0534056490786
 51
300.26010708457841
  0
LINE
  5
7C24
  8
0
 10
612.55662214014205
 20
306.27458276297779
 30
0.0
 11
612.97282088551185
 21
306.01836474683017
 31
0.0
  0
ARC
  5
7C2D
  8
0
 10
628.66298003050917
 20
288.95794715192062
 30
0.0
 40
0.8000000000000113
 50
90.0
 51
180.0
  0
ARC
  5
7C2E
  8
0
 10
657.06298003050927
 20
288.95794715192062
 30
0.0
 40
0.8000000000000113
 50
0.000000000000007
 51
90.0
  0
ARC
  5
7C2F
  8
0
 10
657.06298003050927
 20
290.55794715192047
 30
0.0
 40
0.7999999999999972
 50
269.9999999999992
 51
0.000000000000007
  0
ARC
  5
7C30
  8
0
 10
628.66298003050917
 20
290.55794715192047
 30
0.0
 40
0.8000000000000113
 50
180.0
 51
269.9999999999992
  0
ARC
  5
7C31
  8
0
 10
629.36298003050933
 20
302.25794715192058
 30
0.0
 40
1.5
 50
90.0
 51
179.99999999999989
  0
ARC
  5
7C32
  8
0
 10
656.36298003050933
 20
302.25794715192058
 30
0.0
 40
1.5
 50
0.0000000000000579
 51
90.0
  0
ARC
  5
7C33
  8
0
 10
583.81956380143379
 20
296.75794715192052
 30
0.0
 40
16.50000000000005
 50
90.0
 51
163.14431640739559
  0
ARC
  5
7C34
  8
0
 10
583.93952717748436
 20
296.77879401979328
 30
0.0
 40
16.608854920896189
 50
163.33314048243571
 51
264.80189534712332
  0
LINE
  5
7C47
  8
0
 10
301.3005297651182
 20
133.03130679920309
 30
0.0
 11
294.2294846568513
 21
125.96021518681179
 31
0.0
  0
LINE
  5
7C48
  8
0
 10
309.78581335305017
 20
124.54602298191119
 30
0.0
 11
302.71472185533918
 21
117.4749779883238
 31
0.0
  0
LINE
  5
7C4F
  8
0
 10
343.72689612411369
 20
143.63794961169361
 30
0.0
 11
343.72694082759728
 21
143.6379086335003
 31
0.0
  0
LINE
  5
7C7D
  8
0
 10
298.96218180858011
 20
135.3696566183865
 30
0.0
 11
312.12416143783452
 21
122.20767466031189
 31
0.0
  0
LINE
  5
7C7E
  8
0
 10
302.85616558446691
 20
117.33353488994899
 30
0.0
 11
294.08804178439487
 21
126.1016596217453
 31
0.0
  0
LINE
  5
7C8D
  8
0
 10
313.24570663474913
 20
122.0085136701167
 30
0.0
 11
313.24832178853859
 21
122.0059003789723
 31
0.0
  0
LINE
  5
7CA9
  8
1
 10
273.01625944875582
 20
96.261752780228704
 30
0.0
 11
347.26247147334419
 21
170.50796480481509
 31
0.0
  0
LINE
  5
7CB4
  8
0
 10
253.01625944875579
 20
118.7617527802286
 30
0.0
 11
253.01625989579071
 21
73.761751886158919
 31
0.0
  0
ARC
  5
7CBA
  8
0
 10
273.01625944875582
 20
73.761752780228534
 30
0.0
 40
20.0
 50
180.0
 51
0.0
  0
LINE
  5
7CC0
  8
0
 10
250.6555788239132
 20
106.2617525567114
 30
0.0
 11
228.0162576606165
 21
106.2617525567114
 31
0.0
  0
ARC
  5
7CC1
  8
0
 10
250.6555796737579
 20
116.2617527802288
 30
0.0
 40
10.000000000000011
 50
270.0
 51
283.65458738179382
  0
LINE
  5
7CC5
  8
0
 10
228.0162576606165
 20
86.261753003746236
 30
0.0
 11
250.6555788239132
 21
86.261753003746236
 31
0.0
  0
ARC
  5
7CC6
  8
0
 10
250.6555796737579
 20
76.261752780228761
 30
0.0
 40
10.00000000000005
 50
76.345412618206154
 51
89.999999999999204
  0
ARC
  5
7CC7
  8
0
 10
228.01625944875579
 20
96.261752780228818
 30
0.0
 40
10.0
 50
89.999999999999204
 51
270.0
  0
ARC
  5
7CD0
  8
0
 10
293.52235610316609
 20
125.53597352135159
 30
0.0
 40
0.8000000000000387
 50
45.000000000002089
 51
134.99999999999341
  0
ARC
  5
7CD1
  8
0
 10
302.29048018987908
 20
116.76784943463829
 30
0.0
 40
0.7999999999999984
 50
315.0000000000029
 51
44.999999999996291
  0
LINE
  5
7CD3
  8
0
 10
302.85616629027243
 20
116.20216445222501
 30
0.0
 11
293.01625900172098
 21
106.36491380020929
 31
0.0
  0
LINE
  5
7CD4
  8
0
 10
292.95667112075199
 20
126.1016596217453
 30
0.0
 11
291.9775713510918
 21
125.1232503195138
 31
0.0
  0
LINE
  5
7CDF
  8
0
 10
223.10878373884071
 20
87.761752318292835
 30
0.0
 11
218.2013060917746
 21
96.261752780228818
 31
0.0
  0
LINE
  5
7CE0
  8
0
 10
218.2013060917746
 20
96.261752780228818
 30
0.0
 11
223.10878373884071
 21
104.7617532421648
 31
0.0
  0
LINE
  5
7CE1
  8
0
 10
223.10878373884071
 20
104.7617532421648
 30
0.0
 11
232.92373530768259
 21
104.7617532421648
 31
0.0
  0
LINE
  5
7CE2
  8
0
 10
232.92373530768259
 20
104.7617532421648
 30
0.0
 11
237.83121295474879
 21
96.261752780228875
 31
0.0
  0
LINE
  5
7CE3
  8
0
 10
237.83121295474879
 20
96.261752780228875
 30
0.0
 11
232.92373530768259
 21
87.761752318292835
 31
0.0
  0
LINE
  5
7CE4
  8
0
 10
232.92373530768259
 20
87.761752318292835
 30
0.0
 11
223.10878373884071
 21
87.761752318292835
 31
0.0
  0
ARC
  5
7CE5
  8
0
 10
312.83126821902113
 20
122.9147814414985
 30
0.0
 40
1.000000000000002
 50
225.0
 51
294.64874477579241
  0
ARC
  5
7CE6
  8
0
 10
299.66928811002668
 20
136.07676155049319
 30
0.0
 40
1.000000000000002
 50
155.3512552242068
 51
224.9999999999919
  0
ARC
  5
7CE7
  8
0
 10
332.05967567783313
 20
155.30516900930471
 30
0.0
 40
16.500000000000028
 50
314.99999999999932
 51
134.99999999999861
  0
ARC
  5
7CE8
  8
0
 10
390.10300992842429
 20
94.579870605836817
 30
0.0
 40
100.5000000000001
 50
133.9187644444809
 51
155.3512552242039
  0
ARC
  5
7CE9
  8
0
 10
271.33437727436689
 20
213.34850325989709
 30
0.0
 40
100.5000000000001
 50
294.64874477579389
 51
316.08123555551691
  0
LINE
  5
7CEA
  8
0
 10
293.01625900172098
 20
118.76175367429821
 30
0.0
 11
293.01625944875582
 21
73.7617530529551
 31
0.0
  0
ARC
  5
7D64
  8
0
 10
278.57300113409769
 20
468.44051557699868
 30
0.0
 40
5.2500000000000151
 50
260.00000000000142
 51
79.999999999998195
  0
ARC
  5
7D65
  8
0
 10
273.01625944875587
 20
436.92666748060799
 30
0.0
 40
37.25
 50
79.999999999998195
 51
100.0000000000018
  0
ARC
  5
7D66
  8
0
 10
267.45951776341423
 20
468.44051557699868
 30
0.0
 40
5.2500000000000151
 50
100.0000000000018
 51
279.99999999999858
  0
ARC
  5
7D67
  8
0
 10
273.01625944875587
 20
436.92666748060799
 30
0.0
 40
26.750000000000021
 50
79.999999999998195
 51
100.0000000000018
  0
ARC
  5
7D68
  8
1
 10
273.01625944875587
 20
436.92666748060788
 30
0.0
 40
32.0
 50
65.187213462913334
 51
114.81278653708659
  0
ARC
  5
7D6B
  8
1
 10
273.01625944875587
 20
436.92666748060788
 30
0.0
 40
32.0
 50
245.18721346291369
 51
294.81278653708699
  0
ARC
  5
7D6C
  8
0
 10
273.01625944875587
 20
436.92666748060788
 30
0.0
 40
26.750000000000021
 50
259.99999999999852
 51
280.0000000000021
  0
ARC
  5
7D6D
  8
0
 10
267.45951776341428
 20
405.41281938421719
 30
0.0
 40
5.2500000000000151
 50
80.00000000000172
 51
259.99999999999852
  0
ARC
  5
7D6E
  8
0
 10
273.01625944875587
 20
436.92666748060788
 30
0.0
 40
37.25
 50
259.99999999999852
 51
280.0000000000021
  0
ARC
  5
7D6F
  8
0
 10
278.57300113409792
 20
405.41281938421719
 30
0.0
 40
5.2500000000000151
 50
280.0000000000021
 51
99.999999999998934
  0
ARC
  5
7D7E
  8
0
 10
273.01625944875582
 20
118.7617527802286
 30
0.0
 40
20.0
 50
0.0
 51
180.0
  0
LINE
  5
7D7F
  8
1
 10
213.0162594487559
 20
96.26175278022879
 30
0.0
 11
298.0162590017211
 21
96.261752780228846
 31
0.0
  0
LINE
  5
7D80
  8
1
 10
273.01625944875582
 20
48.761752780229131
 30
0.0
 11
273.01625944875582
 21
143.7617527802291
 31
0.0
  0
ARC
  5
7D81
  8
0
 10
278.57300113409792
 20
64.747904683838044
 30
0.0
 40
5.2500000000000151
 50
280.0000000000021
 51
99.999999999998934
  0
ARC
  5
7D82
  8
0
 10
273.01625944875587
 20
96.261752780228676
 30
0.0
 40
37.25
 50
259.99999999999852
 51
280.0000000000021
  0
ARC
  5
7D83
  8
0
 10
267.45951776341428
 20
64.747904683837973
 30
0.0
 40
5.2500000000000151
 50
80.00000000000172
 51
259.99999999999852
  0
ARC
  5
7D84
  8
0
 10
273.01625944875587
 20
96.261752780228676
 30
0.0
 40
26.750000000000021
 50
259.99999999999852
 51
280.0000000000021
  0
ARC
  5
7D85
  8
1
 10
273.01625944875587
 20
96.26175278022879
 30
0.0
 40
32.0
 50
245.18721346291369
 51
294.81278653708699
  0
ARC
  5
7D86
  8
1
 10
273.01625944875587
 20
96.26175278022879
 30
0.0
 40
32.0
 50
65.187213462913334
 51
114.81278653708659
  0
ARC
  5
7D87
  8
0
 10
273.01625944875587
 20
96.261752780228903
 30
0.0
 40
26.750000000000021
 50
79.999999999998195
 51
100.0000000000018
  0
ARC
  5
7D88
  8
0
 10
267.45951776341423
 20
127.77560087661961
 30
0.0
 40
5.2500000000000151
 50
100.0000000000018
 51
279.99999999999858
  0
ARC
  5
7D89
  8
0
 10
273.01625944875587
 20
96.261752780228903
 30
0.0
 40
37.25
 50
79.999999999998195
 51
100.0000000000018
  0
ARC
  5
7D8A
  8
0
 10
278.57300113409769
 20
127.77560087661961
 30
0.0
 40
5.2500000000000151
 50
260.00000000000142
 51
79.999999999998195
  0
LINE
  5
7D8B
  8
1
 10
236.0162594487559
 20
104.46175278022881
 30
0.0
 11
236.0162594487559
 21
88.061752780228801
 31
0.0
  0
LINE
  5
7D8C
  8
0
 10
236.01625897191869
 20
101.46175279438491
 30
0.0
 11
234.82899405263771
 21
101.46175279438491
 31
0.0
  0
ARC
  5
7D8D
  8
0
 10
236.0162594487559
 20
96.26175278022879
 30
0.0
 40
5.1999999999999877
 50
270.0000000000008
 51
90.0
  0
LINE
  5
7D8E
  8
0
 10
234.82899405263771
 20
91.061752766072686
 30
0.0
 11
236.01625897191869
 21
91.061752766072686
 31
0.0
  0
LINE
  5
7D8F
  8
1
 10
228.01625944875579
 20
84.761752318292679
 30
0.0
 11
228.0162594487559
 21
107.7617532421648
 31
0.0
  0
ARC
  5
7D90
  8
0
 10
105.3907844673397
 20
279.72810521118259
 30
0.0
 40
12.275506638416489
 50
69.743841999607298
 51
110.2561580003927
  0
LINE
  5
7D91
  8
0
 10
109.6407844673398
 20
292.00361184959911
 30
0.0
 11
109.3907844673387
 21
292.14794941689712
 31
0.0
  0
LINE
  5
7D92
  8
0
 10
109.6407844673398
 20
286.2922869841945
 30
0.0
 11
109.3907844673387
 21
286.14794941689649
 31
0.0
  0
ARC
  5
7D93
  8
0
 10
105.3907844673397
 20
298.56779362261102
 30
0.0
 40
12.275506638416489
 50
249.74384199960721
 51
290.2561580003927
  0
LINE
  5
7D94
  8
0
 10
109.6407844673398
 20
292.00361184959911
 30
0.0
 11
109.6407844673397
 21
286.2922869841945
 31
0.0
  0
LINE
  5
7D95
  8
0
 10
101.1407844673397
 20
291.24442247104469
 30
0.0
 11
101.1407844673397
 21
287.05147636274859
 31
0.0
  0
LINE
  5
7D96
  8
0
 10
92.640784467339699
 20
292.00361184959911
 30
0.0
 11
92.640784467339756
 21
286.2922869841945
 31
0.0
  0
LINE
  5
7D97
  8
0
 10
92.640784467339699
 20
286.2922869841945
 30
0.0
 11
92.890784467340794
 21
286.14794941689649
 31
0.0
  0
ARC
  5
7D98
  8
0
 10
96.890784467339756
 20
298.56779362261102
 30
0.0
 40
12.275506638416489
 50
249.74384199960721
 51
290.2561580003927
  0
LINE
  5
7D99
  8
0
 10
92.640784467339699
 20
292.00361184959911
 30
0.0
 11
92.890784467340794
 21
292.14794941689712
 31
0.0
  0
ARC
  5
7D9A
  8
0
 10
96.890784467339756
 20
279.72810521118259
 30
0.0
 40
12.275506638416489
 50
69.743841999607298
 51
110.2561580003927
  0
LINE
  5
7D9B
  8
0
 10
109.39078446733861
 20
292.14794941689712
 30
0.0
 11
92.890784467340794
 21
292.14794941689712
 31
0.0
  0
ARC
  5
7D9D
  8
0
 10
93.779568535171848
 20
259.65870957119449
 30
0.0
 40
4.3448986723233833
 50
55.615752531994502
 51
115.6157525321087
  0
ARC
  5
7D9E
  8
0
 10
101.140784467339
 20
247.76279762205129
 30
0.0
 40
16.24081062146659
 50
72.412046226029133
 51
107.5879537739708
  0
LINE
  5
7D9F
  8
0
 10
91.325829891116015
 20
263.2444188649639
 30
0.0
 11
92.890784467339586
 21
264.14794581081611
 31
0.0
  0
LINE
  5
7DA0
  8
0
 10
91.325829891116015
 20
259.05147275666792
 30
0.0
 11
92.890784467339586
 21
258.14794581081571
 31
0.0
  0
ARC
  5
7DA1
  8
0
 10
93.779568535171848
 20
262.63718205043739
 30
0.0
 40
4.3448986723233833
 50
244.3842474678913
 51
304.38424746800553
  0
ARC
  5
7DA2
  8
0
 10
101.140784467339
 20
274.53309399958061
 30
0.0
 40
16.24081062146659
 50
252.41204622602919
 51
287.58795377397081
  0
LINE
  5
7DA3
  8
0
 10
91.325829891116015
 20
263.2444188649639
 30
0.0
 11
91.325829891116015
 21
259.05147275666798
 31
0.0
  0
LINE
  5
7DA4
  8
0
 10
96.23330717922677
 20
263.2444188649639
 30
0.0
 11
96.233307179227396
 21
259.05147275666769
 31
0.0
  0
LINE
  5
7DA5
  8
0
 10
106.0482617554524
 20
263.2444188649639
 30
0.0
 11
106.0482617554518
 21
259.05147275666769
 31
0.0
  0
LINE
  5
7DA6
  8
0
 10
110.9557390435631
 20
263.2444188649639
 30
0.0
 11
110.9557390435631
 21
259.05147275666798
 31
0.0
  0
ARC
  5
7DA7
  8
0
 10
108.5020003995073
 20
262.63718205043739
 30
0.0
 40
4.3448986723233833
 50
235.6157525319945
 51
295.61575253210867
  0
LINE
  5
7DA8
  8
0
 10
110.9557390435631
 20
259.05147275666792
 30
0.0
 11
109.3907844673396
 21
258.14794581081571
 31
0.0
  0
LINE
  5
7DA9
  8
0
 10
110.9557390435631
 20
263.2444188649639
 30
0.0
 11
109.3907844673396
 21
264.14794581081611
 31
0.0
  0
ARC
  5
7DAA
  8
0
 10
108.5020003995073
 20
259.65870957119449
 30
0.0
 40
4.3448986723233833
 50
64.384247467891299
 51
124.3842474680055
  0
LINE
  5
7DAB
  8
0
 10
92.890784467339586
 20
264.14794581081611
 30
0.0
 11
109.3907844673398
 21
264.14794581081588
 31
0.0
  0
LINE
  5
7DAC
  8
0
 10
109.3907844673399
 20
258.14794581081588
 30
0.0
 11
92.890784467339245
 21
258.14794581081588
 31
0.0
  0
LINE
  5
7DED
  8
0
 10
520.81802830113975
 20
204.14794715192059
 30
0.0
 11
435.81802830113969
 21
204.14794715192059
 31
0.0
  0
LINE
  5
7DEE
  8
0
 10
520.81802830113975
 20
218.34794715192061
 30
0.0
 11
520.81802830113975
 21
204.14794715192059
 31
0.0
  0
LINE
  5
7DEF
  8
0
 10
435.81802830113969
 20
218.34794715192061
 30
0.0
 11
435.81802830113969
 21
204.14794715192059
 31
0.0
  0
LINE
  5
7DF0
  8
0
 10
436.6180264951189
 20
219.14794681664441
 30
0.0
 11
520.01876072292134
 21
219.14794681664441
 31
0.0
  0
ARC
  5
7DF1
  8
0
 10
520.01802830113968
 20
218.34794715192061
 30
0.0
 40
0.7999999999999972
 50
0.0
 51
90.0
  0
ARC
  5
7DF2
  8
0
 10
436.6180283011397
 20
218.34794715192061
 30
0.0
 40
0.7999999999999972
 50
90.0
 51
180.0
  0
LINE
  5
7DF3
  8
1
 10
478.31802830113969
 20
308.77496885266862
 30
0.0
 11
478.31802830113969
 21
199.1479471519205
 31
0.0
  0
LINE
  5
7DF4
  8
1
 10
510.31802830113929
 20
222.14794681664441
 30
0.0
 11
510.31802830113929
 21
201.1479471519205
 31
0.0
  0
LINE
  5
7DF5
  8
1
 10
446.31802830113998
 20
222.14794681664441
 30
0.0
 11
446.31802830113998
 21
201.1479471519205
 31
0.0
  0
LINE
  5
7DF8
  8
0
 10
419.2746124073384
 20
313.25795079018809
 30
0.0
 11
420.37127142969268
 21
313.2595245841955
 31
0.0
  0
LINE
  5
7DF9
  8
0
 10
474.78047221350892
 20
298.09857380230312
 30
0.0
 11
474.9350187090684
 21
296.75795235421401
 31
0.0
  0
LINE
  5
7DFA
  8
0
 10
474.45773987048062
 20
299.78080007856607
 30
0.0
 11
474.78047221350892
 21
298.09857380230312
 31
0.0
  0
LINE
  5
7DFB
  8
0
 10
474.05248907294128
 20
300.70107791819902
 30
0.0
 11
474.45773987048062
 21
299.78080007856607
 31
0.0
  0
LINE
  5
7DFC
  8
0
 10
473.11491766255239
 20
302.31196431732161
 30
0.0
 11
474.05248907294128
 21
300.70107791819902
 31
0.0
  0
LINE
  5
7DFD
  8
0
 10
471.47416511298081
 20
303.16134201521652
 30
0.0
 11
473.11491766255239
 21
302.31196431732161
 31
0.0
  0
LINE
  5
7DFE
  8
0
 10
469.07163729827892
 20
303.68854161135118
 30
0.0
 11
471.47416511298081
 21
303.16134201521652
 31
0.0
  0
LINE
  5
7DFF
  8
0
 10
468.21651451597529
 20
303.75212840777669
 30
0.0
 11
469.06619129558902
 21
303.6935511315034
 31
0.0
  0
LINE
  5
7E00
  8
0
 10
421.27913402309622
 20
313.27521928835893
 30
0.0
 11
420.37127142969399
 21
313.2595245841955
 31
0.0
  0
LINE
  5
7E01
  8
0
 10
423.12990507426468
 20
313.32390662774998
 30
0.0
 11
421.27913402309622
 21
313.27521928835893
 31
0.0
  0
LINE
  5
7E02
  8
0
 10
426.24699623999749
 20
313.0804678759572
 30
0.0
 11
423.12990507426468
 21
313.32390662774998
 31
0.0
  0
LINE
  5
7E03
  8
0
 10
429.26667604808438
 20
312.59359448204827
 30
0.0
 11
426.24699623999749
 21
313.0804678759572
 31
0.0
  0
LINE
  5
7E04
  8
0
 10
432.48117512960852
 20
312.10671903330081
 30
0.0
 11
429.26667604808438
 21
312.59359448204827
 31
0.0
  0
LINE
  5
7E05
  8
0
 10
435.45215270072651
 20
311.37640894243788
 30
0.0
 11
432.48117512960852
 21
312.10671903330081
 31
0.0
  0
LINE
  5
7E06
  8
0
 10
438.03349172496888
 20
310.64609679673617
 30
0.0
 11
435.45215270072651
 21
311.37640894243788
 31
0.0
  0
LINE
  5
7E07
  8
0
 10
440.51742283341957
 20
309.81840997225282
 30
0.0
 11
438.03349172496888
 21
310.64609679673617
 31
0.0
  0
LINE
  5
7E08
  8
0
 10
443.05005962069322
 20
308.74728645081478
 30
0.0
 11
440.51742283341957
 21
309.81840997225282
 31
0.0
  0
LINE
  5
7E09
  8
0
 10
445.04694426647671
 20
307.77353760815851
 30
0.0
 11
443.05005962069322
 21
308.74728645081478
 31
0.0
  0
LINE
  5
7E0A
  8
0
 10
446.60549157027037
 20
307.04322546245692
 30
0.0
 11
445.04694426647671
 21
307.77353760815851
 31
0.0
  0
LINE
  5
7E0B
  8
0
 10
448.00744812949478
 20
306.27696313645578
 30
0.0
 11
446.60549157027037
 21
307.04322546245692
 31
0.0
  0
LINE
  5
7E0C
  8
0
 10
458.3775876679685
 20
296.76775628101831
 30
0.0
 11
458.29064429375268
 21
295.40158045370032
 31
0.0
  0
LINE
  5
7E0D
  8
0
 10
458.29064429375268
 20
295.40158045370032
 30
0.0
 11
458.01682805941408
 21
294.08677060284879
 31
0.0
  0
LINE
  5
7E0E
  8
0
 10
458.01682805941408
 20
294.08677060284879
 30
0.0
 11
457.56666287846861
 21
292.87385330852061
 31
0.0
  0
LINE
  5
7E0F
  8
0
 10
457.56666287846861
 20
292.87385330852061
 30
0.0
 11
456.95744832130049
 21
291.80943186599637
 31
0.0
  0
LINE
  5
7E10
  8
0
 10
456.95744832130049
 20
291.80943186599637
 30
0.0
 11
456.21259585821878
 21
290.93442395039727
 31
0.0
  0
LINE
  5
7E11
  8
0
 10
455.36073134094607
 20
290.28245434920461
 30
0.0
 11
454.43459063757609
 21
289.87857428995818
 31
0.0
  0
LINE
  5
7E12
  8
0
 10
456.21259585821878
 20
290.93442395039727
 30
0.0
 11
455.36073134094607
 21
290.28245434920461
 31
0.0
  0
LINE
  5
7E13
  8
0
 10
454.43459063757609
 20
289.87857428995818
 30
0.0
 11
453.46976434388642
 21
289.73830024664181
 31
0.0
  0
LINE
  5
7E14
  8
0
 10
451.12652549285298
 20
290.49854501115999
 30
0.0
 11
451.45724664218898
 21
290.28908996639581
 31
0.0
  0
LINE
  5
7E15
  8
0
 10
453.46976434388642
 20
289.73830024664181
 30
0.0
 11
453.25114414465958
 21
289.74382596171608
 31
0.0
  0
LINE
  5
7E16
  8
0
 10
451.45724664218898
 20
290.28908996639581
 30
0.0
 11
451.60667419706249
 21
290.17559840566503
 31
0.0
  0
LINE
  5
7E17
  8
0
 10
451.60667419706249
 20
290.17559840566503
 30
0.0
 11
452.13424082789061
 21
289.97285910829032
 31
0.0
  0
LINE
  5
7E18
  8
0
 10
452.13424082789061
 20
289.97285910829032
 30
0.0
 11
452.71846661716182
 21
289.86196613060349
 31
0.0
  0
LINE
  5
7E19
  8
0
 10
452.71846661716182
 20
289.86196613060349
 30
0.0
 11
453.25114414465958
 21
289.74382596171608
 31
0.0
  0
LINE
  5
7E1A
  8
0
 10
452.67732508084657
 20
303.6297978931737
 30
0.0
 11
453.20928704007451
 21
303.75111945655078
 31
0.0
  0
LINE
  5
7E1B
  8
0
 10
452.0937724681886
 20
303.51541531753429
 30
0.0
 11
452.67732508084657
 21
303.6297978931737
 31
0.0
  0
LINE
  5
7E1C
  8
0
 10
451.56742691423432
 20
303.30952668138423
 30
0.0
 11
452.0937724681886
 21
303.51541531753429
 31
0.0
  0
LINE
  5
7E1D
  8
0
 10
451.4186803011545
 20
303.19514410574482
 30
0.0
 11
451.56742691423432
 21
303.30952668138423
 31
0.0
  0
LINE
  5
7E1E
  8
0
 10
451.08921684936121
 20
302.98371627331068
 30
0.0
 11
451.4186803011545
 21
303.19514410574482
 31
0.0
  0
LINE
  5
7E1F
  8
0
 10
452.5086307154495
 20
302.7579496124003
 30
0.0
 11
451.25983891921248
 21
302.7579496124003
 31
0.0
  0
LINE
  5
7E20
  8
0
 10
452.5086307154495
 20
290.75794764544702
 30
0.0
 11
451.24147322042768
 21
290.75794764544702
 31
0.0
  0
LINE
  5
7E22
  8
0
 10
493.31802830113958
 20
302.25794859912128
 30
0.0
 11
493.31802863641582
 21
290.55795079018799
 31
0.0
  0
LINE
  5
7E23
  8
0
 10
453.32274634404962
 20
290.86945303466058
 30
0.0
 11
452.5086307154495
 21
290.75794764544702
 31
0.0
  0
LINE
  5
7E24
  8
0
 10
454.14424736066638
 20
291.22174628760553
 30
0.0
 11
453.32274634404962
 21
290.86945303466058
 31
0.0
  0
LINE
  5
7E25
  8
0
 10
454.89878628416841
 20
291.80070110347009
 30
0.0
 11
454.14424736066638
 21
291.22174628760553
 31
0.0
  0
LINE
  5
7E26
  8
0
 10
455.55547300740068
 20
292.58260228421432
 30
0.0
 11
454.89878628416841
 21
291.80070110347009
 31
0.0
  0
LINE
  5
7E27
  8
0
 10
456.0874202476341
 20
293.53544958617431
 30
0.0
 11
455.55547300740068
 21
292.58260228421432
 31
0.0
  0
LINE
  5
7E28
  8
0
 10
456.47285182042901
 20
294.62021686818338
 30
0.0
 11
456.0874202476341
 21
293.53544958617431
 31
0.0
  0
LINE
  5
7E29
  8
0
 10
456.69598739608108
 20
295.79250612046462
 30
0.0
 11
456.47285182042901
 21
294.62021686818338
 31
0.0
  0
LINE
  5
7E2A
  8
0
 10
456.74769442542379
 20
297.00432070281238
 30
0.0
 11
456.69598739608108
 21
295.79250612046462
 31
0.0
  0
LINE
  5
7E2B
  8
0
 10
456.62585135563199
 20
298.20605464961272
 30
0.0
 11
456.74769442542379
 21
297.00432070281238
 31
0.0
  0
LINE
  5
7E2C
  8
0
 10
456.33545007570569
 20
299.34849687602258
 30
0.0
 11
456.62585135563199
 21
298.20605464961272
 31
0.0
  0
LINE
  5
7E2D
  8
0
 10
455.88837612434207
 20
300.38488008763528
 30
0.0
 11
456.33545007570569
 21
299.34849687602258
 31
0.0
  0
LINE
  5
7E2E
  8
0
 10
455.30293744071309
 20
301.27278067853189
 30
0.0
 11
455.88837612434207
 21
300.38488008763528
 31
0.0
  0
LINE
  5
7E2F
  8
0
 10
454.60309881730859
 20
301.97584726598001
 30
0.0
 11
455.30293744071309
 21
301.27278067853189
 31
0.0
  0
LINE
  5
7E30
  8
0
 10
453.81751146181409
 20
302.46528335597247
 30
0.0
 11
454.60309881730859
 21
301.97584726598001
 31
0.0
  0
LINE
  5
7E31
  8
0
 10
452.97833953066652
 20
302.72106923844552
 30
0.0
 11
453.81751146181409
 21
302.46528335597247
 31
0.0
  0
LINE
  5
7E32
  8
0
 10
452.5086307154495
 20
302.7579496124003
 30
0.0
 11
452.97833953066652
 21
302.72106923844552
 31
0.0
  0
LINE
  5
7E33
  8
0
 10
448.7908021734554
 20
305.75764276768899
 30
0.0
 11
448.00744812949478
 21
306.27696313645578
 31
0.0
  0
LINE
  5
7E34
  8
0
 10
449.74370349212472
 20
304.88118626858932
 30
0.0
 11
448.7908021734554
 21
305.75764276768899
 31
0.0
  0
LINE
  5
7E35
  8
0
 10
450.58792132898162
 20
303.80471148278451
 30
0.0
 11
449.74370349212472
 21
304.88118626858932
 31
0.0
  0
LINE
  5
7E36
  8
0
 10
451.30266856416051
 20
302.55471267487741
 30
0.0
 11
450.58792132898162
 21
303.80471148278451
 31
0.0
  0
LINE
  5
7E37
  8
0
 10
451.87034878893678
 20
301.16198309447498
 30
0.0
 11
451.30266856416051
 21
302.55471267487741
 31
0.0
  0
LINE
  5
7E38
  8
0
 10
452.27698098882018
 20
299.66081776406497
 30
0.0
 11
451.87034878893678
 21
301.16198309447498
 31
0.0
  0
LINE
  5
7E39
  8
0
 10
452.51255530877887
 20
298.08816411282749
 30
0.0
 11
452.27698098882018
 21
299.66081776406497
 31
0.0
  0
LINE
  5
7E3A
  8
0
 10
452.57126774652778
 20
296.48276515986657
 30
0.0
 11
452.51255530877887
 21
298.08816411282749
 31
0.0
  0
LINE
  5
7E3B
  8
0
 10
452.45167475207631
 20
294.88413878466821
 30
0.0
 11
452.57126774652778
 21
296.48276515986657
 31
0.0
  0
LINE
  5
7E3C
  8
0
 10
452.15672116740529
 20
293.331646404526
 30
0.0
 11
452.45167475207631
 21
294.88413878466821
 31
0.0
  0
LINE
  5
7E3D
  8
0
 10
451.69366758330648
 20
291.86353184964389
 30
0.0
 11
452.15672116740529
 21
293.331646404526
 31
0.0
  0
LINE
  5
7E3E
  8
0
 10
451.07391897602861
 20
290.51592298533649
 30
0.0
 11
451.69366758330648
 21
291.86353184964389
 31
0.0
  0
LINE
  5
7E3F
  8
0
 10
450.31273413463418
 20
289.32201959874368
 30
0.0
 11
451.07391897602861
 21
290.51592298533649
 31
0.0
  0
LINE
  5
7E40
  8
0
 10
449.42885499461482
 20
288.31121423032022
 30
0.0
 11
450.31273413463418
 21
289.32201959874368
 31
0.0
  0
LINE
  5
7E41
  8
0
 10
454.39351771040742
 20
303.62344630744201
 30
0.0
 11
453.42787031098192
 21
303.75795163895822
 31
0.0
  0
LINE
  5
7E42
  8
0
 10
455.3220556305248
 20
303.22510846640802
 30
0.0
 11
454.39351771040742
 21
303.62344630744201
 31
0.0
  0
LINE
  5
7E43
  8
0
 10
456.17780137821018
 20
302.57824160840249
 30
0.0
 11
455.3220556305248
 21
303.22510846640802
 31
0.0
  0
LINE
  5
7E44
  8
0
 10
456.9278699533541
 20
301.70770087029672
 30
0.0
 11
456.17780137821018
 21
302.57824160840249
 31
0.0
  0
LINE
  5
7E45
  8
0
 10
457.5434350596268
 20
300.64693935897088
 30
0.0
 11
456.9278699533541
 21
301.70770087029672
 31
0.0
  0
LINE
  5
7E46
  8
0
 10
458.00084110363309
 20
299.43673410203189
 30
0.0
 11
457.5434350596268
 21
300.64693935897088
 31
0.0
  0
LINE
  5
7E47
  8
0
 10
458.2825103030998
 20
298.12358417298532
 30
0.0
 11
458.00084110363309
 21
299.43673410203189
 31
0.0
  0
LINE
  5
7E48
  8
0
 10
458.37761696441947
 20
296.75795235421401
 30
0.0
 11
458.2825103030998
 21
298.12358417298532
 31
0.0
  0
LINE
  5
7E4B
  8
0
 10
491.81802863641582
 20
303.75795079018809
 30
0.0
 11
453.42787031098192
 21
303.75795163895822
 31
0.0
  0
ARC
  5
7E4C
  8
0
 10
464.11802863641572
 20
288.95795079018808
 30
0.0
 40
0.8000000000000113
 50
90.0
 51
180.0
  0
ARC
  5
7E51
  8
0
 10
464.11802863641572
 20
288.95795079018808
 30
0.0
 40
0.8000000000000113
 50
90.0
 51
180.0
  0
ARC
  5
7E52
  8
0
 10
492.51802863641569
 20
288.95795079018808
 30
0.0
 40
0.8000000000000113
 50
0.000000000000007
 51
90.0
  0
ARC
  5
7E53
  8
0
 10
491.81802863641582
 20
302.25795079018809
 30
0.0
 40
1.5
 50
0.000000000000007
 51
90.0
  0
ARC
  5
7E54
  8
0
 10
492.51802863641569
 20
290.55795079018799
 30
0.0
 40
0.799999999999983
 50
269.9999999999992
 51
0.000000000000007
  0
LINE
  5
7E55
  8
0
 10
474.9350187090684
 20
289.75795306946969
 30
0.0
 11
474.9350187090684
 21
296.75795235421401
 31
0.0
  0
LINE
  5
7E59
  8
0
 10
492.51802863641569
 20
289.75795079018809
 30
0.0
 11
453.60494526421809
 21
289.75795391321179
 31
0.0
  0
LINE
  5
7E5D
  8
0
 10
453.42787031098192
 20
303.75795163895822
 30
0.0
 11
453.20928704007451
 21
303.75111945655078
 31
0.0
  0
ARC
  5
7E5E
  8
0
 10
464.11802863641572
 20
288.95795079018808
 30
0.0
 40
0.8000000000000113
 50
90.0
 51
179.9999999999998
  0
ARC
  5
7E5F
  8
0
 10
492.51802863641569
 20
288.95795079018808
 30
0.0
 40
0.8000000000000113
 50
0.0000000000001342
 51
90.0
  0
LINE
  5
7E62
  8
0
 10
446.05172132202881
 20
286.14876218129882
 30
0.0
 11
445.04694426647671
 21
285.74236710026941
 31
0.0
  0
LINE
  5
7E63
  8
0
 10
446.99023580046941
 20
286.59551485681442
 30
0.0
 11
446.05172132202881
 21
286.14876218129882
 31
0.0
  0
LINE
  5
7E64
  8
0
 10
448.14291551723068
 20
287.31957175519199
 30
0.0
 11
446.99023580046941
 21
286.59551485681442
 31
0.0
  0
LINE
  5
7E65
  8
0
 10
421.25165081728721
 20
280.16597709322002
 30
0.0
 11
418.61702945461559
 21
280.27105949254531
 31
0.0
  0
LINE
  5
7E66
  8
0
 10
423.12990507426468
 20
280.19199808067788
 30
0.0
 11
421.25165081728721
 21
280.16597709322002
 31
0.0
  0
LINE
  5
7E67
  8
0
 10
432.48117512960852
 20
281.40918567512711
 30
0.0
 11
429.26667604808438
 21
280.92231022637958
 31
0.0
  0
LINE
  5
7E68
  8
0
 10
429.26667604808438
 20
280.92231022637958
 30
0.0
 11
426.24699623999749
 21
280.43543683247071
 31
0.0
  0
LINE
  5
7E69
  8
0
 10
426.24699623999749
 20
280.43543683247071
 30
0.0
 11
423.12990507426468
 21
280.19199808067788
 31
0.0
  0
LINE
  5
7E6A
  8
0
 10
445.04694426647671
 20
285.74236710026941
 30
0.0
 11
443.05005962069322
 21
284.76861825761313
 31
0.0
  0
LINE
  5
7E6B
  8
0
 10
443.05005962069322
 20
284.76861825761313
 30
0.0
 11
440.51742283341957
 21
283.69749473617509
 31
0.0
  0
LINE
  5
7E6C
  8
0
 10
440.51742283341957
 20
283.69749473617509
 30
0.0
 11
438.03349172496888
 21
282.86980791169168
 31
0.0
  0
LINE
  5
7E6D
  8
0
 10
438.03349172496888
 20
282.86980791169168
 30
0.0
 11
435.45215270072651
 21
282.13949576598998
 31
0.0
  0
LINE
  5
7E6E
  8
0
 10
435.45215270072651
 20
282.13949576598998
 30
0.0
 11
432.48117512960852
 21
281.40918567512711
 31
0.0
  0
LINE
  5
7E6F
  8
0
 10
432.4811706200029
 20
281.40918844676941
 30
0.0
 11
429.26667139543059
 21
280.92231394247068
 31
0.0
  0
LINE
  5
7E70
  8
0
 10
429.26667139543059
 20
280.92231394247068
 30
0.0
 11
426.24699144429599
 21
280.435441435771
 31
0.0
  0
LINE
  5
7E71
  8
0
 10
448.44404656453912
 20
287.50839181925988
 30
0.0
 11
449.42885499461482
 21
288.31121423032022
 31
0.0
  0
LINE
  5
7E72
  8
0
 10
448.27483642860238
 20
287.39820518281198
 30
0.0
 11
448.44404656453912
 21
287.50839181925988
 31
0.0
  0
LINE
  5
7E73
  8
0
 10
448.01099460585903
 20
287.24093832757211
 30
0.0
 11
448.27483642860238
 21
287.39820518281198
 31
0.0
  0
ARC
  5
7E74
  8
0
 10
419.2746124073384
 20
296.75795079018798
 30
0.0
 40
16.50000000000005
 50
90.0
 51
213.7253840219374
  0
ARC
  5
7E75
  8
0
 10
419.2746124073384
 20
296.75795079018798
 30
0.0
 40
16.499999999999972
 50
213.7253840219374
 51
269.9999999999992
  0
ARC
  5
7E77
  8
0
 10
220.6550435910938
 20
287.6587104354619
 30
0.0
 40
4.3448986723233833
 50
55.615752531993827
 51
115.6157525321087
  0
ARC
  5
7E78
  8
0
 10
228.016259523261
 20
275.76279848631867
 30
0.0
 40
16.24081062146659
 50
72.412046226029133
 51
107.5879537739708
  0
LINE
  5
7E79
  8
0
 10
218.20130494703801
 20
291.24441972923131
 30
0.0
 11
219.76625952326151
 21
292.14794667508352
 31
0.0
  0
LINE
  5
7E7A
  8
0
 10
218.20130494703801
 20
287.05147362093533
 30
0.0
 11
219.76625952326151
 21
286.14794667508301
 31
0.0
  0
ARC
  5
7E7B
  8
0
 10
220.6550435910938
 20
290.63718291470468
 30
0.0
 40
4.3448986723233833
 50
244.3842474678913
 51
304.38424746800621
  0
ARC
  5
7E7C
  8
0
 10
228.016259523261
 20
302.53309486384791
 30
0.0
 40
16.24081062146659
 50
252.41204622602919
 51
287.58795377397081
  0
LINE
  5
7E7D
  8
0
 10
218.20130494703801
 20
291.2444197292312
 30
0.0
 11
218.20130494703801
 21
287.05147362093533
 31
0.0
  0
LINE
  5
7E7E
  8
0
 10
223.10878223514871
 20
291.24441972923131
 30
0.0
 11
223.10878223514931
 21
287.0514736209351
 31
0.0
  0
LINE
  5
7E7F
  8
0
 10
232.92373681137431
 20
291.24441972923131
 30
0.0
 11
232.92373681137369
 21
287.0514736209351
 31
0.0
  0
LINE
  5
7E80
  8
0
 10
237.83121409948509
 20
291.2444197292312
 30
0.0
 11
237.83121409948509
 21
287.05147362093533
 31
0.0
  0
ARC
  5
7E81
  8
0
 10
235.37747545542919
 20
290.63718291470468
 30
0.0
 40
4.3448986723233833
 50
235.61575253199379
 51
295.61575253210867
  0
LINE
  5
7E82
  8
0
 10
237.83121409948509
 20
287.05147362093533
 30
0.0
 11
236.26625952326151
 21
286.14794667508301
 31
0.0
  0
LINE
  5
7E83
  8
0
 10
237.83121409948509
 20
291.24441972923131
 30
0.0
 11
236.26625952326151
 21
292.14794667508352
 31
0.0
  0
ARC
  5
7E84
  8
0
 10
235.37747545542919
 20
287.6587104354619
 30
0.0
 40
4.3448986723233833
 50
64.384247467891299
 51
124.38424746800619
  0
LINE
  5
7E85
  8
0
 10
219.76625952326151
 20
292.14794667508352
 30
0.0
 11
236.26625952326179
 21
292.14794667508329
 31
0.0
  0
LINE
  5
7E86
  8
0
 10
236.26625952326191
 20
286.14794667508329
 30
0.0
 11
219.7662595232612
 21
286.14794667508329
 31
0.0
  0
ARC
  5
7E87
  8
0
 10
232.2662576606165
 20
251.7281016051015
 30
0.0
 40
12.275506638416489
 50
69.743841999607298
 51
110.2561580003927
  0
LINE
  5
7E88
  8
0
 10
236.51625766061659
 20
264.00360824351799
 30
0.0
 11
236.26625766061551
 21
264.14794581081611
 31
0.0
  0
LINE
  5
7E89
  8
0
 10
236.51625766061659
 20
258.29228337811338
 30
0.0
 11
236.26625766061551
 21
258.14794581081537
 31
0.0
  0
ARC
  5
7E8A
  8
0
 10
232.2662576606165
 20
270.5677900165299
 30
0.0
 40
12.275506638416489
 50
249.74384199960721
 51
290.2561580003927
  0
LINE
  5
7E8B
  8
0
 10
236.51625766061659
 20
264.00360824351799
 30
0.0
 11
236.5162576606165
 21
258.29228337811338
 31
0.0
  0
LINE
  5
7E8C
  8
0
 10
228.0162576606165
 20
263.24441886496368
 30
0.0
 11
228.0162576606165
 21
259.05147275666752
 31
0.0
  0
LINE
  5
7E8D
  8
0
 10
219.5162576606165
 20
264.00360824351799
 30
0.0
 11
219.5162576606165
 21
258.29228337811338
 31
0.0
  0
LINE
  5
7E8E
  8
0
 10
219.5162576606165
 20
258.29228337811338
 30
0.0
 11
219.7662576606175
 21
258.14794581081537
 31
0.0
  0
ARC
  5
7E8F
  8
0
 10
223.7662576606165
 20
270.5677900165299
 30
0.0
 40
12.275506638416489
 50
249.74384199960721
 51
290.2561580003927
  0
LINE
  5
7E90
  8
0
 10
219.5162576606165
 20
264.00360824351799
 30
0.0
 11
219.7662576606175
 21
264.14794581081611
 31
0.0
  0
ARC
  5
7E91
  8
0
 10
223.7662576606165
 20
251.7281016051015
 30
0.0
 40
12.275506638416489
 50
69.743841999607298
 51
110.2561580003927
  0
LINE
  5
7E93
  8
0
 10
219.7662576606165
 20
258.14794581081611
 30
0.0
 11
236.2662576606165
 21
258.14794581081611
 31
0.0
  0
LINE
  5
7E94
  8
0
 10
292.21626036070688
 20
204.14794715192059
 30
0.0
 11
293.01625900172098
 21
204.94794713171089
 31
0.0
  0
LINE
  5
7E95
  8
0
 10
253.8162585368047
 20
204.14794715192059
 30
0.0
 11
253.0162598957906
 21
204.94794713171089
 31
0.0
  0
LINE
  5
7E96
  8
0
 10
253.8162585368047
 20
222.14794637706021
 30
0.0
 11
253.0162598957906
 21
221.34794773604611
 31
0.0
  0
LINE
  5
7E97
  8
0
 10
253.0162598957906
 20
221.34794773604611
 30
0.0
 11
253.0162598957906
 21
204.94794713171089
 31
0.0
  0
LINE
  5
7E9B
  8
0
 10
253.0162598957906
 20
219.14794681664441
 30
0.0
 11
293.01625900172098
 21
219.14794681664441
 31
0.0
  0
ARC
  5
7E9F
  8
0
 10
695.22419588817115
 20
287.65871043546161
 30
0.0
 40
4.3448986723233833
 50
64.384247467891299
 51
124.38424746800619
  0
ARC
  5
7EA0
  8
0
 10
687.86297995600387
 20
275.76279848631827
 30
0.0
 40
16.24081062146659
 50
72.412046226029133
 51
107.5879537739708
  0
LINE
  5
7EA1
  8
0
 10
697.67793453222703
 20
291.24441972923103
 30
0.0
 11
696.11297995600353
 21
292.14794667508318
 31
0.0
  0
LINE
  5
7EA2
  8
0
 10
697.67793453222703
 20
287.05147362093493
 30
0.0
 11
696.11297995600353
 21
286.14794667508272
 31
0.0
  0
ARC
  5
7EA3
  8
0
 10
695.22419588817115
 20
290.6371829147044
 30
0.0
 40
4.3448986723233833
 50
235.61575253199379
 51
295.61575253210867
  0
ARC
  5
7EA4
  8
0
 10
687.86297995600387
 20
302.53309486384762
 30
0.0
 40
16.24081062146659
 50
252.41204622602919
 51
287.58795377397081
  0
LINE
  5
7EA5
  8
0
 10
697.67793453222703
 20
291.24441972923091
 30
0.0
 11
697.67793453222703
 21
287.05147362093498
 31
0.0
  0
LINE
  5
7EA6
  8
0
 10
692.77045724411641
 20
291.24441972923103
 30
0.0
 11
692.77045724411573
 21
287.05147362093481
 31
0.0
  0
LINE
  5
7EA7
  8
0
 10
682.95550266789064
 20
291.24441972923103
 30
0.0
 11
682.95550266789132
 21
287.05147362093481
 31
0.0
  0
LINE
  5
7EA8
  8
0
 10
678.04802537978003
 20
291.24441972923091
 30
0.0
 11
678.04802537978003
 21
287.05147362093498
 31
0.0
  0
ARC
  5
7EA9
  8
0
 10
680.50176402383568
 20
290.6371829147044
 30
0.0
 40
4.3448986723233833
 50
244.3842474678913
 51
304.38424746800621
  0
LINE
  5
7EAA
  8
0
 10
678.04802537978003
 20
287.05147362093493
 30
0.0
 11
679.61297995600353
 21
286.14794667508272
 31
0.0
  0
LINE
  5
7EAB
  8
0
 10
678.04802537978003
 20
291.24441972923103
 30
0.0
 11
679.61297995600353
 21
292.14794667508318
 31
0.0
  0
ARC
  5
7EAC
  8
0
 10
680.50176402383568
 20
287.65871043546161
 30
0.0
 40
4.3448986723233833
 50
55.615752531993827
 51
115.6157525321087
  0
LINE
  5
7EAD
  8
0
 10
696.11297995600353
 20
292.14794667508318
 30
0.0
 11
679.61297995600319
 21
292.14794667508301
 31
0.0
  0
ARC
  5
7EAF
  8
0
 10
683.61298181864845
 20
251.7281016051011
 30
0.0
 40
12.275506638416489
 50
69.743841999604243
 51
110.2561580003957
  0
LINE
  5
7EB0
  8
0
 10
679.36298181864845
 20
264.0036082435177
 30
0.0
 11
679.61298181864947
 21
264.14794581081571
 31
0.0
  0
LINE
  5
7EB1
  8
0
 10
679.36298181864845
 20
258.29228337811298
 30
0.0
 11
679.61298181864947
 21
258.14794581081497
 31
0.0
  0
ARC
  5
7EB2
  8
0
 10
683.61298181864845
 20
270.5677900165295
 30
0.0
 40
12.275506638416489
 50
249.74384199960431
 51
290.25615800039583
  0
LINE
  5
7EB3
  8
0
 10
679.36298181864845
 20
264.0036082435177
 30
0.0
 11
679.36298181864845
 21
258.29228337811298
 31
0.0
  0
LINE
  5
7EB4
  8
0
 10
687.86298181864845
 20
263.24441886496328
 30
0.0
 11
687.86298181864845
 21
259.05147275666712
 31
0.0
  0
LINE
  5
7EB5
  8
0
 10
696.36298181864845
 20
264.0036082435177
 30
0.0
 11
696.36298181864845
 21
258.29228337811298
 31
0.0
  0
LINE
  5
7EB6
  8
0
 10
696.36298181864845
 20
258.29228337811298
 30
0.0
 11
696.11298181864743
 21
258.14794581081497
 31
0.0
  0
ARC
  5
7EB7
  8
0
 10
692.11298181864845
 20
270.5677900165295
 30
0.0
 40
12.275506638416489
 50
249.74384199960431
 51
290.25615800039583
  0
LINE
  5
7EB8
  8
0
 10
696.36298181864845
 20
264.0036082435177
 30
0.0
 11
696.11298181864743
 21
264.14794581081571
 31
0.0
  0
ARC
  5
7EB9
  8
0
 10
692.11298181864845
 20
251.7281016051011
 30
0.0
 40
12.275506638416489
 50
69.743841999604243
 51
110.2561580003957
  0
LINE
  5
7EBA
  8
0
 10
662.86297974318336
 20
264.14794581081549
 30
0.0
 11
697.86297973248588
 21
264.14794581081588
 31
0.0
  0
LINE
  5
7EBB
  8
0
 10
696.11298181864845
 20
258.14794581081571
 30
0.0
 11
679.61298181864845
 21
258.14794581081571
 31
0.0
  0
LINE
  5
7EBE
  8
0
 10
639.71298002641129
 20
283.14795078780389
 30
0.0
 11
639.71298002641129
 21
285.34795077588302
 31
0.0
  0
LINE
  5
7EBF
  8
0
 10
639.71298002641129
 20
283.14795078780389
 30
0.0
 11
646.01298003460693
 21
283.14795078780389
 31
0.0
  0
LINE
  5
7EC0
  8
0
 10
646.01298003460693
 20
283.14795078780389
 30
0.0
 11
646.01298003460693
 21
285.34795077588302
 31
0.0
  0
LINE
  5
7EC1
  8
0
 10
638.91298022124397
 20
286.14794941689712
 30
0.0
 11
639.71298002641129
 21
285.34795077588302
 31
0.0
  0
LINE
  5
7EC2
  8
0
 10
646.81297983977424
 20
286.14794941689712
 30
0.0
 11
646.01298003460693
 21
285.34795077588302
 31
0.0
  0
LINE
  5
7EC3
  8
0
 10
623.66297911855884
 20
286.14794941689809
 30
0.0
 11
638.91298022124397
 21
286.14794941689712
 31
0.0
  0
LINE
  5
7EC4
  8
0
 10
662.86297974318336
 20
264.14794581081549
 30
0.0
 11
662.86298003050911
 21
226.0079471519206
 31
0.0
  0
ARC
  5
7EC6
  8
0
 10
662.06298003050915
 20
226.0079471519206
 30
0.0
 40
0.7999999999999972
 50
270.0000000000008
 51
0.0
  0
LINE
  5
7EC8
  8
0
 10
622.86298047754394
 20
219.14794681664441
 30
0.0
 11
662.86297958347427
 21
219.14794681664441
 31
0.0
  0
LINE
  5
7EC9
  8
0
 10
622.86298047754394
 20
221.347947736046
 30
0.0
 11
622.86298047754394
 21
204.94794713171081
 31
0.0
  0
LINE
  5
7ECA
  8
0
 10
623.66297911855804
 20
222.14794637706009
 30
0.0
 11
622.86298047754394
 21
221.347947736046
 31
0.0
  0
LINE
  5
7ECB
  8
0
 10
623.66297911855804
 20
204.1479471519205
 30
0.0
 11
622.86298047754394
 21
204.94794713171081
 31
0.0
  0
LINE
  5
7ECC
  8
0
 10
662.06298094246017
 20
204.1479471519205
 30
0.0
 11
662.86297958347427
 21
204.94794713171081
 31
0.0
  0
LINE
  5
7ECD
  8
0
 10
656.86298046264278
 20
225.2079463943455
 30
0.0
 11
656.86298046264278
 21
222.14794637706009
 31
0.0
  0
LINE
  5
7ECE
  8
0
 10
628.86297959837543
 20
225.2079463943455
 30
0.0
 11
628.86297959837543
 21
222.14794637706009
 31
0.0
  0
LINE
  5
7ECF
  8
0
 10
662.06298094246017
 20
222.14794637706009
 30
0.0
 11
662.86297958347427
 21
221.347947736046
 31
0.0
  0
LINE
  5
7ED0
  8
0
 10
662.06298003050915
 20
225.20794715192059
 30
0.0
 11
623.66297911855804
 21
225.2079463943455
 31
0.0
  0
ARC
  5
7ED1
  8
0
 10
623.66298003050895
 20
226.0079471519206
 30
0.0
 40
0.7999999999999972
 50
180.0
 51
270.0000000000008
  0
LINE
  5
7ED2
  8
0
 10
623.66297911855804
 20
222.14794637706009
 30
0.0
 11
662.06298094246017
 21
222.14794637706009
 31
0.0
  0
LINE
  5
7ED3
  8
0
 10
662.86297958347427
 20
221.347947736046
 30
0.0
 11
662.86297958347427
 21
204.94794713171081
 31
0.0
  0
LINE
  5
7ED4
  8
0
 10
662.06298094246017
 20
204.1479471519205
 30
0.0
 11
623.66297911855804
 21
204.1479471519205
 31
0.0
  0
LINE
  5
7ED5
  8
0
 10
622.86298047754474
 20
285.34795077588399
 30
0.0
 11
623.66297911855884
 21
286.14794941689809
 31
0.0
  0
LINE
  5
7FAB
  8
0
 10
482.26802811040483
 20
286.14794941689712
 30
0.0
 11
498.3180283011398
 21
286.14794941689712
 31
0.0
  0
TEXT
  5
83A0
  8
0
 62
     3
 10
0.0
 20
0.0
 30
0.0
 40
10.0
  1
QLSWC300R-NP
  7
STANDARD1
  0
ENDSEC
  0
EOF
