  0
SECTION
  2
HEADER
  9
$ACADVER
  1
AC1009
  9
$INSBASE
 10
0.0
 20
0.0
 30
0.0
  9
$EXTMIN
 10
0.0
 20
-2.960436562073669
 30
0.0
  9
$EXTMAX
 10
486.5187152116017728
 20
285.1748156874464826
 30
0.0
  9
$LIMMIN
 10
0.0
 20
0.0
  9
$LIMMAX
 10
420.0
 20
297.0
  9
$ORTHOMODE
 70
     1
  9
$REGENMODE
 70
     1
  9
$FILLMODE
 70
     1
  9
$QTEXTMODE
 70
     0
  9
$MIRRTEXT
 70
     0
  9
$DRAGMODE
 70
     2
  9
$LTSCALE
 40
10.0
  9
$OSMODE
 70
    37
  9
$ATTMODE
 70
     1
  9
$TEXTSIZE
 40
2.5
  9
$TRACEWID
 40
1.0
  9
$TEXTSTYLE
  7
STANDARD
  9
$CLAYER
  8
0
  9
$CELTYPE
  6
BYLAYER
  9
$CECOLOR
 62
   256
  9
$DIMSCALE
 40
1.0
  9
$DIMASZ
 40
2.5
  9
$DIMEXO
 40
0.625
  9
$DIMDLI
 40
3.75
  9
$DIMRND
 40
0.0
  9
$DIMDLE
 40
0.0
  9
$DIMEXE
 40
1.25
  9
$DIMTP
 40
0.0
  9
$DIMTM
 40
0.0
  9
$DIMTXT
 40
2.5
  9
$DIMCEN
 40
2.5
  9
$DIMTSZ
 40
0.0
  9
$DIMTOL
 70
     0
  9
$DIMLIM
 70
     0
  9
$DIMTIH
 70
     0
  9
$DIMTOH
 70
     0
  9
$DIMSE1
 70
     0
  9
$DIMSE2
 70
     0
  9
$DIMTAD
 70
     1
  9
$DIMZIN
 70
     8
  9
$DIMBLK
  1

  9
$DIMASO
 70
     1
  9
$DIMSHO
 70
     1
  9
$DIMPOST
  1

  9
$DIMAPOST
  1

  9
$DIMALT
 70
     0
  9
$DIMALTD
 70
     3
  9
$DIMALTF
 40
0.03937007874016
  9
$DIMLFAC
 40
1.0
  9
$DIMTOFL
 70
     1
  9
$DIMTVP
 40
0.0
  9
$DIMTIX
 70
     0
  9
$DIMSOXD
 70
     0
  9
$DIMSAH
 70
     0
  9
$DIMBLK1
  1

  9
$DIMBLK2
  1

  9
$DIMSTYLE
  2
ISO-25
  9
$DIMCLRD
 70
     0
  9
$DIMCLRE
 70
     0
  9
$DIMCLRT
 70
     0
  9
$DIMTFAC
 40
1.0
  9
$DIMGAP
 40
0.625
  9
$LUNITS
 70
     2
  9
$LUPREC
 70
     4
  9
$SKETCHINC
 40
1.0
  9
$FILLETRAD
 40
0.0
  9
$AUNITS
 70
     0
  9
$AUPREC
 70
     0
  9
$MENU
  1
.
  9
$ELEVATION
 40
0.0
  9
$PELEVATION
 40
0.0
  9
$THICKNESS
 40
0.0
  9
$LIMCHECK
 70
     0
  9
$BLIPMODE
 70
     0
  9
$CHAMFERA
 40
0.0
  9
$CHAMFERB
 40
0.0
  9
$SKPOLY
 70
     0
  9
$TDCREATE
 40
2454083.4444560189731419
  9
$TDUPDATE
 40
2460158.591655092779547
  9
$TDINDWG
 40
0.3236250579
  9
$TDUSRTIMER
 40
0.3236250579
  9
$USRTIMER
 70
     1
  9
$ANGBASE
 50
0.0
  9
$ANGDIR
 70
     0
  9
$PDMODE
 70
     0
  9
$PDSIZE
 40
0.0
  9
$PLINEWID
 40
0.0
  9
$COORDS
 70
     1
  9
$SPLFRAME
 70
     0
  9
$SPLINETYPE
 70
     6
  9
$SPLINESEGS
 70
     8
  9
$ATTDIA
 70
     1
  9
$ATTREQ
 70
     1
  9
$HANDLING
 70
     1
  9
$HANDSEED
  5
4F28
  9
$SURFTAB1
 70
     6
  9
$SURFTAB2
 70
     6
  9
$SURFTYPE
 70
     6
  9
$SURFU
 70
     6
  9
$SURFV
 70
     6
  9
$UCSNAME
  2

  9
$UCSORG
 10
0.0
 20
0.0
 30
0.0
  9
$UCSXDIR
 10
1.0
 20
0.0
 30
0.0
  9
$UCSYDIR
 10
0.0
 20
1.0
 30
0.0
  9
$PUCSNAME
  2

  9
$PUCSORG
 10
0.0
 20
0.0
 30
0.0
  9
$PUCSXDIR
 10
1.0
 20
0.0
 30
0.0
  9
$PUCSYDIR
 10
0.0
 20
1.0
 30
0.0
  9
$USERI1
 70
     0
  9
$USERI2
 70
     0
  9
$USERI3
 70
     0
  9
$USERI4
 70
     0
  9
$USERI5
 70
     0
  9
$USERR1
 40
0.0
  9
$USERR2
 40
0.0
  9
$USERR3
 40
0.0
  9
$USERR4
 40
0.0
  9
$USERR5
 40
0.0
  9
$WORLDVIEW
 70
     1
  9
$SHADEDGE
 70
     3
  9
$SHADEDIF
 70
    70
  9
$TILEMODE
 70
     1
  9
$MAXACTVP
 70
    64
  9
$PLIMCHECK
 70
     0
  9
$PEXTMIN
 10
0.0
 20
0.0
 30
0.0
  9
$PEXTMAX
 10
0.0
 20
0.0
 30
0.0
  9
$PLIMMIN
 10
0.0
 20
0.0
  9
$PLIMMAX
 10
12.0
 20
9.0
  9
$UNITMODE
 70
     0
  9
$VISRETAIN
 70
     1
  9
$PLINEGEN
 70
     0
  9
$PSLTSCALE
 70
     1
  0
ENDSEC
  0
SECTION
  2
TABLES
  0
TABLE
  2
VPORT
 70
     1
  0
VPORT
  2
*ACTIVE
 70
     0
 10
0.0
 20
0.0
 11
1.0
 21
1.0
 12
266.5547562622184046
 22
141.1022740262044124
 13
0.0
 23
0.0
 14
10.0
 24
10.0
 15
10.0
 25
10.0
 16
0.0
 26
0.0
 36
1.0
 17
0.0
 27
0.0
 37
0.0
 40
290.5682878867132217
 41
2.325609756097561
 42
50.0
 43
0.0
 44
0.0
 50
0.0
 51
0.0
 71
     0
 72
  1000
 73
     1
 74
     3
 75
     0
 76
     0
 77
     0
 78
     0
  0
ENDTAB
  0
TABLE
  2
LTYPE
 70
     2
  0
LTYPE
  2
CONTINUOUS
 70
     0
  3
Solid line
 72
    65
 73
     0
 40
0.0
  0
LTYPE
  2
CENTER
 70
     0
  3
____ _ ____ _ ____ _ ____ _ ____ _ ____ _ ____
 72
    65
 73
     4
 40
2.0
 49
1.25
 49
-0.25
 49
0.25
 49
-0.25
  0
ENDTAB
  0
TABLE
  2
LAYER
 70
     4
  0
LAYER
  2
0
 70
     0
 62
     7
  6
CONTINUOUS
  0
LAYER
  2
DEFPOINTS
 70
     0
 62
     7
  6
CONTINUOUS
  0
LAYER
  2
1
 70
     0
 62
     1
  6
CENTER
  0
LAYER
  2
3
 70
     0
 62
     3
  6
CONTINUOUS
  0
ENDTAB
  0
TABLE
  2
STYLE
 70
     2
  0
STYLE
  2
STANDARD
 70
     0
 40
0.0
 41
1.0
 50
0.0
 71
     0
 42
2.5
  3
txt
  4

  0
STYLE
  2
STANDARD1
 70
     0
 40
0.0
 41
1.0
 50
0.0
 71
     0
 42
3.0
  3
txt
  4

  0
ENDTAB
  0
TABLE
  2
VIEW
 70
     0
  0
ENDTAB
  0
TABLE
  2
UCS
 70
     0
  0
ENDTAB
  0
TABLE
  2
APPID
 70
    41
  0
APPID
  2
ACAD
 70
     0
  0
APPID
  2
_FTCNV
 70
     0
  0
APPID
  2
DCO15
 70
     0
  0
APPID
  2
GENIUS_GENOREF_13
 70
     0
  0
APPID
  2
GENIUS_GENOENT_13
 70
     0
  0
APPID
  2
GENIUS_GENBH_13
 70
     0
  0
APPID
  2
GENIUS_GENOBJ_13
 70
     0
  0
APPID
  2
GENIUS_GENODEF_13
 70
     0
  0
APPID
  2
GENIUS_GENOLIS_13
 70
     0
  0
APPID
  2
GENIUS_GENOBJ-NBEHI-BHF_13
 70
     0
  0
APPID
  2
GENIUS_GENOBJ-NBEHI-BHB_13
 70
     0
  0
APPID
  2
GENIUS_GENOBJ-F-PART_13
 70
     0
  0
APPID
  2
GENIUS_GEFSTDP_13
 70
     0
  0
APPID
  2
GENIUS_GENOBJ-N-RSSYM_13
 70
     0
  0
APPID
  2
GENIUS_GENSYMENT_13
 70
     0
  0
APPID
  2
GENIUS_GENOBJ-N-TIT_13
 70
     0
  0
APPID
  2
GENIUS_GENTITLE_13
 70
     0
  0
APPID
  2
GENIUS_GENZVEED_13
 70
     0
  0
APPID
  2
GENIUS_GENOBJ-N-LEADER_13
 70
     0
  0
APPID
  2
GENIUS_GENOBJ-N-FIL_13
 70
     0
  0
APPID
  2
GENIUS_GENOBJ-N-SEC_13
 70
     0
  0
APPID
  2
GENIUS_GENOBJ-N-CRS_13
 70
     0
  0
APPID
  2
GENIUS_GENOBJ-N-ZOO_13
 70
     0
  0
APPID
  2
GENIUS_GENZOO_13
 70
     0
  0
APPID
  2
GENIUS_GENOBJ-F-TOL_13
 70
     0
  0
APPID
  2
GENIUS_GENFIL_13
 70
     0
  0
APPID
  2
GENIUS_GENOBJ-N-CHA_13
 70
     0
  0
APPID
  2
_CALL_MAC$
 70
     0
  0
APPID
  2
ASM_BASE
 70
     0
  0
APPID
  2
ASM_EXPLO_VER_2_00
 70
     0
  0
APPID
  2
ASM_CADM_VER_12_00
 70
     0
  0
APPID
  2
ASM_BASEFORO
 70
     0
  0
APPID
  2
ASM_BASETRAVI
 70
     0
  0
APPID
  2
ASM_BASETRAVI1
 70
     0
  0
APPID
  2
ASM_GRUPPI
 70
     0
  0
APPID
  2
ASM_CADM_ALBERO
 70
     0
  0
APPID
  2
ASM_GOLE
 70
     0
  0
APPID
  2
ACAD_MLEADERVER
 70
     0
  0
APPID
  2
ACAD_NAV_VCDISPLAY
 70
     0
  0
APPID
  2
ACAD_EXEMPT_FROM_CAD_STANDARDS
 70
     0
  0
APPID
  2
ACAD_DSTYLE_DIMRADIAL_EXTENSION
 70
     0
  0
ENDTAB
  0
TABLE
  2
DIMSTYLE
 70
     2
  0
DIMSTYLE
  2
ISO-25
 70
     0
  3

  4

  5

  6

  7

 40
1.0
 41
2.5
 42
0.625
 43
3.75
 44
1.25
 45
0.0
 46
0.0
 47
0.0
 48
0.0
140
2.5
141
2.5
142
0.0
143
0.03937007874016
144
1.0
145
0.0
146
1.0
147
0.625
 71
     0
 72
     0
 73
     0
 74
     0
 75
     0
 76
     0
 77
     1
 78
     8
170
     0
171
     3
172
     1
173
     0
174
     0
175
     0
176
     0
177
     0
178
     0
  0
DIMSTYLE
  2
STANDARD
 70
     0
  3

  4

  5

  6

  7

 40
1.0
 41
0.18
 42
0.0625
 43
0.38
 44
0.18
 45
0.0
 46
0.0
 47
0.0
 48
0.0
140
0.18
141
0.09
142
0.0
143
25.3999999999999986
144
1.0
145
0.0
146
1.0
147
0.09
 71
     0
 72
     0
 73
     1
 74
     1
 75
     0
 76
     0
 77
     0
 78
     0
170
     0
171
     2
172
     0
173
     0
174
     0
175
     0
176
     0
177
     0
178
     0
  0
ENDTAB
  0
ENDSEC
  0
SECTION
  2
BLOCKS
  0
BLOCK
  8
0
  2
$MODEL_SPACE
 70
     0
 10
0.0
 20
0.0
 30
0.0
  3
$MODEL_SPACE
  1

  0
ENDBLK
  5
21
  8
0
  0
BLOCK
 67
     1
  8
0
  2
$PAPER_SPACE
 70
     0
 10
0.0
 20
0.0
 30
0.0
  3
$PAPER_SPACE
  1

  0
ENDBLK
  5
53
 67
     1
  8
0
  0
ENDSEC
  0
SECTION
  2
ENTITIES
  0
LINE
  5
27F7
  8
0
 10
203.4264363838726126
 20
131.4828067786694135
 30
0.0
 11
211.1632988655219947
 21
131.4828067786694135
 31
0.0
  0
LINE
  5
27F8
  8
0
 10
211.1632988655221936
 20
123.4828067786693993
 30
0.0
 11
203.4264363838726126
 21
123.4828067786693993
 31
0.0
  0
LINE
  5
27F9
  8
0
 10
241.1632988655223926
 20
131.4828067786694135
 30
0.0
 11
241.1632988655221936
 21
123.4828067786694987
 31
0.0
  0
LINE
  5
27FA
  8
0
 10
241.1632988655221936
 20
123.4828067786694987
 30
0.0
 11
240.1632988655221936
 21
122.4828067786694987
 31
0.0
  0
LINE
  5
27FB
  8
0
 10
240.1632988655223926
 20
132.4828067786694987
 30
0.0
 11
241.1632988655223926
 21
131.4828067786694135
 31
0.0
  0
LINE
  5
27FC
  8
0
 10
212.1632988655221936
 20
132.4828067786694987
 30
0.0
 11
211.1632988655221936
 21
131.4828067786694135
 31
0.0
  0
LINE
  5
27FD
  8
0
 10
211.1632988655221936
 20
131.4828067786694135
 30
0.0
 11
211.1632988655221936
 21
123.4828067786694987
 31
0.0
  0
LINE
  5
27FE
  8
0
 10
211.1632988655221936
 20
123.4828067786694987
 30
0.0
 11
212.1632988655221936
 21
122.4828067786694987
 31
0.0
  0
LINE
  5
27FF
  8
0
 10
212.1632988655221936
 20
132.4828067786694987
 30
0.0
 11
240.1632988655223073
 21
132.4828067786694135
 31
0.0
  0
LINE
  5
2800
  8
0
 10
241.1632988655223926
 20
131.4828067786694135
 30
0.0
 11
211.1632988655221936
 21
131.4828067786694135
 31
0.0
  0
LINE
  5
2801
  8
0
 10
211.1632988655221936
 20
123.4828067786694987
 30
0.0
 11
241.1632988655223073
 21
123.4828067786694987
 31
0.0
  0
LINE
  5
2803
  8
0
 10
235.5745016091717048
 20
110.4827994014485029
 30
0.0
 11
240.9632988699925136
 21
110.4827994014484034
 31
0.0
  0
LINE
  5
2804
  8
0
 10
235.5745016091717048
 20
110.2827994065007005
 30
0.0
 11
241.1632985302460099
 21
110.2827994065007999
 31
0.0
  0
LINE
  5
2821
  8
0
 10
241.1632985302460099
 20
83.6828002239925013
 30
0.0
 11
211.1632992007982921
 21
83.6828002239925581
 31
0.0
  0
LINE
  5
2822
  8
0
 10
211.1632992007982921
 20
110.2827994065008994
 30
0.0
 11
216.7520961218727962
 21
110.2827994065007005
 31
0.0
  0
LINE
  5
2823
  8
0
 10
211.3632988610517884
 20
110.4827994014484034
 30
0.0
 11
211.1632992007982921
 21
110.2827994065008994
 31
0.0
  0
LINE
  5
2824
  8
0
 10
211.1632992007982921
 20
83.6828002239925013
 30
0.0
 11
211.1632992007982921
 21
110.2827994065008994
 31
0.0
  0
LINE
  5
2825
  8
0
 10
211.1632992007982921
 20
83.6828002239925013
 30
0.0
 11
211.3632988610517884
 21
83.4827987010938273
 31
0.0
  0
LINE
  5
2826
  8
0
 10
240.9632988699925136
 20
83.4827987010938273
 30
0.0
 11
211.3632829146567929
 21
83.4828146476373831
 31
0.0
  0
LINE
  5
2827
  8
0
 10
240.9632988699925136
 20
83.4827987010938273
 30
0.0
 11
241.1632985302460099
 21
83.6828002239925013
 31
0.0
  0
LINE
  5
2828
  8
0
 10
241.1632985302460099
 20
110.2827994065007999
 30
0.0
 11
241.1632985302460099
 21
83.6828002239925013
 31
0.0
  0
LINE
  5
2829
  8
0
 10
241.1632985302460099
 20
110.2827994065007999
 30
0.0
 11
240.9632988699925136
 21
110.4827994014484034
 31
0.0
  0
LINE
  5
282A
  8
0
 10
211.3632988610517884
 20
110.4827994014484034
 30
0.0
 11
216.7520961218727962
 21
110.4827994014485029
 31
0.0
  0
LINE
  5
282B
  8
1
 10
226.1632988655221936
 20
71.4828066743613135
 30
0.0
 11
226.1632988655221936
 21
137.4828067786694135
 31
0.0
  0
LINE
  5
282C
  8
0
 10
212.6632988655221084
 20
76.9828066743613135
 30
0.0
 11
239.6632988655221936
 21
76.9828066743613135
 31
0.0
  0
LINE
  5
282D
  8
0
 10
239.1632988655221936
 20
76.4828066743613135
 30
0.0
 11
213.1632988655221936
 21
76.4828066743613135
 31
0.0
  0
LINE
  5
282E
  8
0
 10
212.6632988655221084
 20
83.4828139472742237
 30
0.0
 11
212.6632988655221084
 21
76.9828066743613135
 31
0.0
  0
LINE
  5
282F
  8
0
 10
239.6632988655221936
 20
76.9828066743613135
 30
0.0
 11
239.6632988655221936
 21
83.4827994014484744
 31
0.0
  0
LINE
  5
2830
  8
0
 10
239.1632988655221936
 20
76.4828066743613135
 30
0.0
 11
239.6632988655221936
 21
76.9828066743613135
 31
0.0
  0
LINE
  5
2831
  8
0
 10
212.6632988655221084
 20
76.9828066743613135
 30
0.0
 11
213.1632988655221936
 21
76.4828066743613135
 31
0.0
  0
ARC
  5
2832
  8
0
 10
199.5383483758579928
 20
127.4828067786693993
 30
0.0
 40
10.0
 50
23.5781784782034194
 51
336.4218215217965735
  0
POLYLINE
  5
2833
  8
0
 10
203.4264363838723852
 20
121.5089569042716136
 30
0.0
 66
     1
 70
     8
  0
VERTEX
  8
0
  5
4500
 10
203.426
 20
121.509
 30
0.00000
  70
    32
  0
VERTEX
  8
0
  5
4501
 10
203.285
 20
121.496
 30
0.00000
  70
    32
  0
VERTEX
  8
0
  5
4502
 10
203.144
 20
121.488
 30
0.00000
  70
    32
  0
VERTEX
  8
0
  5
4503
 10
203.003
 20
121.484
 30
0.00000
  70
    32
  0
VERTEX
  8
0
  5
4504
 10
202.862
 20
121.483
 30
0.00000
  70
    32
  0
VERTEX
  8
0
  5
4505
 10
202.720
 20
121.487
 30
0.00000
  70
    32
  0
VERTEX
  8
0
  5
4506
 10
202.579
 20
121.495
 30
0.00000
  70
    32
  0
VERTEX
  8
0
  5
4507
 10
202.438
 20
121.506
 30
0.00000
  70
    32
  0
VERTEX
  8
0
  5
4508
 10
202.297
 20
121.522
 30
0.00000
  70
    32
  0
VERTEX
  8
0
  5
4509
 10
202.157
 20
121.542
 30
0.00000
  70
    32
  0
VERTEX
  8
0
  5
450A
 10
202.017
 20
121.566
 30
0.00000
  70
    32
  0
VERTEX
  8
0
  5
450B
 10
201.878
 20
121.594
 30
0.00000
  70
    32
  0
VERTEX
  8
0
  5
450C
 10
201.740
 20
121.626
 30
0.00000
  70
    32
  0
VERTEX
  8
0
  5
450D
 10
201.602
 20
121.661
 30
0.00000
  70
    32
  0
VERTEX
  8
0
  5
450E
 10
201.465
 20
121.701
 30
0.00000
  70
    32
  0
VERTEX
  8
0
  5
450F
 10
201.330
 20
121.745
 30
0.00000
  70
    32
  0
VERTEX
  8
0
  5
4510
 10
201.195
 20
121.792
 30
0.00000
  70
    32
  0
VERTEX
  8
0
  5
4511
 10
201.062
 20
121.844
 30
0.00000
  70
    32
  0
VERTEX
  8
0
  5
4512
 10
200.929
 20
121.899
 30
0.00000
  70
    32
  0
VERTEX
  8
0
  5
4513
 10
200.798
 20
121.958
 30
0.00000
  70
    32
  0
VERTEX
  8
0
  5
4514
 10
200.669
 20
122.021
 30
0.00000
  70
    32
  0
VERTEX
  8
0
  5
4515
 10
200.541
 20
122.087
 30
0.00000
  70
    32
  0
VERTEX
  8
0
  5
4516
 10
200.415
 20
122.157
 30
0.00000
  70
    32
  0
VERTEX
  8
0
  5
4517
 10
200.290
 20
122.231
 30
0.00000
  70
    32
  0
VERTEX
  8
0
  5
4518
 10
200.167
 20
122.308
 30
0.00000
  70
    32
  0
VERTEX
  8
0
  5
4519
 10
200.046
 20
122.389
 30
0.00000
  70
    32
  0
VERTEX
  8
0
  5
451A
 10
199.927
 20
122.473
 30
0.00000
  70
    32
  0
VERTEX
  8
0
  5
451B
 10
199.810
 20
122.560
 30
0.00000
  70
    32
  0
VERTEX
  8
0
  5
451C
 10
199.695
 20
122.651
 30
0.00000
  70
    32
  0
VERTEX
  8
0
  5
451D
 10
199.582
 20
122.745
 30
0.00000
  70
    32
  0
VERTEX
  8
0
  5
451E
 10
199.472
 20
122.843
 30
0.00000
  70
    32
  0
VERTEX
  8
0
  5
451F
 10
199.364
 20
122.943
 30
0.00000
  70
    32
  0
VERTEX
  8
0
  5
4520
 10
199.258
 20
123.047
 30
0.00000
  70
    32
  0
VERTEX
  8
0
  5
4521
 10
199.155
 20
123.153
 30
0.00000
  70
    32
  0
VERTEX
  8
0
  5
4522
 10
199.054
 20
123.263
 30
0.00000
  70
    32
  0
VERTEX
  8
0
  5
4523
 10
198.956
 20
123.375
 30
0.00000
  70
    32
  0
VERTEX
  8
0
  5
4524
 10
198.860
 20
123.490
 30
0.00000
  70
    32
  0
VERTEX
  8
0
  5
4525
 10
198.768
 20
123.608
 30
0.00000
  70
    32
  0
VERTEX
  8
0
  5
4526
 10
198.678
 20
123.728
 30
0.00000
  70
    32
  0
VERTEX
  8
0
  5
4527
 10
198.591
 20
123.851
 30
0.00000
  70
    32
  0
VERTEX
  8
0
  5
4528
 10
198.506
 20
123.977
 30
0.00000
  70
    32
  0
VERTEX
  8
0
  5
4529
 10
198.425
 20
124.105
 30
0.00000
  70
    32
  0
VERTEX
  8
0
  5
452A
 10
198.347
 20
124.235
 30
0.00000
  70
    32
  0
VERTEX
  8
0
  5
452B
 10
198.272
 20
124.367
 30
0.00000
  70
    32
  0
VERTEX
  8
0
  5
452C
 10
198.200
 20
124.501
 30
0.00000
  70
    32
  0
VERTEX
  8
0
  5
452D
 10
198.132
 20
124.638
 30
0.00000
  70
    32
  0
VERTEX
  8
0
  5
452E
 10
198.066
 20
124.776
 30
0.00000
  70
    32
  0
VERTEX
  8
0
  5
452F
 10
198.004
 20
124.916
 30
0.00000
  70
    32
  0
VERTEX
  8
0
  5
4530
 10
197.945
 20
125.058
 30
0.00000
  70
    32
  0
VERTEX
  8
0
  5
4531
 10
197.890
 20
125.201
 30
0.00000
  70
    32
  0
VERTEX
  8
0
  5
4532
 10
197.838
 20
125.346
 30
0.00000
  70
    32
  0
VERTEX
  8
0
  5
4533
 10
197.789
 20
125.493
 30
0.00000
  70
    32
  0
VERTEX
  8
0
  5
4534
 10
197.744
 20
125.641
 30
0.00000
  70
    32
  0
VERTEX
  8
0
  5
4535
 10
197.702
 20
125.790
 30
0.00000
  70
    32
  0
VERTEX
  8
0
  5
4536
 10
197.664
 20
125.940
 30
0.00000
  70
    32
  0
VERTEX
  8
0
  5
4537
 10
197.630
 20
126.091
 30
0.00000
  70
    32
  0
VERTEX
  8
0
  5
4538
 10
197.599
 20
126.244
 30
0.00000
  70
    32
  0
VERTEX
  8
0
  5
4539
 10
197.571
 20
126.397
 30
0.00000
  70
    32
  0
VERTEX
  8
0
  5
453A
 10
197.547
 20
126.550
 30
0.00000
  70
    32
  0
VERTEX
  8
0
  5
453B
 10
197.527
 20
126.705
 30
0.00000
  70
    32
  0
VERTEX
  8
0
  5
453C
 10
197.511
 20
126.860
 30
0.00000
  70
    32
  0
VERTEX
  8
0
  5
453D
 10
197.498
 20
127.015
 30
0.00000
  70
    32
  0
VERTEX
  8
0
  5
453E
 10
197.489
 20
127.171
 30
0.00000
  70
    32
  0
VERTEX
  8
0
  5
453F
 10
197.483
 20
127.327
 30
0.00000
  70
    32
  0
VERTEX
  8
0
  5
4540
 10
197.481
 20
127.483
 30
0.00000
  70
    32
  0
VERTEX
  8
0
  5
4541
 10
197.483
 20
127.639
 30
0.00000
  70
    32
  0
VERTEX
  8
0
  5
4542
 10
197.489
 20
127.795
 30
0.00000
  70
    32
  0
VERTEX
  8
0
  5
4543
 10
197.498
 20
127.950
 30
0.00000
  70
    32
  0
VERTEX
  8
0
  5
4544
 10
197.511
 20
128.106
 30
0.00000
  70
    32
  0
VERTEX
  8
0
  5
4545
 10
197.527
 20
128.261
 30
0.00000
  70
    32
  0
VERTEX
  8
0
  5
4546
 10
197.547
 20
128.415
 30
0.00000
  70
    32
  0
VERTEX
  8
0
  5
4547
 10
197.571
 20
128.569
 30
0.00000
  70
    32
  0
VERTEX
  8
0
  5
4548
 10
197.599
 20
128.722
 30
0.00000
  70
    32
  0
VERTEX
  8
0
  5
4549
 10
197.630
 20
128.874
 30
0.00000
  70
    32
  0
VERTEX
  8
0
  5
454A
 10
197.664
 20
129.025
 30
0.00000
  70
    32
  0
VERTEX
  8
0
  5
454B
 10
197.702
 20
129.176
 30
0.00000
  70
    32
  0
VERTEX
  8
0
  5
454C
 10
197.744
 20
129.325
 30
0.00000
  70
    32
  0
VERTEX
  8
0
  5
454D
 10
197.789
 20
129.473
 30
0.00000
  70
    32
  0
VERTEX
  8
0
  5
454E
 10
197.838
 20
129.619
 30
0.00000
  70
    32
  0
VERTEX
  8
0
  5
454F
 10
197.890
 20
129.764
 30
0.00000
  70
    32
  0
VERTEX
  8
0
  5
4550
 10
197.945
 20
129.908
 30
0.00000
  70
    32
  0
VERTEX
  8
0
  5
4551
 10
198.004
 20
130.050
 30
0.00000
  70
    32
  0
VERTEX
  8
0
  5
4552
 10
198.066
 20
130.190
 30
0.00000
  70
    32
  0
VERTEX
  8
0
  5
4553
 10
198.132
 20
130.328
 30
0.00000
  70
    32
  0
VERTEX
  8
0
  5
4554
 10
198.200
 20
130.464
 30
0.00000
  70
    32
  0
VERTEX
  8
0
  5
4555
 10
198.272
 20
130.599
 30
0.00000
  70
    32
  0
VERTEX
  8
0
  5
4556
 10
198.347
 20
130.731
 30
0.00000
  70
    32
  0
VERTEX
  8
0
  5
4557
 10
198.425
 20
130.861
 30
0.00000
  70
    32
  0
VERTEX
  8
0
  5
4558
 10
198.506
 20
130.989
 30
0.00000
  70
    32
  0
VERTEX
  8
0
  5
4559
 10
198.591
 20
131.114
 30
0.00000
  70
    32
  0
VERTEX
  8
0
  5
455A
 10
198.678
 20
131.237
 30
0.00000
  70
    32
  0
VERTEX
  8
0
  5
455B
 10
198.768
 20
131.358
 30
0.00000
  70
    32
  0
VERTEX
  8
0
  5
455C
 10
198.860
 20
131.475
 30
0.00000
  70
    32
  0
VERTEX
  8
0
  5
455D
 10
198.956
 20
131.591
 30
0.00000
  70
    32
  0
VERTEX
  8
0
  5
455E
 10
199.054
 20
131.703
 30
0.00000
  70
    32
  0
VERTEX
  8
0
  5
455F
 10
199.155
 20
131.812
 30
0.00000
  70
    32
  0
VERTEX
  8
0
  5
4560
 10
199.258
 20
131.919
 30
0.00000
  70
    32
  0
VERTEX
  8
0
  5
4561
 10
199.364
 20
132.022
 30
0.00000
  70
    32
  0
VERTEX
  8
0
  5
4562
 10
199.472
 20
132.123
 30
0.00000
  70
    32
  0
VERTEX
  8
0
  5
4563
 10
199.582
 20
132.220
 30
0.00000
  70
    32
  0
VERTEX
  8
0
  5
4564
 10
199.695
 20
132.314
 30
0.00000
  70
    32
  0
VERTEX
  8
0
  5
4565
 10
199.810
 20
132.405
 30
0.00000
  70
    32
  0
VERTEX
  8
0
  5
4566
 10
199.927
 20
132.493
 30
0.00000
  70
    32
  0
VERTEX
  8
0
  5
4567
 10
200.046
 20
132.577
 30
0.00000
  70
    32
  0
VERTEX
  8
0
  5
4568
 10
200.167
 20
132.658
 30
0.00000
  70
    32
  0
VERTEX
  8
0
  5
4569
 10
200.290
 20
132.735
 30
0.00000
  70
    32
  0
VERTEX
  8
0
  5
456A
 10
200.415
 20
132.808
 30
0.00000
  70
    32
  0
VERTEX
  8
0
  5
456B
 10
200.541
 20
132.879
 30
0.00000
  70
    32
  0
VERTEX
  8
0
  5
456C
 10
200.669
 20
132.945
 30
0.00000
  70
    32
  0
VERTEX
  8
0
  5
456D
 10
200.798
 20
133.008
 30
0.00000
  70
    32
  0
VERTEX
  8
0
  5
456E
 10
200.929
 20
133.067
 30
0.00000
  70
    32
  0
VERTEX
  8
0
  5
456F
 10
201.062
 20
133.122
 30
0.00000
  70
    32
  0
VERTEX
  8
0
  5
4570
 10
201.195
 20
133.173
 30
0.00000
  70
    32
  0
VERTEX
  8
0
  5
4571
 10
201.330
 20
133.221
 30
0.00000
  70
    32
  0
VERTEX
  8
0
  5
4572
 10
201.465
 20
133.264
 30
0.00000
  70
    32
  0
VERTEX
  8
0
  5
4573
 10
201.602
 20
133.304
 30
0.00000
  70
    32
  0
VERTEX
  8
0
  5
4574
 10
201.740
 20
133.340
 30
0.00000
  70
    32
  0
VERTEX
  8
0
  5
4575
 10
201.878
 20
133.372
 30
0.00000
  70
    32
  0
VERTEX
  8
0
  5
4576
 10
202.017
 20
133.400
 30
0.00000
  70
    32
  0
VERTEX
  8
0
  5
4577
 10
202.157
 20
133.424
 30
0.00000
  70
    32
  0
VERTEX
  8
0
  5
4578
 10
202.297
 20
133.443
 30
0.00000
  70
    32
  0
VERTEX
  8
0
  5
4579
 10
202.438
 20
133.459
 30
0.00000
  70
    32
  0
VERTEX
  8
0
  5
457A
 10
202.579
 20
133.471
 30
0.00000
  70
    32
  0
VERTEX
  8
0
  5
457B
 10
202.720
 20
133.479
 30
0.00000
  70
    32
  0
VERTEX
  8
0
  5
457C
 10
202.862
 20
133.482
 30
0.00000
  70
    32
  0
VERTEX
  8
0
  5
457D
 10
203.003
 20
133.482
 30
0.00000
  70
    32
  0
VERTEX
  8
0
  5
457E
 10
203.144
 20
133.478
 30
0.00000
  70
    32
  0
VERTEX
  8
0
  5
457F
 10
203.285
 20
133.469
 30
0.00000
  70
    32
  0
VERTEX
  8
0
  5
4580
 10
203.426
 20
133.457
 30
0.00000
  70
    32
  0
SEQEND
  8
0
  5
4581
  0
POLYLINE
  5
2834
  8
0
 10
207.5280967748223588
 20
123.4828067786693993
 30
0.0
 66
     1
 70
     8
  0
VERTEX
  8
0
  5
4582
 10
207.528
 20
123.483
 30
0.00000
  70
    32
  0
VERTEX
  8
0
  5
4583
 10
207.386
 20
123.319
 30
0.00000
  70
    32
  0
VERTEX
  8
0
  5
4584
 10
207.239
 20
123.161
 30
0.00000
  70
    32
  0
VERTEX
  8
0
  5
4585
 10
207.086
 20
123.009
 30
0.00000
  70
    32
  0
VERTEX
  8
0
  5
4586
 10
206.927
 20
122.863
 30
0.00000
  70
    32
  0
VERTEX
  8
0
  5
4587
 10
206.764
 20
122.724
 30
0.00000
  70
    32
  0
VERTEX
  8
0
  5
4588
 10
206.596
 20
122.591
 30
0.00000
  70
    32
  0
VERTEX
  8
0
  5
4589
 10
206.424
 20
122.466
 30
0.00000
  70
    32
  0
VERTEX
  8
0
  5
458A
 10
206.247
 20
122.347
 30
0.00000
  70
    32
  0
VERTEX
  8
0
  5
458B
 10
206.067
 20
122.236
 30
0.00000
  70
    32
  0
VERTEX
  8
0
  5
458C
 10
205.883
 20
122.132
 30
0.00000
  70
    32
  0
VERTEX
  8
0
  5
458D
 10
205.695
 20
122.036
 30
0.00000
  70
    32
  0
VERTEX
  8
0
  5
458E
 10
205.504
 20
121.948
 30
0.00000
  70
    32
  0
VERTEX
  8
0
  5
458F
 10
205.310
 20
121.867
 30
0.00000
  70
    32
  0
VERTEX
  8
0
  5
4590
 10
205.113
 20
121.794
 30
0.00000
  70
    32
  0
VERTEX
  8
0
  5
4591
 10
204.914
 20
121.730
 30
0.00000
  70
    32
  0
VERTEX
  8
0
  5
4592
 10
204.713
 20
121.673
 30
0.00000
  70
    32
  0
VERTEX
  8
0
  5
4593
 10
204.510
 20
121.625
 30
0.00000
  70
    32
  0
VERTEX
  8
0
  5
4594
 10
204.306
 20
121.585
 30
0.00000
  70
    32
  0
VERTEX
  8
0
  5
4595
 10
204.100
 20
121.554
 30
0.00000
  70
    32
  0
VERTEX
  8
0
  5
4596
 10
203.893
 20
121.530
 30
0.00000
  70
    32
  0
VERTEX
  8
0
  5
4597
 10
203.686
 20
121.516
 30
0.00000
  70
    32
  0
VERTEX
  8
0
  5
4598
 10
203.478
 20
121.509
 30
0.00000
  70
    32
  0
VERTEX
  8
0
  5
4599
 10
203.271
 20
121.511
 30
0.00000
  70
    32
  0
VERTEX
  8
0
  5
459A
 10
203.063
 20
121.522
 30
0.00000
  70
    32
  0
VERTEX
  8
0
  5
459B
 10
202.856
 20
121.541
 30
0.00000
  70
    32
  0
VERTEX
  8
0
  5
459C
 10
202.650
 20
121.568
 30
0.00000
  70
    32
  0
VERTEX
  8
0
  5
459D
 10
202.445
 20
121.604
 30
0.00000
  70
    32
  0
VERTEX
  8
0
  5
459E
 10
202.241
 20
121.648
 30
0.00000
  70
    32
  0
VERTEX
  8
0
  5
459F
 10
202.039
 20
121.701
 30
0.00000
  70
    32
  0
VERTEX
  8
0
  5
45A0
 10
201.839
 20
121.761
 30
0.00000
  70
    32
  0
VERTEX
  8
0
  5
45A1
 10
201.641
 20
121.830
 30
0.00000
  70
    32
  0
VERTEX
  8
0
  5
45A2
 10
201.446
 20
121.906
 30
0.00000
  70
    32
  0
VERTEX
  8
0
  5
45A3
 10
201.253
 20
121.991
 30
0.00000
  70
    32
  0
VERTEX
  8
0
  5
45A4
 10
201.064
 20
122.083
 30
0.00000
  70
    32
  0
VERTEX
  8
0
  5
45A5
 10
200.878
 20
122.183
 30
0.00000
  70
    32
  0
VERTEX
  8
0
  5
45A6
 10
200.695
 20
122.291
 30
0.00000
  70
    32
  0
VERTEX
  8
0
  5
45A7
 10
200.517
 20
122.405
 30
0.00000
  70
    32
  0
VERTEX
  8
0
  5
45A8
 10
200.342
 20
122.527
 30
0.00000
  70
    32
  0
VERTEX
  8
0
  5
45A9
 10
200.172
 20
122.656
 30
0.00000
  70
    32
  0
VERTEX
  8
0
  5
45AA
 10
200.007
 20
122.792
 30
0.00000
  70
    32
  0
VERTEX
  8
0
  5
45AB
 10
199.846
 20
122.935
 30
0.00000
  70
    32
  0
VERTEX
  8
0
  5
45AC
 10
199.690
 20
123.084
 30
0.00000
  70
    32
  0
VERTEX
  8
0
  5
45AD
 10
199.540
 20
123.239
 30
0.00000
  70
    32
  0
VERTEX
  8
0
  5
45AE
 10
199.395
 20
123.400
 30
0.00000
  70
    32
  0
VERTEX
  8
0
  5
45AF
 10
199.256
 20
123.567
 30
0.00000
  70
    32
  0
VERTEX
  8
0
  5
45B0
 10
199.123
 20
123.739
 30
0.00000
  70
    32
  0
VERTEX
  8
0
  5
45B1
 10
198.996
 20
123.917
 30
0.00000
  70
    32
  0
VERTEX
  8
0
  5
45B2
 10
198.875
 20
124.100
 30
0.00000
  70
    32
  0
VERTEX
  8
0
  5
45B3
 10
198.760
 20
124.288
 30
0.00000
  70
    32
  0
VERTEX
  8
0
  5
45B4
 10
198.653
 20
124.480
 30
0.00000
  70
    32
  0
VERTEX
  8
0
  5
45B5
 10
198.552
 20
124.676
 30
0.00000
  70
    32
  0
VERTEX
  8
0
  5
45B6
 10
198.457
 20
124.876
 30
0.00000
  70
    32
  0
VERTEX
  8
0
  5
45B7
 10
198.370
 20
125.080
 30
0.00000
  70
    32
  0
VERTEX
  8
0
  5
45B8
 10
198.290
 20
125.288
 30
0.00000
  70
    32
  0
VERTEX
  8
0
  5
45B9
 10
198.218
 20
125.498
 30
0.00000
  70
    32
  0
VERTEX
  8
0
  5
45BA
 10
198.152
 20
125.712
 30
0.00000
  70
    32
  0
VERTEX
  8
0
  5
45BB
 10
198.094
 20
125.928
 30
0.00000
  70
    32
  0
VERTEX
  8
0
  5
45BC
 10
198.044
 20
126.146
 30
0.00000
  70
    32
  0
VERTEX
  8
0
  5
45BD
 10
198.001
 20
126.366
 30
0.00000
  70
    32
  0
VERTEX
  8
0
  5
45BE
 10
197.966
 20
126.587
 30
0.00000
  70
    32
  0
VERTEX
  8
0
  5
45BF
 10
197.939
 20
126.810
 30
0.00000
  70
    32
  0
VERTEX
  8
0
  5
45C0
 10
197.920
 20
127.034
 30
0.00000
  70
    32
  0
VERTEX
  8
0
  5
45C1
 10
197.908
 20
127.258
 30
0.00000
  70
    32
  0
VERTEX
  8
0
  5
45C2
 10
197.904
 20
127.483
 30
0.00000
  70
    32
  0
VERTEX
  8
0
  5
45C3
 10
197.908
 20
127.708
 30
0.00000
  70
    32
  0
VERTEX
  8
0
  5
45C4
 10
197.920
 20
127.932
 30
0.00000
  70
    32
  0
VERTEX
  8
0
  5
45C5
 10
197.939
 20
128.156
 30
0.00000
  70
    32
  0
VERTEX
  8
0
  5
45C6
 10
197.966
 20
128.378
 30
0.00000
  70
    32
  0
VERTEX
  8
0
  5
45C7
 10
198.001
 20
128.600
 30
0.00000
  70
    32
  0
VERTEX
  8
0
  5
45C8
 10
198.044
 20
128.820
 30
0.00000
  70
    32
  0
VERTEX
  8
0
  5
45C9
 10
198.094
 20
129.038
 30
0.00000
  70
    32
  0
VERTEX
  8
0
  5
45CA
 10
198.152
 20
129.254
 30
0.00000
  70
    32
  0
VERTEX
  8
0
  5
45CB
 10
198.218
 20
129.467
 30
0.00000
  70
    32
  0
VERTEX
  8
0
  5
45CC
 10
198.290
 20
129.678
 30
0.00000
  70
    32
  0
VERTEX
  8
0
  5
45CD
 10
198.370
 20
129.885
 30
0.00000
  70
    32
  0
VERTEX
  8
0
  5
45CE
 10
198.457
 20
130.089
 30
0.00000
  70
    32
  0
VERTEX
  8
0
  5
45CF
 10
198.552
 20
130.290
 30
0.00000
  70
    32
  0
VERTEX
  8
0
  5
45D0
 10
198.653
 20
130.486
 30
0.00000
  70
    32
  0
VERTEX
  8
0
  5
45D1
 10
198.760
 20
130.678
 30
0.00000
  70
    32
  0
VERTEX
  8
0
  5
45D2
 10
198.875
 20
130.866
 30
0.00000
  70
    32
  0
VERTEX
  8
0
  5
45D3
 10
198.996
 20
131.048
 30
0.00000
  70
    32
  0
VERTEX
  8
0
  5
45D4
 10
199.123
 20
131.226
 30
0.00000
  70
    32
  0
VERTEX
  8
0
  5
45D5
 10
199.256
 20
131.399
 30
0.00000
  70
    32
  0
VERTEX
  8
0
  5
45D6
 10
199.395
 20
131.566
 30
0.00000
  70
    32
  0
VERTEX
  8
0
  5
45D7
 10
199.540
 20
131.727
 30
0.00000
  70
    32
  0
VERTEX
  8
0
  5
45D8
 10
199.690
 20
131.882
 30
0.00000
  70
    32
  0
VERTEX
  8
0
  5
45D9
 10
199.846
 20
132.031
 30
0.00000
  70
    32
  0
VERTEX
  8
0
  5
45DA
 10
200.007
 20
132.173
 30
0.00000
  70
    32
  0
VERTEX
  8
0
  5
45DB
 10
200.172
 20
132.309
 30
0.00000
  70
    32
  0
VERTEX
  8
0
  5
45DC
 10
200.342
 20
132.438
 30
0.00000
  70
    32
  0
VERTEX
  8
0
  5
45DD
 10
200.517
 20
132.560
 30
0.00000
  70
    32
  0
VERTEX
  8
0
  5
45DE
 10
200.695
 20
132.675
 30
0.00000
  70
    32
  0
VERTEX
  8
0
  5
45DF
 10
200.878
 20
132.782
 30
0.00000
  70
    32
  0
VERTEX
  8
0
  5
45E0
 10
201.064
 20
132.882
 30
0.00000
  70
    32
  0
VERTEX
  8
0
  5
45E1
 10
201.253
 20
132.975
 30
0.00000
  70
    32
  0
VERTEX
  8
0
  5
45E2
 10
201.446
 20
133.059
 30
0.00000
  70
    32
  0
VERTEX
  8
0
  5
45E3
 10
201.641
 20
133.136
 30
0.00000
  70
    32
  0
VERTEX
  8
0
  5
45E4
 10
201.839
 20
133.205
 30
0.00000
  70
    32
  0
VERTEX
  8
0
  5
45E5
 10
202.039
 20
133.265
 30
0.00000
  70
    32
  0
VERTEX
  8
0
  5
45E6
 10
202.241
 20
133.317
 30
0.00000
  70
    32
  0
VERTEX
  8
0
  5
45E7
 10
202.445
 20
133.362
 30
0.00000
  70
    32
  0
VERTEX
  8
0
  5
45E8
 10
202.650
 20
133.397
 30
0.00000
  70
    32
  0
VERTEX
  8
0
  5
45E9
 10
202.856
 20
133.425
 30
0.00000
  70
    32
  0
VERTEX
  8
0
  5
45EA
 10
203.063
 20
133.444
 30
0.00000
  70
    32
  0
VERTEX
  8
0
  5
45EB
 10
203.271
 20
133.454
 30
0.00000
  70
    32
  0
VERTEX
  8
0
  5
45EC
 10
203.478
 20
133.456
 30
0.00000
  70
    32
  0
VERTEX
  8
0
  5
45ED
 10
203.686
 20
133.450
 30
0.00000
  70
    32
  0
VERTEX
  8
0
  5
45EE
 10
203.893
 20
133.435
 30
0.00000
  70
    32
  0
VERTEX
  8
0
  5
45EF
 10
204.100
 20
133.412
 30
0.00000
  70
    32
  0
VERTEX
  8
0
  5
45F0
 10
204.306
 20
133.380
 30
0.00000
  70
    32
  0
VERTEX
  8
0
  5
45F1
 10
204.510
 20
133.340
 30
0.00000
  70
    32
  0
VERTEX
  8
0
  5
45F2
 10
204.713
 20
133.292
 30
0.00000
  70
    32
  0
VERTEX
  8
0
  5
45F3
 10
204.914
 20
133.236
 30
0.00000
  70
    32
  0
VERTEX
  8
0
  5
45F4
 10
205.113
 20
133.171
 30
0.00000
  70
    32
  0
VERTEX
  8
0
  5
45F5
 10
205.310
 20
133.098
 30
0.00000
  70
    32
  0
VERTEX
  8
0
  5
45F6
 10
205.504
 20
133.018
 30
0.00000
  70
    32
  0
VERTEX
  8
0
  5
45F7
 10
205.695
 20
132.929
 30
0.00000
  70
    32
  0
VERTEX
  8
0
  5
45F8
 10
205.883
 20
132.833
 30
0.00000
  70
    32
  0
VERTEX
  8
0
  5
45F9
 10
206.067
 20
132.730
 30
0.00000
  70
    32
  0
VERTEX
  8
0
  5
45FA
 10
206.247
 20
132.618
 30
0.00000
  70
    32
  0
VERTEX
  8
0
  5
45FB
 10
206.424
 20
132.500
 30
0.00000
  70
    32
  0
VERTEX
  8
0
  5
45FC
 10
206.596
 20
132.374
 30
0.00000
  70
    32
  0
VERTEX
  8
0
  5
45FD
 10
206.764
 20
132.242
 30
0.00000
  70
    32
  0
VERTEX
  8
0
  5
45FE
 10
206.927
 20
132.103
 30
0.00000
  70
    32
  0
VERTEX
  8
0
  5
45FF
 10
207.086
 20
131.957
 30
0.00000
  70
    32
  0
VERTEX
  8
0
  5
4600
 10
207.239
 20
131.805
 30
0.00000
  70
    32
  0
VERTEX
  8
0
  5
4601
 10
207.386
 20
131.647
 30
0.00000
  70
    32
  0
VERTEX
  8
0
  5
4602
 10
207.528
 20
131.483
 30
0.00000
  70
    32
  0
SEQEND
  8
0
  5
4603
  0
POLYLINE
  5
2835
  8
0
 10
203.4264363838726126
 20
123.4828067786693993
 30
0.0
 66
     1
 70
     8
  0
VERTEX
  8
0
  5
4604
 10
203.426
 20
123.483
 30
0.00000
  70
    32
  0
VERTEX
  8
0
  5
4605
 10
203.337
 20
123.484
 30
0.00000
  70
    32
  0
VERTEX
  8
0
  5
4606
 10
203.249
 20
123.488
 30
0.00000
  70
    32
  0
VERTEX
  8
0
  5
4607
 10
203.160
 20
123.494
 30
0.00000
  70
    32
  0
VERTEX
  8
0
  5
4608
 10
203.071
 20
123.502
 30
0.00000
  70
    32
  0
VERTEX
  8
0
  5
4609
 10
202.983
 20
123.513
 30
0.00000
  70
    32
  0
VERTEX
  8
0
  5
460A
 10
202.895
 20
123.526
 30
0.00000
  70
    32
  0
VERTEX
  8
0
  5
460B
 10
202.807
 20
123.542
 30
0.00000
  70
    32
  0
VERTEX
  8
0
  5
460C
 10
202.719
 20
123.560
 30
0.00000
  70
    32
  0
VERTEX
  8
0
  5
460D
 10
202.632
 20
123.580
 30
0.00000
  70
    32
  0
VERTEX
  8
0
  5
460E
 10
202.546
 20
123.603
 30
0.00000
  70
    32
  0
VERTEX
  8
0
  5
460F
 10
202.460
 20
123.628
 30
0.00000
  70
    32
  0
VERTEX
  8
0
  5
4610
 10
202.374
 20
123.655
 30
0.00000
  70
    32
  0
VERTEX
  8
0
  5
4611
 10
202.289
 20
123.685
 30
0.00000
  70
    32
  0
VERTEX
  8
0
  5
4612
 10
202.205
 20
123.717
 30
0.00000
  70
    32
  0
VERTEX
  8
0
  5
4613
 10
202.122
 20
123.751
 30
0.00000
  70
    32
  0
VERTEX
  8
0
  5
4614
 10
202.039
 20
123.787
 30
0.00000
  70
    32
  0
VERTEX
  8
0
  5
4615
 10
201.957
 20
123.826
 30
0.00000
  70
    32
  0
VERTEX
  8
0
  5
4616
 10
201.876
 20
123.867
 30
0.00000
  70
    32
  0
VERTEX
  8
0
  5
4617
 10
201.796
 20
123.910
 30
0.00000
  70
    32
  0
VERTEX
  8
0
  5
4618
 10
201.718
 20
123.955
 30
0.00000
  70
    32
  0
VERTEX
  8
0
  5
4619
 10
201.640
 20
124.002
 30
0.00000
  70
    32
  0
VERTEX
  8
0
  5
461A
 10
201.563
 20
124.052
 30
0.00000
  70
    32
  0
VERTEX
  8
0
  5
461B
 10
201.487
 20
124.103
 30
0.00000
  70
    32
  0
VERTEX
  8
0
  5
461C
 10
201.412
 20
124.157
 30
0.00000
  70
    32
  0
VERTEX
  8
0
  5
461D
 10
201.339
 20
124.212
 30
0.00000
  70
    32
  0
VERTEX
  8
0
  5
461E
 10
201.267
 20
124.270
 30
0.00000
  70
    32
  0
VERTEX
  8
0
  5
461F
 10
201.196
 20
124.329
 30
0.00000
  70
    32
  0
VERTEX
  8
0
  5
4620
 10
201.127
 20
124.391
 30
0.00000
  70
    32
  0
VERTEX
  8
0
  5
4621
 10
201.059
 20
124.454
 30
0.00000
  70
    32
  0
VERTEX
  8
0
  5
4622
 10
200.992
 20
124.519
 30
0.00000
  70
    32
  0
VERTEX
  8
0
  5
4623
 10
200.927
 20
124.586
 30
0.00000
  70
    32
  0
VERTEX
  8
0
  5
4624
 10
200.863
 20
124.654
 30
0.00000
  70
    32
  0
VERTEX
  8
0
  5
4625
 10
200.801
 20
124.725
 30
0.00000
  70
    32
  0
VERTEX
  8
0
  5
4626
 10
200.740
 20
124.797
 30
0.00000
  70
    32
  0
VERTEX
  8
0
  5
4627
 10
200.681
 20
124.870
 30
0.00000
  70
    32
  0
VERTEX
  8
0
  5
4628
 10
200.624
 20
124.945
 30
0.00000
  70
    32
  0
VERTEX
  8
0
  5
4629
 10
200.568
 20
125.022
 30
0.00000
  70
    32
  0
VERTEX
  8
0
  5
462A
 10
200.515
 20
125.100
 30
0.00000
  70
    32
  0
VERTEX
  8
0
  5
462B
 10
200.463
 20
125.180
 30
0.00000
  70
    32
  0
VERTEX
  8
0
  5
462C
 10
200.412
 20
125.261
 30
0.00000
  70
    32
  0
VERTEX
  8
0
  5
462D
 10
200.364
 20
125.343
 30
0.00000
  70
    32
  0
VERTEX
  8
0
  5
462E
 10
200.317
 20
125.426
 30
0.00000
  70
    32
  0
VERTEX
  8
0
  5
462F
 10
200.272
 20
125.511
 30
0.00000
  70
    32
  0
VERTEX
  8
0
  5
4630
 10
200.229
 20
125.597
 30
0.00000
  70
    32
  0
VERTEX
  8
0
  5
4631
 10
200.188
 20
125.684
 30
0.00000
  70
    32
  0
VERTEX
  8
0
  5
4632
 10
200.149
 20
125.773
 30
0.00000
  70
    32
  0
VERTEX
  8
0
  5
4633
 10
200.112
 20
125.862
 30
0.00000
  70
    32
  0
VERTEX
  8
0
  5
4634
 10
200.077
 20
125.952
 30
0.00000
  70
    32
  0
VERTEX
  8
0
  5
4635
 10
200.044
 20
126.043
 30
0.00000
  70
    32
  0
VERTEX
  8
0
  5
4636
 10
200.013
 20
126.135
 30
0.00000
  70
    32
  0
VERTEX
  8
0
  5
4637
 10
199.984
 20
126.228
 30
0.00000
  70
    32
  0
VERTEX
  8
0
  5
4638
 10
199.957
 20
126.322
 30
0.00000
  70
    32
  0
VERTEX
  8
0
  5
4639
 10
199.933
 20
126.416
 30
0.00000
  70
    32
  0
VERTEX
  8
0
  5
463A
 10
199.910
 20
126.511
 30
0.00000
  70
    32
  0
VERTEX
  8
0
  5
463B
 10
199.889
 20
126.606
 30
0.00000
  70
    32
  0
VERTEX
  8
0
  5
463C
 10
199.871
 20
126.702
 30
0.00000
  70
    32
  0
VERTEX
  8
0
  5
463D
 10
199.855
 20
126.799
 30
0.00000
  70
    32
  0
VERTEX
  8
0
  5
463E
 10
199.840
 20
126.896
 30
0.00000
  70
    32
  0
VERTEX
  8
0
  5
463F
 10
199.828
 20
126.993
 30
0.00000
  70
    32
  0
VERTEX
  8
0
  5
4640
 10
199.819
 20
127.091
 30
0.00000
  70
    32
  0
VERTEX
  8
0
  5
4641
 10
199.811
 20
127.189
 30
0.00000
  70
    32
  0
VERTEX
  8
0
  5
4642
 10
199.806
 20
127.287
 30
0.00000
  70
    32
  0
VERTEX
  8
0
  5
4643
 10
199.802
 20
127.385
 30
0.00000
  70
    32
  0
VERTEX
  8
0
  5
4644
 10
199.801
 20
127.483
 30
0.00000
  70
    32
  0
VERTEX
  8
0
  5
4645
 10
199.802
 20
127.581
 30
0.00000
  70
    32
  0
VERTEX
  8
0
  5
4646
 10
199.806
 20
127.679
 30
0.00000
  70
    32
  0
VERTEX
  8
0
  5
4647
 10
199.811
 20
127.777
 30
0.00000
  70
    32
  0
VERTEX
  8
0
  5
4648
 10
199.819
 20
127.875
 30
0.00000
  70
    32
  0
VERTEX
  8
0
  5
4649
 10
199.828
 20
127.972
 30
0.00000
  70
    32
  0
VERTEX
  8
0
  5
464A
 10
199.840
 20
128.070
 30
0.00000
  70
    32
  0
VERTEX
  8
0
  5
464B
 10
199.855
 20
128.167
 30
0.00000
  70
    32
  0
VERTEX
  8
0
  5
464C
 10
199.871
 20
128.263
 30
0.00000
  70
    32
  0
VERTEX
  8
0
  5
464D
 10
199.889
 20
128.359
 30
0.00000
  70
    32
  0
VERTEX
  8
0
  5
464E
 10
199.910
 20
128.455
 30
0.00000
  70
    32
  0
VERTEX
  8
0
  5
464F
 10
199.933
 20
128.550
 30
0.00000
  70
    32
  0
VERTEX
  8
0
  5
4650
 10
199.957
 20
128.644
 30
0.00000
  70
    32
  0
VERTEX
  8
0
  5
4651
 10
199.984
 20
128.738
 30
0.00000
  70
    32
  0
VERTEX
  8
0
  5
4652
 10
200.013
 20
128.830
 30
0.00000
  70
    32
  0
VERTEX
  8
0
  5
4653
 10
200.044
 20
128.922
 30
0.00000
  70
    32
  0
VERTEX
  8
0
  5
4654
 10
200.077
 20
129.014
 30
0.00000
  70
    32
  0
VERTEX
  8
0
  5
4655
 10
200.112
 20
129.104
 30
0.00000
  70
    32
  0
VERTEX
  8
0
  5
4656
 10
200.149
 20
129.193
 30
0.00000
  70
    32
  0
VERTEX
  8
0
  5
4657
 10
200.188
 20
129.281
 30
0.00000
  70
    32
  0
VERTEX
  8
0
  5
4658
 10
200.229
 20
129.368
 30
0.00000
  70
    32
  0
VERTEX
  8
0
  5
4659
 10
200.272
 20
129.454
 30
0.00000
  70
    32
  0
VERTEX
  8
0
  5
465A
 10
200.317
 20
129.539
 30
0.00000
  70
    32
  0
VERTEX
  8
0
  5
465B
 10
200.364
 20
129.623
 30
0.00000
  70
    32
  0
VERTEX
  8
0
  5
465C
 10
200.412
 20
129.705
 30
0.00000
  70
    32
  0
VERTEX
  8
0
  5
465D
 10
200.463
 20
129.786
 30
0.00000
  70
    32
  0
VERTEX
  8
0
  5
465E
 10
200.515
 20
129.866
 30
0.00000
  70
    32
  0
VERTEX
  8
0
  5
465F
 10
200.568
 20
129.944
 30
0.00000
  70
    32
  0
VERTEX
  8
0
  5
4660
 10
200.624
 20
130.020
 30
0.00000
  70
    32
  0
VERTEX
  8
0
  5
4661
 10
200.681
 20
130.095
 30
0.00000
  70
    32
  0
VERTEX
  8
0
  5
4662
 10
200.740
 20
130.169
 30
0.00000
  70
    32
  0
VERTEX
  8
0
  5
4663
 10
200.801
 20
130.241
 30
0.00000
  70
    32
  0
VERTEX
  8
0
  5
4664
 10
200.863
 20
130.311
 30
0.00000
  70
    32
  0
VERTEX
  8
0
  5
4665
 10
200.927
 20
130.380
 30
0.00000
  70
    32
  0
VERTEX
  8
0
  5
4666
 10
200.992
 20
130.447
 30
0.00000
  70
    32
  0
VERTEX
  8
0
  5
4667
 10
201.059
 20
130.512
 30
0.00000
  70
    32
  0
VERTEX
  8
0
  5
4668
 10
201.127
 20
130.575
 30
0.00000
  70
    32
  0
VERTEX
  8
0
  5
4669
 10
201.196
 20
130.636
 30
0.00000
  70
    32
  0
VERTEX
  8
0
  5
466A
 10
201.267
 20
130.696
 30
0.00000
  70
    32
  0
VERTEX
  8
0
  5
466B
 10
201.339
 20
130.753
 30
0.00000
  70
    32
  0
VERTEX
  8
0
  5
466C
 10
201.412
 20
130.809
 30
0.00000
  70
    32
  0
VERTEX
  8
0
  5
466D
 10
201.487
 20
130.862
 30
0.00000
  70
    32
  0
VERTEX
  8
0
  5
466E
 10
201.563
 20
130.914
 30
0.00000
  70
    32
  0
VERTEX
  8
0
  5
466F
 10
201.640
 20
130.963
 30
0.00000
  70
    32
  0
VERTEX
  8
0
  5
4670
 10
201.718
 20
131.010
 30
0.00000
  70
    32
  0
VERTEX
  8
0
  5
4671
 10
201.796
 20
131.056
 30
0.00000
  70
    32
  0
VERTEX
  8
0
  5
4672
 10
201.876
 20
131.099
 30
0.00000
  70
    32
  0
VERTEX
  8
0
  5
4673
 10
201.957
 20
131.140
 30
0.00000
  70
    32
  0
VERTEX
  8
0
  5
4674
 10
202.039
 20
131.178
 30
0.00000
  70
    32
  0
VERTEX
  8
0
  5
4675
 10
202.122
 20
131.215
 30
0.00000
  70
    32
  0
VERTEX
  8
0
  5
4676
 10
202.205
 20
131.249
 30
0.00000
  70
    32
  0
VERTEX
  8
0
  5
4677
 10
202.289
 20
131.281
 30
0.00000
  70
    32
  0
VERTEX
  8
0
  5
4678
 10
202.374
 20
131.311
 30
0.00000
  70
    32
  0
VERTEX
  8
0
  5
4679
 10
202.460
 20
131.338
 30
0.00000
  70
    32
  0
VERTEX
  8
0
  5
467A
 10
202.546
 20
131.363
 30
0.00000
  70
    32
  0
VERTEX
  8
0
  5
467B
 10
202.632
 20
131.386
 30
0.00000
  70
    32
  0
VERTEX
  8
0
  5
467C
 10
202.719
 20
131.406
 30
0.00000
  70
    32
  0
VERTEX
  8
0
  5
467D
 10
202.807
 20
131.424
 30
0.00000
  70
    32
  0
VERTEX
  8
0
  5
467E
 10
202.895
 20
131.440
 30
0.00000
  70
    32
  0
VERTEX
  8
0
  5
467F
 10
202.983
 20
131.453
 30
0.00000
  70
    32
  0
VERTEX
  8
0
  5
4680
 10
203.071
 20
131.464
 30
0.00000
  70
    32
  0
VERTEX
  8
0
  5
4681
 10
203.160
 20
131.472
 30
0.00000
  70
    32
  0
VERTEX
  8
0
  5
4682
 10
203.249
 20
131.478
 30
0.00000
  70
    32
  0
VERTEX
  8
0
  5
4683
 10
203.337
 20
131.482
 30
0.00000
  70
    32
  0
VERTEX
  8
0
  5
4684
 10
203.426
 20
131.483
 30
0.00000
  70
    32
  0
SEQEND
  8
0
  5
4685
  0
POLYLINE
  5
2836
  8
0
 10
367.6203018874697932
 20
123.4828067786693993
 30
0.0
 66
     1
 70
     8
  0
VERTEX
  8
0
  5
4686
 10
367.620
 20
123.483
 30
0.00000
  70
    32
  0
VERTEX
  8
0
  5
4687
 10
367.662
 20
123.484
 30
0.00000
  70
    32
  0
VERTEX
  8
0
  5
4688
 10
367.703
 20
123.488
 30
0.00000
  70
    32
  0
VERTEX
  8
0
  5
4689
 10
367.745
 20
123.494
 30
0.00000
  70
    32
  0
VERTEX
  8
0
  5
468A
 10
367.786
 20
123.502
 30
0.00000
  70
    32
  0
VERTEX
  8
0
  5
468B
 10
367.827
 20
123.513
 30
0.00000
  70
    32
  0
VERTEX
  8
0
  5
468C
 10
367.868
 20
123.526
 30
0.00000
  70
    32
  0
VERTEX
  8
0
  5
468D
 10
367.909
 20
123.542
 30
0.00000
  70
    32
  0
VERTEX
  8
0
  5
468E
 10
367.950
 20
123.560
 30
0.00000
  70
    32
  0
VERTEX
  8
0
  5
468F
 10
367.991
 20
123.580
 30
0.00000
  70
    32
  0
VERTEX
  8
0
  5
4690
 10
368.031
 20
123.603
 30
0.00000
  70
    32
  0
VERTEX
  8
0
  5
4691
 10
368.071
 20
123.628
 30
0.00000
  70
    32
  0
VERTEX
  8
0
  5
4692
 10
368.111
 20
123.655
 30
0.00000
  70
    32
  0
VERTEX
  8
0
  5
4693
 10
368.151
 20
123.685
 30
0.00000
  70
    32
  0
VERTEX
  8
0
  5
4694
 10
368.190
 20
123.717
 30
0.00000
  70
    32
  0
VERTEX
  8
0
  5
4695
 10
368.229
 20
123.751
 30
0.00000
  70
    32
  0
VERTEX
  8
0
  5
4696
 10
368.267
 20
123.787
 30
0.00000
  70
    32
  0
VERTEX
  8
0
  5
4697
 10
368.305
 20
123.826
 30
0.00000
  70
    32
  0
VERTEX
  8
0
  5
4698
 10
368.343
 20
123.867
 30
0.00000
  70
    32
  0
VERTEX
  8
0
  5
4699
 10
368.380
 20
123.910
 30
0.00000
  70
    32
  0
VERTEX
  8
0
  5
469A
 10
368.417
 20
123.955
 30
0.00000
  70
    32
  0
VERTEX
  8
0
  5
469B
 10
368.454
 20
124.002
 30
0.00000
  70
    32
  0
VERTEX
  8
0
  5
469C
 10
368.489
 20
124.052
 30
0.00000
  70
    32
  0
VERTEX
  8
0
  5
469D
 10
368.525
 20
124.103
 30
0.00000
  70
    32
  0
VERTEX
  8
0
  5
469E
 10
368.559
 20
124.157
 30
0.00000
  70
    32
  0
VERTEX
  8
0
  5
469F
 10
368.594
 20
124.212
 30
0.00000
  70
    32
  0
VERTEX
  8
0
  5
46A0
 10
368.627
 20
124.270
 30
0.00000
  70
    32
  0
VERTEX
  8
0
  5
46A1
 10
368.660
 20
124.329
 30
0.00000
  70
    32
  0
VERTEX
  8
0
  5
46A2
 10
368.693
 20
124.391
 30
0.00000
  70
    32
  0
VERTEX
  8
0
  5
46A3
 10
368.724
 20
124.454
 30
0.00000
  70
    32
  0
VERTEX
  8
0
  5
46A4
 10
368.756
 20
124.519
 30
0.00000
  70
    32
  0
VERTEX
  8
0
  5
46A5
 10
368.786
 20
124.586
 30
0.00000
  70
    32
  0
VERTEX
  8
0
  5
46A6
 10
368.816
 20
124.654
 30
0.00000
  70
    32
  0
VERTEX
  8
0
  5
46A7
 10
368.845
 20
124.725
 30
0.00000
  70
    32
  0
VERTEX
  8
0
  5
46A8
 10
368.873
 20
124.797
 30
0.00000
  70
    32
  0
VERTEX
  8
0
  5
46A9
 10
368.900
 20
124.870
 30
0.00000
  70
    32
  0
VERTEX
  8
0
  5
46AA
 10
368.927
 20
124.945
 30
0.00000
  70
    32
  0
VERTEX
  8
0
  5
46AB
 10
368.953
 20
125.022
 30
0.00000
  70
    32
  0
VERTEX
  8
0
  5
46AC
 10
368.978
 20
125.100
 30
0.00000
  70
    32
  0
VERTEX
  8
0
  5
46AD
 10
369.002
 20
125.180
 30
0.00000
  70
    32
  0
VERTEX
  8
0
  5
46AE
 10
369.026
 20
125.261
 30
0.00000
  70
    32
  0
VERTEX
  8
0
  5
46AF
 10
369.049
 20
125.343
 30
0.00000
  70
    32
  0
VERTEX
  8
0
  5
46B0
 10
369.070
 20
125.426
 30
0.00000
  70
    32
  0
VERTEX
  8
0
  5
46B1
 10
369.091
 20
125.511
 30
0.00000
  70
    32
  0
VERTEX
  8
0
  5
46B2
 10
369.111
 20
125.597
 30
0.00000
  70
    32
  0
VERTEX
  8
0
  5
46B3
 10
369.130
 20
125.684
 30
0.00000
  70
    32
  0
VERTEX
  8
0
  5
46B4
 10
369.148
 20
125.773
 30
0.00000
  70
    32
  0
VERTEX
  8
0
  5
46B5
 10
369.166
 20
125.862
 30
0.00000
  70
    32
  0
VERTEX
  8
0
  5
46B6
 10
369.182
 20
125.952
 30
0.00000
  70
    32
  0
VERTEX
  8
0
  5
46B7
 10
369.198
 20
126.043
 30
0.00000
  70
    32
  0
VERTEX
  8
0
  5
46B8
 10
369.212
 20
126.135
 30
0.00000
  70
    32
  0
VERTEX
  8
0
  5
46B9
 10
369.225
 20
126.228
 30
0.00000
  70
    32
  0
VERTEX
  8
0
  5
46BA
 10
369.238
 20
126.322
 30
0.00000
  70
    32
  0
VERTEX
  8
0
  5
46BB
 10
369.250
 20
126.416
 30
0.00000
  70
    32
  0
VERTEX
  8
0
  5
46BC
 10
369.260
 20
126.511
 30
0.00000
  70
    32
  0
VERTEX
  8
0
  5
46BD
 10
369.270
 20
126.606
 30
0.00000
  70
    32
  0
VERTEX
  8
0
  5
46BE
 10
369.278
 20
126.702
 30
0.00000
  70
    32
  0
VERTEX
  8
0
  5
46BF
 10
369.286
 20
126.799
 30
0.00000
  70
    32
  0
VERTEX
  8
0
  5
46C0
 10
369.292
 20
126.896
 30
0.00000
  70
    32
  0
VERTEX
  8
0
  5
46C1
 10
369.298
 20
126.993
 30
0.00000
  70
    32
  0
VERTEX
  8
0
  5
46C2
 10
369.303
 20
127.091
 30
0.00000
  70
    32
  0
VERTEX
  8
0
  5
46C3
 10
369.306
 20
127.189
 30
0.00000
  70
    32
  0
VERTEX
  8
0
  5
46C4
 10
369.309
 20
127.287
 30
0.00000
  70
    32
  0
VERTEX
  8
0
  5
46C5
 10
369.310
 20
127.385
 30
0.00000
  70
    32
  0
VERTEX
  8
0
  5
46C6
 10
369.311
 20
127.483
 30
0.00000
  70
    32
  0
VERTEX
  8
0
  5
46C7
 10
369.310
 20
127.581
 30
0.00000
  70
    32
  0
VERTEX
  8
0
  5
46C8
 10
369.309
 20
127.679
 30
0.00000
  70
    32
  0
VERTEX
  8
0
  5
46C9
 10
369.306
 20
127.777
 30
0.00000
  70
    32
  0
VERTEX
  8
0
  5
46CA
 10
369.303
 20
127.875
 30
0.00000
  70
    32
  0
VERTEX
  8
0
  5
46CB
 10
369.298
 20
127.972
 30
0.00000
  70
    32
  0
VERTEX
  8
0
  5
46CC
 10
369.292
 20
128.070
 30
0.00000
  70
    32
  0
VERTEX
  8
0
  5
46CD
 10
369.286
 20
128.167
 30
0.00000
  70
    32
  0
VERTEX
  8
0
  5
46CE
 10
369.278
 20
128.263
 30
0.00000
  70
    32
  0
VERTEX
  8
0
  5
46CF
 10
369.270
 20
128.359
 30
0.00000
  70
    32
  0
VERTEX
  8
0
  5
46D0
 10
369.260
 20
128.455
 30
0.00000
  70
    32
  0
VERTEX
  8
0
  5
46D1
 10
369.250
 20
128.550
 30
0.00000
  70
    32
  0
VERTEX
  8
0
  5
46D2
 10
369.238
 20
128.644
 30
0.00000
  70
    32
  0
VERTEX
  8
0
  5
46D3
 10
369.225
 20
128.738
 30
0.00000
  70
    32
  0
VERTEX
  8
0
  5
46D4
 10
369.212
 20
128.830
 30
0.00000
  70
    32
  0
VERTEX
  8
0
  5
46D5
 10
369.198
 20
128.922
 30
0.00000
  70
    32
  0
VERTEX
  8
0
  5
46D6
 10
369.182
 20
129.014
 30
0.00000
  70
    32
  0
VERTEX
  8
0
  5
46D7
 10
369.166
 20
129.104
 30
0.00000
  70
    32
  0
VERTEX
  8
0
  5
46D8
 10
369.148
 20
129.193
 30
0.00000
  70
    32
  0
VERTEX
  8
0
  5
46D9
 10
369.130
 20
129.281
 30
0.00000
  70
    32
  0
VERTEX
  8
0
  5
46DA
 10
369.111
 20
129.368
 30
0.00000
  70
    32
  0
VERTEX
  8
0
  5
46DB
 10
369.091
 20
129.454
 30
0.00000
  70
    32
  0
VERTEX
  8
0
  5
46DC
 10
369.070
 20
129.539
 30
0.00000
  70
    32
  0
VERTEX
  8
0
  5
46DD
 10
369.049
 20
129.623
 30
0.00000
  70
    32
  0
VERTEX
  8
0
  5
46DE
 10
369.026
 20
129.705
 30
0.00000
  70
    32
  0
VERTEX
  8
0
  5
46DF
 10
369.002
 20
129.786
 30
0.00000
  70
    32
  0
VERTEX
  8
0
  5
46E0
 10
368.978
 20
129.866
 30
0.00000
  70
    32
  0
VERTEX
  8
0
  5
46E1
 10
368.953
 20
129.944
 30
0.00000
  70
    32
  0
VERTEX
  8
0
  5
46E2
 10
368.927
 20
130.020
 30
0.00000
  70
    32
  0
VERTEX
  8
0
  5
46E3
 10
368.900
 20
130.095
 30
0.00000
  70
    32
  0
VERTEX
  8
0
  5
46E4
 10
368.873
 20
130.169
 30
0.00000
  70
    32
  0
VERTEX
  8
0
  5
46E5
 10
368.845
 20
130.241
 30
0.00000
  70
    32
  0
VERTEX
  8
0
  5
46E6
 10
368.816
 20
130.311
 30
0.00000
  70
    32
  0
VERTEX
  8
0
  5
46E7
 10
368.786
 20
130.380
 30
0.00000
  70
    32
  0
VERTEX
  8
0
  5
46E8
 10
368.756
 20
130.447
 30
0.00000
  70
    32
  0
VERTEX
  8
0
  5
46E9
 10
368.724
 20
130.512
 30
0.00000
  70
    32
  0
VERTEX
  8
0
  5
46EA
 10
368.693
 20
130.575
 30
0.00000
  70
    32
  0
VERTEX
  8
0
  5
46EB
 10
368.660
 20
130.636
 30
0.00000
  70
    32
  0
VERTEX
  8
0
  5
46EC
 10
368.627
 20
130.696
 30
0.00000
  70
    32
  0
VERTEX
  8
0
  5
46ED
 10
368.594
 20
130.753
 30
0.00000
  70
    32
  0
VERTEX
  8
0
  5
46EE
 10
368.559
 20
130.809
 30
0.00000
  70
    32
  0
VERTEX
  8
0
  5
46EF
 10
368.525
 20
130.862
 30
0.00000
  70
    32
  0
VERTEX
  8
0
  5
46F0
 10
368.489
 20
130.914
 30
0.00000
  70
    32
  0
VERTEX
  8
0
  5
46F1
 10
368.454
 20
130.963
 30
0.00000
  70
    32
  0
VERTEX
  8
0
  5
46F2
 10
368.417
 20
131.010
 30
0.00000
  70
    32
  0
VERTEX
  8
0
  5
46F3
 10
368.380
 20
131.056
 30
0.00000
  70
    32
  0
VERTEX
  8
0
  5
46F4
 10
368.343
 20
131.099
 30
0.00000
  70
    32
  0
VERTEX
  8
0
  5
46F5
 10
368.305
 20
131.140
 30
0.00000
  70
    32
  0
VERTEX
  8
0
  5
46F6
 10
368.267
 20
131.178
 30
0.00000
  70
    32
  0
VERTEX
  8
0
  5
46F7
 10
368.229
 20
131.215
 30
0.00000
  70
    32
  0
VERTEX
  8
0
  5
46F8
 10
368.190
 20
131.249
 30
0.00000
  70
    32
  0
VERTEX
  8
0
  5
46F9
 10
368.151
 20
131.281
 30
0.00000
  70
    32
  0
VERTEX
  8
0
  5
46FA
 10
368.111
 20
131.311
 30
0.00000
  70
    32
  0
VERTEX
  8
0
  5
46FB
 10
368.071
 20
131.338
 30
0.00000
  70
    32
  0
VERTEX
  8
0
  5
46FC
 10
368.031
 20
131.363
 30
0.00000
  70
    32
  0
VERTEX
  8
0
  5
46FD
 10
367.991
 20
131.386
 30
0.00000
  70
    32
  0
VERTEX
  8
0
  5
46FE
 10
367.950
 20
131.406
 30
0.00000
  70
    32
  0
VERTEX
  8
0
  5
46FF
 10
367.909
 20
131.424
 30
0.00000
  70
    32
  0
VERTEX
  8
0
  5
4700
 10
367.868
 20
131.440
 30
0.00000
  70
    32
  0
VERTEX
  8
0
  5
4701
 10
367.827
 20
131.453
 30
0.00000
  70
    32
  0
VERTEX
  8
0
  5
4702
 10
367.786
 20
131.464
 30
0.00000
  70
    32
  0
VERTEX
  8
0
  5
4703
 10
367.745
 20
131.472
 30
0.00000
  70
    32
  0
VERTEX
  8
0
  5
4704
 10
367.703
 20
131.478
 30
0.00000
  70
    32
  0
VERTEX
  8
0
  5
4705
 10
367.662
 20
131.482
 30
0.00000
  70
    32
  0
VERTEX
  8
0
  5
4706
 10
367.620
 20
131.483
 30
0.00000
  70
    32
  0
SEQEND
  8
0
  5
4707
  0
LINE
  5
2837
  8
0
 10
368.7078712319138845
 20
121.4828067786693993
 30
0.0
 11
367.8015634448772744
 21
121.4828067786693993
 31
0.0
  0
LINE
  5
2838
  8
0
 10
367.8015634448772744
 20
133.4828067786694135
 30
0.0
 11
368.7078712319138845
 21
133.4828067786694135
 31
0.0
  0
POLYLINE
  5
2839
  8
0
 10
365.9115571213072826
 20
123.4828067786693993
 30
0.0
 66
     1
 70
     8
  0
VERTEX
  8
0
  5
4708
 10
365.912
 20
123.483
 30
0.00000
  70
    32
  0
VERTEX
  8
0
  5
4709
 10
365.977
 20
123.317
 30
0.00000
  70
    32
  0
VERTEX
  8
0
  5
470A
 10
366.044
 20
123.157
 30
0.00000
  70
    32
  0
VERTEX
  8
0
  5
470B
 10
366.114
 20
123.004
 30
0.00000
  70
    32
  0
VERTEX
  8
0
  5
470C
 10
366.187
 20
122.857
 30
0.00000
  70
    32
  0
VERTEX
  8
0
  5
470D
 10
366.262
 20
122.716
 30
0.00000
  70
    32
  0
VERTEX
  8
0
  5
470E
 10
366.339
 20
122.582
 30
0.00000
  70
    32
  0
VERTEX
  8
0
  5
470F
 10
366.418
 20
122.455
 30
0.00000
  70
    32
  0
VERTEX
  8
0
  5
4710
 10
366.499
 20
122.335
 30
0.00000
  70
    32
  0
VERTEX
  8
0
  5
4711
 10
366.582
 20
122.223
 30
0.00000
  70
    32
  0
VERTEX
  8
0
  5
4712
 10
366.666
 20
122.118
 30
0.00000
  70
    32
  0
VERTEX
  8
0
  5
4713
 10
366.753
 20
122.020
 30
0.00000
  70
    32
  0
VERTEX
  8
0
  5
4714
 10
366.840
 20
121.931
 30
0.00000
  70
    32
  0
VERTEX
  8
0
  5
4715
 10
366.929
 20
121.849
 30
0.00000
  70
    32
  0
VERTEX
  8
0
  5
4716
 10
367.020
 20
121.775
 30
0.00000
  70
    32
  0
VERTEX
  8
0
  5
4717
 10
367.111
 20
121.710
 30
0.00000
  70
    32
  0
VERTEX
  8
0
  5
4718
 10
367.203
 20
121.652
 30
0.00000
  70
    32
  0
VERTEX
  8
0
  5
4719
 10
367.297
 20
121.603
 30
0.00000
  70
    32
  0
VERTEX
  8
0
  5
471A
 10
367.391
 20
121.562
 30
0.00000
  70
    32
  0
VERTEX
  8
0
  5
471B
 10
367.485
 20
121.530
 30
0.00000
  70
    32
  0
VERTEX
  8
0
  5
471C
 10
367.580
 20
121.506
 30
0.00000
  70
    32
  0
VERTEX
  8
0
  5
471D
 10
367.676
 20
121.490
 30
0.00000
  70
    32
  0
VERTEX
  8
0
  5
471E
 10
367.771
 20
121.483
 30
0.00000
  70
    32
  0
VERTEX
  8
0
  5
471F
 10
367.867
 20
121.485
 30
0.00000
  70
    32
  0
VERTEX
  8
0
  5
4720
 10
367.962
 20
121.495
 30
0.00000
  70
    32
  0
VERTEX
  8
0
  5
4721
 10
368.057
 20
121.513
 30
0.00000
  70
    32
  0
VERTEX
  8
0
  5
4722
 10
368.152
 20
121.540
 30
0.00000
  70
    32
  0
VERTEX
  8
0
  5
4723
 10
368.247
 20
121.576
 30
0.00000
  70
    32
  0
VERTEX
  8
0
  5
4724
 10
368.340
 20
121.620
 30
0.00000
  70
    32
  0
VERTEX
  8
0
  5
4725
 10
368.433
 20
121.672
 30
0.00000
  70
    32
  0
VERTEX
  8
0
  5
4726
 10
368.525
 20
121.732
 30
0.00000
  70
    32
  0
VERTEX
  8
0
  5
4727
 10
368.616
 20
121.801
 30
0.00000
  70
    32
  0
VERTEX
  8
0
  5
4728
 10
368.706
 20
121.878
 30
0.00000
  70
    32
  0
VERTEX
  8
0
  5
4729
 10
368.795
 20
121.962
 30
0.00000
  70
    32
  0
VERTEX
  8
0
  5
472A
 10
368.882
 20
122.055
 30
0.00000
  70
    32
  0
VERTEX
  8
0
  5
472B
 10
368.968
 20
122.155
 30
0.00000
  70
    32
  0
VERTEX
  8
0
  5
472C
 10
369.052
 20
122.263
 30
0.00000
  70
    32
  0
VERTEX
  8
0
  5
472D
 10
369.134
 20
122.378
 30
0.00000
  70
    32
  0
VERTEX
  8
0
  5
472E
 10
369.214
 20
122.500
 30
0.00000
  70
    32
  0
VERTEX
  8
0
  5
472F
 10
369.293
 20
122.630
 30
0.00000
  70
    32
  0
VERTEX
  8
0
  5
4730
 10
369.369
 20
122.766
 30
0.00000
  70
    32
  0
VERTEX
  8
0
  5
4731
 10
369.443
 20
122.909
 30
0.00000
  70
    32
  0
VERTEX
  8
0
  5
4732
 10
369.515
 20
123.059
 30
0.00000
  70
    32
  0
VERTEX
  8
0
  5
4733
 10
369.584
 20
123.215
 30
0.00000
  70
    32
  0
VERTEX
  8
0
  5
4734
 10
369.650
 20
123.377
 30
0.00000
  70
    32
  0
VERTEX
  8
0
  5
4735
 10
369.715
 20
123.544
 30
0.00000
  70
    32
  0
VERTEX
  8
0
  5
4736
 10
369.776
 20
123.718
 30
0.00000
  70
    32
  0
VERTEX
  8
0
  5
4737
 10
369.834
 20
123.896
 30
0.00000
  70
    32
  0
VERTEX
  8
0
  5
4738
 10
369.890
 20
124.080
 30
0.00000
  70
    32
  0
VERTEX
  8
0
  5
4739
 10
369.943
 20
124.269
 30
0.00000
  70
    32
  0
VERTEX
  8
0
  5
473A
 10
369.992
 20
124.462
 30
0.00000
  70
    32
  0
VERTEX
  8
0
  5
473B
 10
370.039
 20
124.660
 30
0.00000
  70
    32
  0
VERTEX
  8
0
  5
473C
 10
370.082
 20
124.861
 30
0.00000
  70
    32
  0
VERTEX
  8
0
  5
473D
 10
370.123
 20
125.066
 30
0.00000
  70
    32
  0
VERTEX
  8
0
  5
473E
 10
370.159
 20
125.275
 30
0.00000
  70
    32
  0
VERTEX
  8
0
  5
473F
 10
370.193
 20
125.487
 30
0.00000
  70
    32
  0
VERTEX
  8
0
  5
4740
 10
370.223
 20
125.701
 30
0.00000
  70
    32
  0
VERTEX
  8
0
  5
4741
 10
370.250
 20
125.918
 30
0.00000
  70
    32
  0
VERTEX
  8
0
  5
4742
 10
370.273
 20
126.138
 30
0.00000
  70
    32
  0
VERTEX
  8
0
  5
4743
 10
370.292
 20
126.359
 30
0.00000
  70
    32
  0
VERTEX
  8
0
  5
4744
 10
370.309
 20
126.582
 30
0.00000
  70
    32
  0
VERTEX
  8
0
  5
4745
 10
370.321
 20
126.806
 30
0.00000
  70
    32
  0
VERTEX
  8
0
  5
4746
 10
370.330
 20
127.031
 30
0.00000
  70
    32
  0
VERTEX
  8
0
  5
4747
 10
370.335
 20
127.257
 30
0.00000
  70
    32
  0
VERTEX
  8
0
  5
4748
 10
370.337
 20
127.483
 30
0.00000
  70
    32
  0
VERTEX
  8
0
  5
4749
 10
370.335
 20
127.709
 30
0.00000
  70
    32
  0
VERTEX
  8
0
  5
474A
 10
370.330
 20
127.935
 30
0.00000
  70
    32
  0
VERTEX
  8
0
  5
474B
 10
370.321
 20
128.160
 30
0.00000
  70
    32
  0
VERTEX
  8
0
  5
474C
 10
370.309
 20
128.384
 30
0.00000
  70
    32
  0
VERTEX
  8
0
  5
474D
 10
370.292
 20
128.607
 30
0.00000
  70
    32
  0
VERTEX
  8
0
  5
474E
 10
370.273
 20
128.828
 30
0.00000
  70
    32
  0
VERTEX
  8
0
  5
474F
 10
370.250
 20
129.047
 30
0.00000
  70
    32
  0
VERTEX
  8
0
  5
4750
 10
370.223
 20
129.264
 30
0.00000
  70
    32
  0
VERTEX
  8
0
  5
4751
 10
370.193
 20
129.479
 30
0.00000
  70
    32
  0
VERTEX
  8
0
  5
4752
 10
370.159
 20
129.691
 30
0.00000
  70
    32
  0
VERTEX
  8
0
  5
4753
 10
370.123
 20
129.899
 30
0.00000
  70
    32
  0
VERTEX
  8
0
  5
4754
 10
370.082
 20
130.105
 30
0.00000
  70
    32
  0
VERTEX
  8
0
  5
4755
 10
370.039
 20
130.306
 30
0.00000
  70
    32
  0
VERTEX
  8
0
  5
4756
 10
369.992
 20
130.504
 30
0.00000
  70
    32
  0
VERTEX
  8
0
  5
4757
 10
369.943
 20
130.697
 30
0.00000
  70
    32
  0
VERTEX
  8
0
  5
4758
 10
369.890
 20
130.885
 30
0.00000
  70
    32
  0
VERTEX
  8
0
  5
4759
 10
369.834
 20
131.069
 30
0.00000
  70
    32
  0
VERTEX
  8
0
  5
475A
 10
369.776
 20
131.248
 30
0.00000
  70
    32
  0
VERTEX
  8
0
  5
475B
 10
369.715
 20
131.421
 30
0.00000
  70
    32
  0
VERTEX
  8
0
  5
475C
 10
369.650
 20
131.589
 30
0.00000
  70
    32
  0
VERTEX
  8
0
  5
475D
 10
369.584
 20
131.751
 30
0.00000
  70
    32
  0
VERTEX
  8
0
  5
475E
 10
369.515
 20
131.907
 30
0.00000
  70
    32
  0
VERTEX
  8
0
  5
475F
 10
369.443
 20
132.056
 30
0.00000
  70
    32
  0
VERTEX
  8
0
  5
4760
 10
369.369
 20
132.199
 30
0.00000
  70
    32
  0
VERTEX
  8
0
  5
4761
 10
369.293
 20
132.336
 30
0.00000
  70
    32
  0
VERTEX
  8
0
  5
4762
 10
369.214
 20
132.465
 30
0.00000
  70
    32
  0
VERTEX
  8
0
  5
4763
 10
369.134
 20
132.588
 30
0.00000
  70
    32
  0
VERTEX
  8
0
  5
4764
 10
369.052
 20
132.703
 30
0.00000
  70
    32
  0
VERTEX
  8
0
  5
4765
 10
368.968
 20
132.811
 30
0.00000
  70
    32
  0
VERTEX
  8
0
  5
4766
 10
368.882
 20
132.911
 30
0.00000
  70
    32
  0
VERTEX
  8
0
  5
4767
 10
368.795
 20
133.003
 30
0.00000
  70
    32
  0
VERTEX
  8
0
  5
4768
 10
368.706
 20
133.088
 30
0.00000
  70
    32
  0
VERTEX
  8
0
  5
4769
 10
368.616
 20
133.165
 30
0.00000
  70
    32
  0
VERTEX
  8
0
  5
476A
 10
368.525
 20
133.233
 30
0.00000
  70
    32
  0
VERTEX
  8
0
  5
476B
 10
368.433
 20
133.294
 30
0.00000
  70
    32
  0
VERTEX
  8
0
  5
476C
 10
368.340
 20
133.346
 30
0.00000
  70
    32
  0
VERTEX
  8
0
  5
476D
 10
368.247
 20
133.390
 30
0.00000
  70
    32
  0
VERTEX
  8
0
  5
476E
 10
368.152
 20
133.425
 30
0.00000
  70
    32
  0
VERTEX
  8
0
  5
476F
 10
368.057
 20
133.452
 30
0.00000
  70
    32
  0
VERTEX
  8
0
  5
4770
 10
367.962
 20
133.471
 30
0.00000
  70
    32
  0
VERTEX
  8
0
  5
4771
 10
367.867
 20
133.481
 30
0.00000
  70
    32
  0
VERTEX
  8
0
  5
4772
 10
367.771
 20
133.482
 30
0.00000
  70
    32
  0
VERTEX
  8
0
  5
4773
 10
367.676
 20
133.475
 30
0.00000
  70
    32
  0
VERTEX
  8
0
  5
4774
 10
367.580
 20
133.460
 30
0.00000
  70
    32
  0
VERTEX
  8
0
  5
4775
 10
367.485
 20
133.436
 30
0.00000
  70
    32
  0
VERTEX
  8
0
  5
4776
 10
367.391
 20
133.404
 30
0.00000
  70
    32
  0
VERTEX
  8
0
  5
4777
 10
367.297
 20
133.363
 30
0.00000
  70
    32
  0
VERTEX
  8
0
  5
4778
 10
367.203
 20
133.314
 30
0.00000
  70
    32
  0
VERTEX
  8
0
  5
4779
 10
367.111
 20
133.256
 30
0.00000
  70
    32
  0
VERTEX
  8
0
  5
477A
 10
367.020
 20
133.190
 30
0.00000
  70
    32
  0
VERTEX
  8
0
  5
477B
 10
366.929
 20
133.117
 30
0.00000
  70
    32
  0
VERTEX
  8
0
  5
477C
 10
366.840
 20
133.035
 30
0.00000
  70
    32
  0
VERTEX
  8
0
  5
477D
 10
366.753
 20
132.945
 30
0.00000
  70
    32
  0
VERTEX
  8
0
  5
477E
 10
366.666
 20
132.848
 30
0.00000
  70
    32
  0
VERTEX
  8
0
  5
477F
 10
366.582
 20
132.743
 30
0.00000
  70
    32
  0
VERTEX
  8
0
  5
4780
 10
366.499
 20
132.630
 30
0.00000
  70
    32
  0
VERTEX
  8
0
  5
4781
 10
366.418
 20
132.511
 30
0.00000
  70
    32
  0
VERTEX
  8
0
  5
4782
 10
366.339
 20
132.384
 30
0.00000
  70
    32
  0
VERTEX
  8
0
  5
4783
 10
366.262
 20
132.250
 30
0.00000
  70
    32
  0
VERTEX
  8
0
  5
4784
 10
366.187
 20
132.109
 30
0.00000
  70
    32
  0
VERTEX
  8
0
  5
4785
 10
366.114
 20
131.962
 30
0.00000
  70
    32
  0
VERTEX
  8
0
  5
4786
 10
366.044
 20
131.808
 30
0.00000
  70
    32
  0
VERTEX
  8
0
  5
4787
 10
365.977
 20
131.648
 30
0.00000
  70
    32
  0
VERTEX
  8
0
  5
4788
 10
365.912
 20
131.483
 30
0.00000
  70
    32
  0
SEQEND
  8
0
  5
4789
  0
LINE
  5
283A
  8
1
 10
318.8609429448982269
 20
127.4828067786693993
 30
0.0
 11
390.9583335282071062
 21
127.4828067786693993
 31
0.0
  0
POLYLINE
  5
283B
  8
0
 10
368.7078712319138845
 20
121.4828067786693993
 30
0.0
 66
     1
 70
     8
  0
VERTEX
  8
0
  5
478A
 10
368.708
 20
121.483
 30
0.00000
  70
    32
  0
VERTEX
  8
0
  5
478B
 10
368.770
 20
121.485
 30
0.00000
  70
    32
  0
VERTEX
  8
0
  5
478C
 10
368.832
 20
121.490
 30
0.00000
  70
    32
  0
VERTEX
  8
0
  5
478D
 10
368.894
 20
121.499
 30
0.00000
  70
    32
  0
VERTEX
  8
0
  5
478E
 10
368.956
 20
121.512
 30
0.00000
  70
    32
  0
VERTEX
  8
0
  5
478F
 10
369.018
 20
121.528
 30
0.00000
  70
    32
  0
VERTEX
  8
0
  5
4790
 10
369.080
 20
121.548
 30
0.00000
  70
    32
  0
VERTEX
  8
0
  5
4791
 10
369.141
 20
121.571
 30
0.00000
  70
    32
  0
VERTEX
  8
0
  5
4792
 10
369.203
 20
121.598
 30
0.00000
  70
    32
  0
VERTEX
  8
0
  5
4793
 10
369.263
 20
121.629
 30
0.00000
  70
    32
  0
VERTEX
  8
0
  5
4794
 10
369.324
 20
121.663
 30
0.00000
  70
    32
  0
VERTEX
  8
0
  5
4795
 10
369.384
 20
121.700
 30
0.00000
  70
    32
  0
VERTEX
  8
0
  5
4796
 10
369.444
 20
121.741
 30
0.00000
  70
    32
  0
VERTEX
  8
0
  5
4797
 10
369.503
 20
121.786
 30
0.00000
  70
    32
  0
VERTEX
  8
0
  5
4798
 10
369.562
 20
121.834
 30
0.00000
  70
    32
  0
VERTEX
  8
0
  5
4799
 10
369.620
 20
121.885
 30
0.00000
  70
    32
  0
VERTEX
  8
0
  5
479A
 10
369.678
 20
121.940
 30
0.00000
  70
    32
  0
VERTEX
  8
0
  5
479B
 10
369.735
 20
121.998
 30
0.00000
  70
    32
  0
VERTEX
  8
0
  5
479C
 10
369.792
 20
122.059
 30
0.00000
  70
    32
  0
VERTEX
  8
0
  5
479D
 10
369.848
 20
122.123
 30
0.00000
  70
    32
  0
VERTEX
  8
0
  5
479E
 10
369.903
 20
122.191
 30
0.00000
  70
    32
  0
VERTEX
  8
0
  5
479F
 10
369.958
 20
122.262
 30
0.00000
  70
    32
  0
VERTEX
  8
0
  5
47A0
 10
370.011
 20
122.336
 30
0.00000
  70
    32
  0
VERTEX
  8
0
  5
47A1
 10
370.064
 20
122.414
 30
0.00000
  70
    32
  0
VERTEX
  8
0
  5
47A2
 10
370.117
 20
122.494
 30
0.00000
  70
    32
  0
VERTEX
  8
0
  5
47A3
 10
370.168
 20
122.577
 30
0.00000
  70
    32
  0
VERTEX
  8
0
  5
47A4
 10
370.218
 20
122.664
 30
0.00000
  70
    32
  0
VERTEX
  8
0
  5
47A5
 10
370.268
 20
122.753
 30
0.00000
  70
    32
  0
VERTEX
  8
0
  5
47A6
 10
370.317
 20
122.845
 30
0.00000
  70
    32
  0
VERTEX
  8
0
  5
47A7
 10
370.364
 20
122.940
 30
0.00000
  70
    32
  0
VERTEX
  8
0
  5
47A8
 10
370.411
 20
123.037
 30
0.00000
  70
    32
  0
VERTEX
  8
0
  5
47A9
 10
370.456
 20
123.137
 30
0.00000
  70
    32
  0
VERTEX
  8
0
  5
47AA
 10
370.501
 20
123.240
 30
0.00000
  70
    32
  0
VERTEX
  8
0
  5
47AB
 10
370.544
 20
123.346
 30
0.00000
  70
    32
  0
VERTEX
  8
0
  5
47AC
 10
370.587
 20
123.453
 30
0.00000
  70
    32
  0
VERTEX
  8
0
  5
47AD
 10
370.628
 20
123.564
 30
0.00000
  70
    32
  0
VERTEX
  8
0
  5
47AE
 10
370.668
 20
123.676
 30
0.00000
  70
    32
  0
VERTEX
  8
0
  5
47AF
 10
370.707
 20
123.791
 30
0.00000
  70
    32
  0
VERTEX
  8
0
  5
47B0
 10
370.745
 20
123.909
 30
0.00000
  70
    32
  0
VERTEX
  8
0
  5
47B1
 10
370.781
 20
124.028
 30
0.00000
  70
    32
  0
VERTEX
  8
0
  5
47B2
 10
370.816
 20
124.149
 30
0.00000
  70
    32
  0
VERTEX
  8
0
  5
47B3
 10
370.850
 20
124.273
 30
0.00000
  70
    32
  0
VERTEX
  8
0
  5
47B4
 10
370.883
 20
124.398
 30
0.00000
  70
    32
  0
VERTEX
  8
0
  5
47B5
 10
370.914
 20
124.525
 30
0.00000
  70
    32
  0
VERTEX
  8
0
  5
47B6
 10
370.944
 20
124.654
 30
0.00000
  70
    32
  0
VERTEX
  8
0
  5
47B7
 10
370.973
 20
124.785
 30
0.00000
  70
    32
  0
VERTEX
  8
0
  5
47B8
 10
371.000
 20
124.917
 30
0.00000
  70
    32
  0
VERTEX
  8
0
  5
47B9
 10
371.026
 20
125.051
 30
0.00000
  70
    32
  0
VERTEX
  8
0
  5
47BA
 10
371.051
 20
125.187
 30
0.00000
  70
    32
  0
VERTEX
  8
0
  5
47BB
 10
371.074
 20
125.323
 30
0.00000
  70
    32
  0
VERTEX
  8
0
  5
47BC
 10
371.095
 20
125.461
 30
0.00000
  70
    32
  0
VERTEX
  8
0
  5
47BD
 10
371.116
 20
125.601
 30
0.00000
  70
    32
  0
VERTEX
  8
0
  5
47BE
 10
371.134
 20
125.741
 30
0.00000
  70
    32
  0
VERTEX
  8
0
  5
47BF
 10
371.152
 20
125.883
 30
0.00000
  70
    32
  0
VERTEX
  8
0
  5
47C0
 10
371.168
 20
126.025
 30
0.00000
  70
    32
  0
VERTEX
  8
0
  5
47C1
 10
371.182
 20
126.168
 30
0.00000
  70
    32
  0
VERTEX
  8
0
  5
47C2
 10
371.195
 20
126.312
 30
0.00000
  70
    32
  0
VERTEX
  8
0
  5
47C3
 10
371.206
 20
126.457
 30
0.00000
  70
    32
  0
VERTEX
  8
0
  5
47C4
 10
371.216
 20
126.602
 30
0.00000
  70
    32
  0
VERTEX
  8
0
  5
47C5
 10
371.225
 20
126.748
 30
0.00000
  70
    32
  0
VERTEX
  8
0
  5
47C6
 10
371.231
 20
126.895
 30
0.00000
  70
    32
  0
VERTEX
  8
0
  5
47C7
 10
371.237
 20
127.041
 30
0.00000
  70
    32
  0
VERTEX
  8
0
  5
47C8
 10
371.241
 20
127.188
 30
0.00000
  70
    32
  0
VERTEX
  8
0
  5
47C9
 10
371.243
 20
127.336
 30
0.00000
  70
    32
  0
VERTEX
  8
0
  5
47CA
 10
371.244
 20
127.483
 30
0.00000
  70
    32
  0
VERTEX
  8
0
  5
47CB
 10
371.243
 20
127.630
 30
0.00000
  70
    32
  0
VERTEX
  8
0
  5
47CC
 10
371.241
 20
127.777
 30
0.00000
  70
    32
  0
VERTEX
  8
0
  5
47CD
 10
371.237
 20
127.924
 30
0.00000
  70
    32
  0
VERTEX
  8
0
  5
47CE
 10
371.231
 20
128.071
 30
0.00000
  70
    32
  0
VERTEX
  8
0
  5
47CF
 10
371.225
 20
128.217
 30
0.00000
  70
    32
  0
VERTEX
  8
0
  5
47D0
 10
371.216
 20
128.363
 30
0.00000
  70
    32
  0
VERTEX
  8
0
  5
47D1
 10
371.206
 20
128.509
 30
0.00000
  70
    32
  0
VERTEX
  8
0
  5
47D2
 10
371.195
 20
128.653
 30
0.00000
  70
    32
  0
VERTEX
  8
0
  5
47D3
 10
371.182
 20
128.797
 30
0.00000
  70
    32
  0
VERTEX
  8
0
  5
47D4
 10
371.168
 20
128.941
 30
0.00000
  70
    32
  0
VERTEX
  8
0
  5
47D5
 10
371.152
 20
129.083
 30
0.00000
  70
    32
  0
VERTEX
  8
0
  5
47D6
 10
371.134
 20
129.225
 30
0.00000
  70
    32
  0
VERTEX
  8
0
  5
47D7
 10
371.116
 20
129.365
 30
0.00000
  70
    32
  0
VERTEX
  8
0
  5
47D8
 10
371.095
 20
129.504
 30
0.00000
  70
    32
  0
VERTEX
  8
0
  5
47D9
 10
371.074
 20
129.642
 30
0.00000
  70
    32
  0
VERTEX
  8
0
  5
47DA
 10
371.051
 20
129.779
 30
0.00000
  70
    32
  0
VERTEX
  8
0
  5
47DB
 10
371.026
 20
129.914
 30
0.00000
  70
    32
  0
VERTEX
  8
0
  5
47DC
 10
371.000
 20
130.048
 30
0.00000
  70
    32
  0
VERTEX
  8
0
  5
47DD
 10
370.973
 20
130.180
 30
0.00000
  70
    32
  0
VERTEX
  8
0
  5
47DE
 10
370.944
 20
130.311
 30
0.00000
  70
    32
  0
VERTEX
  8
0
  5
47DF
 10
370.914
 20
130.440
 30
0.00000
  70
    32
  0
VERTEX
  8
0
  5
47E0
 10
370.883
 20
130.567
 30
0.00000
  70
    32
  0
VERTEX
  8
0
  5
47E1
 10
370.850
 20
130.693
 30
0.00000
  70
    32
  0
VERTEX
  8
0
  5
47E2
 10
370.816
 20
130.816
 30
0.00000
  70
    32
  0
VERTEX
  8
0
  5
47E3
 10
370.781
 20
130.938
 30
0.00000
  70
    32
  0
VERTEX
  8
0
  5
47E4
 10
370.745
 20
131.057
 30
0.00000
  70
    32
  0
VERTEX
  8
0
  5
47E5
 10
370.707
 20
131.174
 30
0.00000
  70
    32
  0
VERTEX
  8
0
  5
47E6
 10
370.668
 20
131.289
 30
0.00000
  70
    32
  0
VERTEX
  8
0
  5
47E7
 10
370.628
 20
131.402
 30
0.00000
  70
    32
  0
VERTEX
  8
0
  5
47E8
 10
370.587
 20
131.512
 30
0.00000
  70
    32
  0
VERTEX
  8
0
  5
47E9
 10
370.544
 20
131.620
 30
0.00000
  70
    32
  0
VERTEX
  8
0
  5
47EA
 10
370.501
 20
131.725
 30
0.00000
  70
    32
  0
VERTEX
  8
0
  5
47EB
 10
370.456
 20
131.828
 30
0.00000
  70
    32
  0
VERTEX
  8
0
  5
47EC
 10
370.411
 20
131.929
 30
0.00000
  70
    32
  0
VERTEX
  8
0
  5
47ED
 10
370.364
 20
132.026
 30
0.00000
  70
    32
  0
VERTEX
  8
0
  5
47EE
 10
370.317
 20
132.121
 30
0.00000
  70
    32
  0
VERTEX
  8
0
  5
47EF
 10
370.268
 20
132.213
 30
0.00000
  70
    32
  0
VERTEX
  8
0
  5
47F0
 10
370.218
 20
132.302
 30
0.00000
  70
    32
  0
VERTEX
  8
0
  5
47F1
 10
370.168
 20
132.388
 30
0.00000
  70
    32
  0
VERTEX
  8
0
  5
47F2
 10
370.117
 20
132.472
 30
0.00000
  70
    32
  0
VERTEX
  8
0
  5
47F3
 10
370.064
 20
132.552
 30
0.00000
  70
    32
  0
VERTEX
  8
0
  5
47F4
 10
370.011
 20
132.629
 30
0.00000
  70
    32
  0
VERTEX
  8
0
  5
47F5
 10
369.958
 20
132.703
 30
0.00000
  70
    32
  0
VERTEX
  8
0
  5
47F6
 10
369.903
 20
132.774
 30
0.00000
  70
    32
  0
VERTEX
  8
0
  5
47F7
 10
369.848
 20
132.842
 30
0.00000
  70
    32
  0
VERTEX
  8
0
  5
47F8
 10
369.792
 20
132.907
 30
0.00000
  70
    32
  0
VERTEX
  8
0
  5
47F9
 10
369.735
 20
132.968
 30
0.00000
  70
    32
  0
VERTEX
  8
0
  5
47FA
 10
369.678
 20
133.026
 30
0.00000
  70
    32
  0
VERTEX
  8
0
  5
47FB
 10
369.620
 20
133.081
 30
0.00000
  70
    32
  0
VERTEX
  8
0
  5
47FC
 10
369.562
 20
133.132
 30
0.00000
  70
    32
  0
VERTEX
  8
0
  5
47FD
 10
369.503
 20
133.180
 30
0.00000
  70
    32
  0
VERTEX
  8
0
  5
47FE
 10
369.444
 20
133.224
 30
0.00000
  70
    32
  0
VERTEX
  8
0
  5
47FF
 10
369.384
 20
133.265
 30
0.00000
  70
    32
  0
VERTEX
  8
0
  5
4800
 10
369.324
 20
133.303
 30
0.00000
  70
    32
  0
VERTEX
  8
0
  5
4801
 10
369.263
 20
133.337
 30
0.00000
  70
    32
  0
VERTEX
  8
0
  5
4802
 10
369.203
 20
133.368
 30
0.00000
  70
    32
  0
VERTEX
  8
0
  5
4803
 10
369.141
 20
133.394
 30
0.00000
  70
    32
  0
VERTEX
  8
0
  5
4804
 10
369.080
 20
133.418
 30
0.00000
  70
    32
  0
VERTEX
  8
0
  5
4805
 10
369.018
 20
133.438
 30
0.00000
  70
    32
  0
VERTEX
  8
0
  5
4806
 10
368.956
 20
133.454
 30
0.00000
  70
    32
  0
VERTEX
  8
0
  5
4807
 10
368.894
 20
133.467
 30
0.00000
  70
    32
  0
VERTEX
  8
0
  5
4808
 10
368.832
 20
133.476
 30
0.00000
  70
    32
  0
VERTEX
  8
0
  5
4809
 10
368.770
 20
133.481
 30
0.00000
  70
    32
  0
VERTEX
  8
0
  5
480A
 10
368.708
 20
133.483
 30
0.00000
  70
    32
  0
SEQEND
  8
0
  5
480B
  0
LINE
  5
283C
  8
0
 10
304.8609429448983974
 20
132.4828067786694135
 30
0.0
 11
303.8609429448983974
 21
131.4828067786694135
 31
0.0
  0
LINE
  5
283D
  8
0
 10
304.8609429448983974
 20
132.4828067786694135
 30
0.0
 11
332.8609429448983974
 21
132.4828067786694135
 31
0.0
  0
LINE
  5
283E
  8
0
 10
333.1798533689134274
 20
131.4828067786694135
 30
0.0
 11
303.8609429448983974
 21
131.4828067786694135
 31
0.0
  0
LINE
  5
283F
  8
0
 10
333.8609429448983974
 20
123.4828067786693993
 30
0.0
 11
332.8609429448983974
 21
122.4828067786693993
 31
0.0
  0
LINE
  5
2840
  8
0
 10
333.8609429448986248
 20
131.4828067786694135
 30
0.0
 11
333.8609429448983974
 21
123.4828067786693993
 31
0.0
  0
LINE
  5
2841
  8
0
 10
332.8609429448986248
 20
132.4828067786694135
 30
0.0
 11
333.8609429448986248
 21
131.4828067786694135
 31
0.0
  0
POLYLINE
  5
2842
  8
0
 10
333.6114924636625574
 20
131.7322572599053956
 30
0.0
 66
     1
 70
     8
  0
VERTEX
  8
0
  5
480C
 10
333.611
 20
131.732
 30
0.00000
  70
    32
  0
VERTEX
  8
0
  5
480D
 10
333.579
 20
131.729
 30
0.00000
  70
    32
  0
VERTEX
  8
0
  5
480E
 10
333.546
 20
131.724
 30
0.00000
  70
    32
  0
VERTEX
  8
0
  5
480F
 10
333.514
 20
131.716
 30
0.00000
  70
    32
  0
VERTEX
  8
0
  5
4810
 10
333.481
 20
131.706
 30
0.00000
  70
    32
  0
VERTEX
  8
0
  5
4811
 10
333.449
 20
131.693
 30
0.00000
  70
    32
  0
VERTEX
  8
0
  5
4812
 10
333.417
 20
131.677
 30
0.00000
  70
    32
  0
VERTEX
  8
0
  5
4813
 10
333.385
 20
131.659
 30
0.00000
  70
    32
  0
VERTEX
  8
0
  5
4814
 10
333.353
 20
131.639
 30
0.00000
  70
    32
  0
VERTEX
  8
0
  5
4815
 10
333.321
 20
131.616
 30
0.00000
  70
    32
  0
VERTEX
  8
0
  5
4816
 10
333.290
 20
131.591
 30
0.00000
  70
    32
  0
VERTEX
  8
0
  5
4817
 10
333.258
 20
131.563
 30
0.00000
  70
    32
  0
VERTEX
  8
0
  5
4818
 10
333.227
 20
131.533
 30
0.00000
  70
    32
  0
VERTEX
  8
0
  5
4819
 10
333.196
 20
131.501
 30
0.00000
  70
    32
  0
VERTEX
  8
0
  5
481A
 10
333.165
 20
131.466
 30
0.00000
  70
    32
  0
VERTEX
  8
0
  5
481B
 10
333.135
 20
131.429
 30
0.00000
  70
    32
  0
VERTEX
  8
0
  5
481C
 10
333.105
 20
131.389
 30
0.00000
  70
    32
  0
VERTEX
  8
0
  5
481D
 10
333.075
 20
131.348
 30
0.00000
  70
    32
  0
VERTEX
  8
0
  5
481E
 10
333.046
 20
131.304
 30
0.00000
  70
    32
  0
VERTEX
  8
0
  5
481F
 10
333.017
 20
131.257
 30
0.00000
  70
    32
  0
VERTEX
  8
0
  5
4820
 10
332.988
 20
131.209
 30
0.00000
  70
    32
  0
VERTEX
  8
0
  5
4821
 10
332.959
 20
131.158
 30
0.00000
  70
    32
  0
VERTEX
  8
0
  5
4822
 10
332.931
 20
131.105
 30
0.00000
  70
    32
  0
VERTEX
  8
0
  5
4823
 10
332.904
 20
131.050
 30
0.00000
  70
    32
  0
VERTEX
  8
0
  5
4824
 10
332.877
 20
130.993
 30
0.00000
  70
    32
  0
VERTEX
  8
0
  5
4825
 10
332.850
 20
130.933
 30
0.00000
  70
    32
  0
VERTEX
  8
0
  5
4826
 10
332.824
 20
130.872
 30
0.00000
  70
    32
  0
VERTEX
  8
0
  5
4827
 10
332.798
 20
130.809
 30
0.00000
  70
    32
  0
VERTEX
  8
0
  5
4828
 10
332.773
 20
130.744
 30
0.00000
  70
    32
  0
VERTEX
  8
0
  5
4829
 10
332.748
 20
130.676
 30
0.00000
  70
    32
  0
VERTEX
  8
0
  5
482A
 10
332.724
 20
130.607
 30
0.00000
  70
    32
  0
VERTEX
  8
0
  5
482B
 10
332.700
 20
130.536
 30
0.00000
  70
    32
  0
VERTEX
  8
0
  5
482C
 10
332.677
 20
130.464
 30
0.00000
  70
    32
  0
VERTEX
  8
0
  5
482D
 10
332.655
 20
130.389
 30
0.00000
  70
    32
  0
VERTEX
  8
0
  5
482E
 10
332.633
 20
130.313
 30
0.00000
  70
    32
  0
VERTEX
  8
0
  5
482F
 10
332.611
 20
130.235
 30
0.00000
  70
    32
  0
VERTEX
  8
0
  5
4830
 10
332.590
 20
130.156
 30
0.00000
  70
    32
  0
VERTEX
  8
0
  5
4831
 10
332.570
 20
130.075
 30
0.00000
  70
    32
  0
VERTEX
  8
0
  5
4832
 10
332.551
 20
129.992
 30
0.00000
  70
    32
  0
VERTEX
  8
0
  5
4833
 10
332.532
 20
129.908
 30
0.00000
  70
    32
  0
VERTEX
  8
0
  5
4834
 10
332.513
 20
129.823
 30
0.00000
  70
    32
  0
VERTEX
  8
0
  5
4835
 10
332.496
 20
129.736
 30
0.00000
  70
    32
  0
VERTEX
  8
0
  5
4836
 10
332.479
 20
129.648
 30
0.00000
  70
    32
  0
VERTEX
  8
0
  5
4837
 10
332.463
 20
129.558
 30
0.00000
  70
    32
  0
VERTEX
  8
0
  5
4838
 10
332.447
 20
129.467
 30
0.00000
  70
    32
  0
VERTEX
  8
0
  5
4839
 10
332.432
 20
129.376
 30
0.00000
  70
    32
  0
VERTEX
  8
0
  5
483A
 10
332.418
 20
129.283
 30
0.00000
  70
    32
  0
VERTEX
  8
0
  5
483B
 10
332.405
 20
129.188
 30
0.00000
  70
    32
  0
VERTEX
  8
0
  5
483C
 10
332.392
 20
129.093
 30
0.00000
  70
    32
  0
VERTEX
  8
0
  5
483D
 10
332.380
 20
128.997
 30
0.00000
  70
    32
  0
VERTEX
  8
0
  5
483E
 10
332.369
 20
128.901
 30
0.00000
  70
    32
  0
VERTEX
  8
0
  5
483F
 10
332.358
 20
128.803
 30
0.00000
  70
    32
  0
VERTEX
  8
0
  5
4840
 10
332.348
 20
128.704
 30
0.00000
  70
    32
  0
VERTEX
  8
0
  5
4841
 10
332.339
 20
128.605
 30
0.00000
  70
    32
  0
VERTEX
  8
0
  5
4842
 10
332.331
 20
128.505
 30
0.00000
  70
    32
  0
VERTEX
  8
0
  5
4843
 10
332.324
 20
128.405
 30
0.00000
  70
    32
  0
VERTEX
  8
0
  5
4844
 10
332.317
 20
128.304
 30
0.00000
  70
    32
  0
VERTEX
  8
0
  5
4845
 10
332.311
 20
128.202
 30
0.00000
  70
    32
  0
VERTEX
  8
0
  5
4846
 10
332.306
 20
128.100
 30
0.00000
  70
    32
  0
VERTEX
  8
0
  5
4847
 10
332.302
 20
127.998
 30
0.00000
  70
    32
  0
VERTEX
  8
0
  5
4848
 10
332.298
 20
127.895
 30
0.00000
  70
    32
  0
VERTEX
  8
0
  5
4849
 10
332.295
 20
127.792
 30
0.00000
  70
    32
  0
VERTEX
  8
0
  5
484A
 10
332.293
 20
127.689
 30
0.00000
  70
    32
  0
VERTEX
  8
0
  5
484B
 10
332.292
 20
127.586
 30
0.00000
  70
    32
  0
VERTEX
  8
0
  5
484C
 10
332.292
 20
127.483
 30
0.00000
  70
    32
  0
VERTEX
  8
0
  5
484D
 10
332.292
 20
127.380
 30
0.00000
  70
    32
  0
VERTEX
  8
0
  5
484E
 10
332.293
 20
127.276
 30
0.00000
  70
    32
  0
VERTEX
  8
0
  5
484F
 10
332.295
 20
127.173
 30
0.00000
  70
    32
  0
VERTEX
  8
0
  5
4850
 10
332.298
 20
127.070
 30
0.00000
  70
    32
  0
VERTEX
  8
0
  5
4851
 10
332.302
 20
126.968
 30
0.00000
  70
    32
  0
VERTEX
  8
0
  5
4852
 10
332.306
 20
126.866
 30
0.00000
  70
    32
  0
VERTEX
  8
0
  5
4853
 10
332.311
 20
126.764
 30
0.00000
  70
    32
  0
VERTEX
  8
0
  5
4854
 10
332.317
 20
126.662
 30
0.00000
  70
    32
  0
VERTEX
  8
0
  5
4855
 10
332.324
 20
126.561
 30
0.00000
  70
    32
  0
VERTEX
  8
0
  5
4856
 10
332.331
 20
126.461
 30
0.00000
  70
    32
  0
VERTEX
  8
0
  5
4857
 10
332.339
 20
126.361
 30
0.00000
  70
    32
  0
VERTEX
  8
0
  5
4858
 10
332.348
 20
126.261
 30
0.00000
  70
    32
  0
VERTEX
  8
0
  5
4859
 10
332.358
 20
126.163
 30
0.00000
  70
    32
  0
VERTEX
  8
0
  5
485A
 10
332.369
 20
126.065
 30
0.00000
  70
    32
  0
VERTEX
  8
0
  5
485B
 10
332.380
 20
125.968
 30
0.00000
  70
    32
  0
VERTEX
  8
0
  5
485C
 10
332.392
 20
125.872
 30
0.00000
  70
    32
  0
VERTEX
  8
0
  5
485D
 10
332.405
 20
125.777
 30
0.00000
  70
    32
  0
VERTEX
  8
0
  5
485E
 10
332.418
 20
125.683
 30
0.00000
  70
    32
  0
VERTEX
  8
0
  5
485F
 10
332.432
 20
125.590
 30
0.00000
  70
    32
  0
VERTEX
  8
0
  5
4860
 10
332.447
 20
125.498
 30
0.00000
  70
    32
  0
VERTEX
  8
0
  5
4861
 10
332.463
 20
125.408
 30
0.00000
  70
    32
  0
VERTEX
  8
0
  5
4862
 10
332.479
 20
125.318
 30
0.00000
  70
    32
  0
VERTEX
  8
0
  5
4863
 10
332.496
 20
125.230
 30
0.00000
  70
    32
  0
VERTEX
  8
0
  5
4864
 10
332.513
 20
125.143
 30
0.00000
  70
    32
  0
VERTEX
  8
0
  5
4865
 10
332.532
 20
125.057
 30
0.00000
  70
    32
  0
VERTEX
  8
0
  5
4866
 10
332.551
 20
124.973
 30
0.00000
  70
    32
  0
VERTEX
  8
0
  5
4867
 10
332.570
 20
124.891
 30
0.00000
  70
    32
  0
VERTEX
  8
0
  5
4868
 10
332.590
 20
124.810
 30
0.00000
  70
    32
  0
VERTEX
  8
0
  5
4869
 10
332.611
 20
124.730
 30
0.00000
  70
    32
  0
VERTEX
  8
0
  5
486A
 10
332.633
 20
124.652
 30
0.00000
  70
    32
  0
VERTEX
  8
0
  5
486B
 10
332.655
 20
124.576
 30
0.00000
  70
    32
  0
VERTEX
  8
0
  5
486C
 10
332.677
 20
124.502
 30
0.00000
  70
    32
  0
VERTEX
  8
0
  5
486D
 10
332.700
 20
124.429
 30
0.00000
  70
    32
  0
VERTEX
  8
0
  5
486E
 10
332.724
 20
124.358
 30
0.00000
  70
    32
  0
VERTEX
  8
0
  5
486F
 10
332.748
 20
124.289
 30
0.00000
  70
    32
  0
VERTEX
  8
0
  5
4870
 10
332.773
 20
124.222
 30
0.00000
  70
    32
  0
VERTEX
  8
0
  5
4871
 10
332.798
 20
124.157
 30
0.00000
  70
    32
  0
VERTEX
  8
0
  5
4872
 10
332.824
 20
124.094
 30
0.00000
  70
    32
  0
VERTEX
  8
0
  5
4873
 10
332.850
 20
124.032
 30
0.00000
  70
    32
  0
VERTEX
  8
0
  5
4874
 10
332.877
 20
123.973
 30
0.00000
  70
    32
  0
VERTEX
  8
0
  5
4875
 10
332.904
 20
123.916
 30
0.00000
  70
    32
  0
VERTEX
  8
0
  5
4876
 10
332.931
 20
123.861
 30
0.00000
  70
    32
  0
VERTEX
  8
0
  5
4877
 10
332.959
 20
123.808
 30
0.00000
  70
    32
  0
VERTEX
  8
0
  5
4878
 10
332.988
 20
123.757
 30
0.00000
  70
    32
  0
VERTEX
  8
0
  5
4879
 10
333.017
 20
123.708
 30
0.00000
  70
    32
  0
VERTEX
  8
0
  5
487A
 10
333.046
 20
123.662
 30
0.00000
  70
    32
  0
VERTEX
  8
0
  5
487B
 10
333.075
 20
123.618
 30
0.00000
  70
    32
  0
VERTEX
  8
0
  5
487C
 10
333.105
 20
123.576
 30
0.00000
  70
    32
  0
VERTEX
  8
0
  5
487D
 10
333.135
 20
123.537
 30
0.00000
  70
    32
  0
VERTEX
  8
0
  5
487E
 10
333.165
 20
123.500
 30
0.00000
  70
    32
  0
VERTEX
  8
0
  5
487F
 10
333.196
 20
123.465
 30
0.00000
  70
    32
  0
VERTEX
  8
0
  5
4880
 10
333.227
 20
123.432
 30
0.00000
  70
    32
  0
VERTEX
  8
0
  5
4881
 10
333.258
 20
123.402
 30
0.00000
  70
    32
  0
VERTEX
  8
0
  5
4882
 10
333.290
 20
123.375
 30
0.00000
  70
    32
  0
VERTEX
  8
0
  5
4883
 10
333.321
 20
123.349
 30
0.00000
  70
    32
  0
VERTEX
  8
0
  5
4884
 10
333.353
 20
123.327
 30
0.00000
  70
    32
  0
VERTEX
  8
0
  5
4885
 10
333.385
 20
123.306
 30
0.00000
  70
    32
  0
VERTEX
  8
0
  5
4886
 10
333.417
 20
123.288
 30
0.00000
  70
    32
  0
VERTEX
  8
0
  5
4887
 10
333.449
 20
123.273
 30
0.00000
  70
    32
  0
VERTEX
  8
0
  5
4888
 10
333.481
 20
123.260
 30
0.00000
  70
    32
  0
VERTEX
  8
0
  5
4889
 10
333.514
 20
123.250
 30
0.00000
  70
    32
  0
VERTEX
  8
0
  5
488A
 10
333.546
 20
123.242
 30
0.00000
  70
    32
  0
VERTEX
  8
0
  5
488B
 10
333.579
 20
123.236
 30
0.00000
  70
    32
  0
VERTEX
  8
0
  5
488C
 10
333.611
 20
123.233
 30
0.00000
  70
    32
  0
SEQEND
  8
0
  5
488D
  0
POLYLINE
  5
2843
  8
3
 10
332.6476909414270722
 20
129.982806778669385
 30
0.0
 66
     1
 70
     8
  0
VERTEX
  8
3
  5
488E
 10
332.648
 20
129.983
 30
0.00000
  70
    32
  0
VERTEX
  8
3
  5
488F
 10
332.647
 20
129.983
 30
0.00000
  70
    32
  0
VERTEX
  8
3
  5
4890
 10
332.646
 20
129.983
 30
0.00000
  70
    32
  0
VERTEX
  8
3
  5
4891
 10
332.645
 20
129.983
 30
0.00000
  70
    32
  0
VERTEX
  8
3
  5
4892
 10
332.644
 20
129.983
 30
0.00000
  70
    32
  0
VERTEX
  8
3
  5
4893
 10
332.644
 20
129.983
 30
0.00000
  70
    32
  0
VERTEX
  8
3
  5
4894
 10
332.643
 20
129.983
 30
0.00000
  70
    32
  0
VERTEX
  8
3
  5
4895
 10
332.642
 20
129.983
 30
0.00000
  70
    32
  0
VERTEX
  8
3
  5
4896
 10
332.641
 20
129.983
 30
0.00000
  70
    32
  0
VERTEX
  8
3
  5
4897
 10
332.640
 20
129.983
 30
0.00000
  70
    32
  0
VERTEX
  8
3
  5
4898
 10
332.640
 20
129.983
 30
0.00000
  70
    32
  0
VERTEX
  8
3
  5
4899
 10
332.639
 20
129.983
 30
0.00000
  70
    32
  0
VERTEX
  8
3
  5
489A
 10
332.638
 20
129.983
 30
0.00000
  70
    32
  0
VERTEX
  8
3
  5
489B
 10
332.637
 20
129.983
 30
0.00000
  70
    32
  0
VERTEX
  8
3
  5
489C
 10
332.636
 20
129.983
 30
0.00000
  70
    32
  0
VERTEX
  8
3
  5
489D
 10
332.635
 20
129.983
 30
0.00000
  70
    32
  0
VERTEX
  8
3
  5
489E
 10
332.635
 20
129.982
 30
0.00000
  70
    32
  0
VERTEX
  8
3
  5
489F
 10
332.634
 20
129.982
 30
0.00000
  70
    32
  0
VERTEX
  8
3
  5
48A0
 10
332.633
 20
129.982
 30
0.00000
  70
    32
  0
VERTEX
  8
3
  5
48A1
 10
332.632
 20
129.982
 30
0.00000
  70
    32
  0
VERTEX
  8
3
  5
48A2
 10
332.631
 20
129.982
 30
0.00000
  70
    32
  0
VERTEX
  8
3
  5
48A3
 10
332.631
 20
129.982
 30
0.00000
  70
    32
  0
VERTEX
  8
3
  5
48A4
 10
332.630
 20
129.982
 30
0.00000
  70
    32
  0
VERTEX
  8
3
  5
48A5
 10
332.629
 20
129.982
 30
0.00000
  70
    32
  0
VERTEX
  8
3
  5
48A6
 10
332.628
 20
129.982
 30
0.00000
  70
    32
  0
VERTEX
  8
3
  5
48A7
 10
332.627
 20
129.982
 30
0.00000
  70
    32
  0
VERTEX
  8
3
  5
48A8
 10
332.626
 20
129.982
 30
0.00000
  70
    32
  0
VERTEX
  8
3
  5
48A9
 10
332.626
 20
129.982
 30
0.00000
  70
    32
  0
VERTEX
  8
3
  5
48AA
 10
332.625
 20
129.982
 30
0.00000
  70
    32
  0
VERTEX
  8
3
  5
48AB
 10
332.624
 20
129.982
 30
0.00000
  70
    32
  0
VERTEX
  8
3
  5
48AC
 10
332.623
 20
129.982
 30
0.00000
  70
    32
  0
VERTEX
  8
3
  5
48AD
 10
332.622
 20
129.982
 30
0.00000
  70
    32
  0
VERTEX
  8
3
  5
48AE
 10
332.622
 20
129.981
 30
0.00000
  70
    32
  0
VERTEX
  8
3
  5
48AF
 10
332.621
 20
129.981
 30
0.00000
  70
    32
  0
VERTEX
  8
3
  5
48B0
 10
332.620
 20
129.981
 30
0.00000
  70
    32
  0
VERTEX
  8
3
  5
48B1
 10
332.619
 20
129.981
 30
0.00000
  70
    32
  0
VERTEX
  8
3
  5
48B2
 10
332.618
 20
129.981
 30
0.00000
  70
    32
  0
VERTEX
  8
3
  5
48B3
 10
332.618
 20
129.981
 30
0.00000
  70
    32
  0
VERTEX
  8
3
  5
48B4
 10
332.617
 20
129.981
 30
0.00000
  70
    32
  0
VERTEX
  8
3
  5
48B5
 10
332.616
 20
129.981
 30
0.00000
  70
    32
  0
VERTEX
  8
3
  5
48B6
 10
332.615
 20
129.981
 30
0.00000
  70
    32
  0
VERTEX
  8
3
  5
48B7
 10
332.614
 20
129.981
 30
0.00000
  70
    32
  0
VERTEX
  8
3
  5
48B8
 10
332.613
 20
129.980
 30
0.00000
  70
    32
  0
VERTEX
  8
3
  5
48B9
 10
332.613
 20
129.980
 30
0.00000
  70
    32
  0
VERTEX
  8
3
  5
48BA
 10
332.612
 20
129.980
 30
0.00000
  70
    32
  0
VERTEX
  8
3
  5
48BB
 10
332.611
 20
129.980
 30
0.00000
  70
    32
  0
VERTEX
  8
3
  5
48BC
 10
332.610
 20
129.980
 30
0.00000
  70
    32
  0
VERTEX
  8
3
  5
48BD
 10
332.609
 20
129.980
 30
0.00000
  70
    32
  0
VERTEX
  8
3
  5
48BE
 10
332.609
 20
129.980
 30
0.00000
  70
    32
  0
VERTEX
  8
3
  5
48BF
 10
332.608
 20
129.980
 30
0.00000
  70
    32
  0
VERTEX
  8
3
  5
48C0
 10
332.607
 20
129.980
 30
0.00000
  70
    32
  0
VERTEX
  8
3
  5
48C1
 10
332.606
 20
129.979
 30
0.00000
  70
    32
  0
VERTEX
  8
3
  5
48C2
 10
332.605
 20
129.979
 30
0.00000
  70
    32
  0
VERTEX
  8
3
  5
48C3
 10
332.604
 20
129.979
 30
0.00000
  70
    32
  0
VERTEX
  8
3
  5
48C4
 10
332.604
 20
129.979
 30
0.00000
  70
    32
  0
VERTEX
  8
3
  5
48C5
 10
332.603
 20
129.979
 30
0.00000
  70
    32
  0
VERTEX
  8
3
  5
48C6
 10
332.602
 20
129.979
 30
0.00000
  70
    32
  0
VERTEX
  8
3
  5
48C7
 10
332.601
 20
129.979
 30
0.00000
  70
    32
  0
VERTEX
  8
3
  5
48C8
 10
332.600
 20
129.978
 30
0.00000
  70
    32
  0
VERTEX
  8
3
  5
48C9
 10
332.600
 20
129.978
 30
0.00000
  70
    32
  0
VERTEX
  8
3
  5
48CA
 10
332.599
 20
129.978
 30
0.00000
  70
    32
  0
VERTEX
  8
3
  5
48CB
 10
332.598
 20
129.978
 30
0.00000
  70
    32
  0
VERTEX
  8
3
  5
48CC
 10
332.597
 20
129.978
 30
0.00000
  70
    32
  0
VERTEX
  8
3
  5
48CD
 10
332.596
 20
129.978
 30
0.00000
  70
    32
  0
VERTEX
  8
3
  5
48CE
 10
332.596
 20
129.977
 30
0.00000
  70
    32
  0
VERTEX
  8
3
  5
48CF
 10
332.595
 20
129.977
 30
0.00000
  70
    32
  0
VERTEX
  8
3
  5
48D0
 10
332.594
 20
129.977
 30
0.00000
  70
    32
  0
VERTEX
  8
3
  5
48D1
 10
332.593
 20
129.977
 30
0.00000
  70
    32
  0
VERTEX
  8
3
  5
48D2
 10
332.592
 20
129.977
 30
0.00000
  70
    32
  0
VERTEX
  8
3
  5
48D3
 10
332.591
 20
129.977
 30
0.00000
  70
    32
  0
VERTEX
  8
3
  5
48D4
 10
332.591
 20
129.976
 30
0.00000
  70
    32
  0
VERTEX
  8
3
  5
48D5
 10
332.590
 20
129.976
 30
0.00000
  70
    32
  0
VERTEX
  8
3
  5
48D6
 10
332.589
 20
129.976
 30
0.00000
  70
    32
  0
VERTEX
  8
3
  5
48D7
 10
332.588
 20
129.976
 30
0.00000
  70
    32
  0
VERTEX
  8
3
  5
48D8
 10
332.587
 20
129.976
 30
0.00000
  70
    32
  0
VERTEX
  8
3
  5
48D9
 10
332.587
 20
129.975
 30
0.00000
  70
    32
  0
VERTEX
  8
3
  5
48DA
 10
332.586
 20
129.975
 30
0.00000
  70
    32
  0
VERTEX
  8
3
  5
48DB
 10
332.585
 20
129.975
 30
0.00000
  70
    32
  0
VERTEX
  8
3
  5
48DC
 10
332.584
 20
129.975
 30
0.00000
  70
    32
  0
VERTEX
  8
3
  5
48DD
 10
332.583
 20
129.975
 30
0.00000
  70
    32
  0
VERTEX
  8
3
  5
48DE
 10
332.582
 20
129.974
 30
0.00000
  70
    32
  0
VERTEX
  8
3
  5
48DF
 10
332.582
 20
129.974
 30
0.00000
  70
    32
  0
VERTEX
  8
3
  5
48E0
 10
332.581
 20
129.974
 30
0.00000
  70
    32
  0
VERTEX
  8
3
  5
48E1
 10
332.580
 20
129.974
 30
0.00000
  70
    32
  0
VERTEX
  8
3
  5
48E2
 10
332.579
 20
129.974
 30
0.00000
  70
    32
  0
VERTEX
  8
3
  5
48E3
 10
332.578
 20
129.973
 30
0.00000
  70
    32
  0
VERTEX
  8
3
  5
48E4
 10
332.578
 20
129.973
 30
0.00000
  70
    32
  0
VERTEX
  8
3
  5
48E5
 10
332.577
 20
129.973
 30
0.00000
  70
    32
  0
VERTEX
  8
3
  5
48E6
 10
332.576
 20
129.973
 30
0.00000
  70
    32
  0
VERTEX
  8
3
  5
48E7
 10
332.575
 20
129.972
 30
0.00000
  70
    32
  0
VERTEX
  8
3
  5
48E8
 10
332.574
 20
129.972
 30
0.00000
  70
    32
  0
VERTEX
  8
3
  5
48E9
 10
332.574
 20
129.972
 30
0.00000
  70
    32
  0
VERTEX
  8
3
  5
48EA
 10
332.573
 20
129.972
 30
0.00000
  70
    32
  0
VERTEX
  8
3
  5
48EB
 10
332.572
 20
129.971
 30
0.00000
  70
    32
  0
VERTEX
  8
3
  5
48EC
 10
332.571
 20
129.971
 30
0.00000
  70
    32
  0
VERTEX
  8
3
  5
48ED
 10
332.570
 20
129.971
 30
0.00000
  70
    32
  0
VERTEX
  8
3
  5
48EE
 10
332.569
 20
129.971
 30
0.00000
  70
    32
  0
VERTEX
  8
3
  5
48EF
 10
332.569
 20
129.970
 30
0.00000
  70
    32
  0
VERTEX
  8
3
  5
48F0
 10
332.568
 20
129.970
 30
0.00000
  70
    32
  0
VERTEX
  8
3
  5
48F1
 10
332.567
 20
129.970
 30
0.00000
  70
    32
  0
VERTEX
  8
3
  5
48F2
 10
332.566
 20
129.970
 30
0.00000
  70
    32
  0
VERTEX
  8
3
  5
48F3
 10
332.565
 20
129.969
 30
0.00000
  70
    32
  0
VERTEX
  8
3
  5
48F4
 10
332.565
 20
129.969
 30
0.00000
  70
    32
  0
VERTEX
  8
3
  5
48F5
 10
332.564
 20
129.969
 30
0.00000
  70
    32
  0
VERTEX
  8
3
  5
48F6
 10
332.563
 20
129.969
 30
0.00000
  70
    32
  0
VERTEX
  8
3
  5
48F7
 10
332.562
 20
129.968
 30
0.00000
  70
    32
  0
VERTEX
  8
3
  5
48F8
 10
332.561
 20
129.968
 30
0.00000
  70
    32
  0
VERTEX
  8
3
  5
48F9
 10
332.561
 20
129.968
 30
0.00000
  70
    32
  0
VERTEX
  8
3
  5
48FA
 10
332.560
 20
129.967
 30
0.00000
  70
    32
  0
VERTEX
  8
3
  5
48FB
 10
332.559
 20
129.967
 30
0.00000
  70
    32
  0
VERTEX
  8
3
  5
48FC
 10
332.558
 20
129.967
 30
0.00000
  70
    32
  0
VERTEX
  8
3
  5
48FD
 10
332.557
 20
129.967
 30
0.00000
  70
    32
  0
VERTEX
  8
3
  5
48FE
 10
332.556
 20
129.966
 30
0.00000
  70
    32
  0
VERTEX
  8
3
  5
48FF
 10
332.556
 20
129.966
 30
0.00000
  70
    32
  0
VERTEX
  8
3
  5
4900
 10
332.555
 20
129.966
 30
0.00000
  70
    32
  0
VERTEX
  8
3
  5
4901
 10
332.554
 20
129.965
 30
0.00000
  70
    32
  0
VERTEX
  8
3
  5
4902
 10
332.553
 20
129.965
 30
0.00000
  70
    32
  0
VERTEX
  8
3
  5
4903
 10
332.552
 20
129.965
 30
0.00000
  70
    32
  0
VERTEX
  8
3
  5
4904
 10
332.552
 20
129.964
 30
0.00000
  70
    32
  0
VERTEX
  8
3
  5
4905
 10
332.551
 20
129.964
 30
0.00000
  70
    32
  0
VERTEX
  8
3
  5
4906
 10
332.550
 20
129.964
 30
0.00000
  70
    32
  0
VERTEX
  8
3
  5
4907
 10
332.549
 20
129.964
 30
0.00000
  70
    32
  0
VERTEX
  8
3
  5
4908
 10
332.548
 20
129.963
 30
0.00000
  70
    32
  0
VERTEX
  8
3
  5
4909
 10
332.548
 20
129.963
 30
0.00000
  70
    32
  0
VERTEX
  8
3
  5
490A
 10
332.547
 20
129.963
 30
0.00000
  70
    32
  0
VERTEX
  8
3
  5
490B
 10
332.546
 20
129.962
 30
0.00000
  70
    32
  0
VERTEX
  8
3
  5
490C
 10
332.545
 20
129.962
 30
0.00000
  70
    32
  0
VERTEX
  8
3
  5
490D
 10
332.544
 20
129.962
 30
0.00000
  70
    32
  0
VERTEX
  8
3
  5
490E
 10
332.544
 20
129.961
 30
0.00000
  70
    32
  0
SEQEND
  8
3
  5
490F
  0
POLYLINE
  5
2844
  8
3
 10
332.6476909414270722
 20
124.9828067786693993
 30
0.0
 66
     1
 70
     8
  0
VERTEX
  8
3
  5
4910
 10
332.648
 20
124.983
 30
0.00000
  70
    32
  0
VERTEX
  8
3
  5
4911
 10
332.650
 20
124.984
 30
0.00000
  70
    32
  0
VERTEX
  8
3
  5
4912
 10
332.651
 20
124.986
 30
0.00000
  70
    32
  0
VERTEX
  8
3
  5
4913
 10
332.653
 20
124.990
 30
0.00000
  70
    32
  0
VERTEX
  8
3
  5
4914
 10
332.655
 20
124.995
 30
0.00000
  70
    32
  0
VERTEX
  8
3
  5
4915
 10
332.657
 20
125.002
 30
0.00000
  70
    32
  0
VERTEX
  8
3
  5
4916
 10
332.659
 20
125.010
 30
0.00000
  70
    32
  0
VERTEX
  8
3
  5
4917
 10
332.660
 20
125.020
 30
0.00000
  70
    32
  0
VERTEX
  8
3
  5
4918
 10
332.662
 20
125.031
 30
0.00000
  70
    32
  0
VERTEX
  8
3
  5
4919
 10
332.664
 20
125.044
 30
0.00000
  70
    32
  0
VERTEX
  8
3
  5
491A
 10
332.666
 20
125.058
 30
0.00000
  70
    32
  0
VERTEX
  8
3
  5
491B
 10
332.667
 20
125.073
 30
0.00000
  70
    32
  0
VERTEX
  8
3
  5
491C
 10
332.669
 20
125.090
 30
0.00000
  70
    32
  0
VERTEX
  8
3
  5
491D
 10
332.671
 20
125.109
 30
0.00000
  70
    32
  0
VERTEX
  8
3
  5
491E
 10
332.673
 20
125.129
 30
0.00000
  70
    32
  0
VERTEX
  8
3
  5
491F
 10
332.674
 20
125.150
 30
0.00000
  70
    32
  0
VERTEX
  8
3
  5
4920
 10
332.676
 20
125.173
 30
0.00000
  70
    32
  0
VERTEX
  8
3
  5
4921
 10
332.678
 20
125.197
 30
0.00000
  70
    32
  0
VERTEX
  8
3
  5
4922
 10
332.679
 20
125.223
 30
0.00000
  70
    32
  0
VERTEX
  8
3
  5
4923
 10
332.681
 20
125.250
 30
0.00000
  70
    32
  0
VERTEX
  8
3
  5
4924
 10
332.682
 20
125.278
 30
0.00000
  70
    32
  0
VERTEX
  8
3
  5
4925
 10
332.684
 20
125.308
 30
0.00000
  70
    32
  0
VERTEX
  8
3
  5
4926
 10
332.686
 20
125.338
 30
0.00000
  70
    32
  0
VERTEX
  8
3
  5
4927
 10
332.687
 20
125.371
 30
0.00000
  70
    32
  0
VERTEX
  8
3
  5
4928
 10
332.689
 20
125.404
 30
0.00000
  70
    32
  0
VERTEX
  8
3
  5
4929
 10
332.690
 20
125.439
 30
0.00000
  70
    32
  0
VERTEX
  8
3
  5
492A
 10
332.692
 20
125.475
 30
0.00000
  70
    32
  0
VERTEX
  8
3
  5
492B
 10
332.693
 20
125.512
 30
0.00000
  70
    32
  0
VERTEX
  8
3
  5
492C
 10
332.695
 20
125.550
 30
0.00000
  70
    32
  0
VERTEX
  8
3
  5
492D
 10
332.696
 20
125.590
 30
0.00000
  70
    32
  0
VERTEX
  8
3
  5
492E
 10
332.697
 20
125.630
 30
0.00000
  70
    32
  0
VERTEX
  8
3
  5
492F
 10
332.699
 20
125.672
 30
0.00000
  70
    32
  0
VERTEX
  8
3
  5
4930
 10
332.700
 20
125.715
 30
0.00000
  70
    32
  0
VERTEX
  8
3
  5
4931
 10
332.701
 20
125.759
 30
0.00000
  70
    32
  0
VERTEX
  8
3
  5
4932
 10
332.702
 20
125.804
 30
0.00000
  70
    32
  0
VERTEX
  8
3
  5
4933
 10
332.704
 20
125.850
 30
0.00000
  70
    32
  0
VERTEX
  8
3
  5
4934
 10
332.705
 20
125.897
 30
0.00000
  70
    32
  0
VERTEX
  8
3
  5
4935
 10
332.706
 20
125.945
 30
0.00000
  70
    32
  0
VERTEX
  8
3
  5
4936
 10
332.707
 20
125.994
 30
0.00000
  70
    32
  0
VERTEX
  8
3
  5
4937
 10
332.708
 20
126.043
 30
0.00000
  70
    32
  0
VERTEX
  8
3
  5
4938
 10
332.709
 20
126.094
 30
0.00000
  70
    32
  0
VERTEX
  8
3
  5
4939
 10
332.710
 20
126.145
 30
0.00000
  70
    32
  0
VERTEX
  8
3
  5
493A
 10
332.711
 20
126.198
 30
0.00000
  70
    32
  0
VERTEX
  8
3
  5
493B
 10
332.712
 20
126.251
 30
0.00000
  70
    32
  0
VERTEX
  8
3
  5
493C
 10
332.713
 20
126.304
 30
0.00000
  70
    32
  0
VERTEX
  8
3
  5
493D
 10
332.714
 20
126.359
 30
0.00000
  70
    32
  0
VERTEX
  8
3
  5
493E
 10
332.714
 20
126.414
 30
0.00000
  70
    32
  0
VERTEX
  8
3
  5
493F
 10
332.715
 20
126.470
 30
0.00000
  70
    32
  0
VERTEX
  8
3
  5
4940
 10
332.716
 20
126.526
 30
0.00000
  70
    32
  0
VERTEX
  8
3
  5
4941
 10
332.717
 20
126.583
 30
0.00000
  70
    32
  0
VERTEX
  8
3
  5
4942
 10
332.717
 20
126.641
 30
0.00000
  70
    32
  0
VERTEX
  8
3
  5
4943
 10
332.718
 20
126.699
 30
0.00000
  70
    32
  0
VERTEX
  8
3
  5
4944
 10
332.718
 20
126.757
 30
0.00000
  70
    32
  0
VERTEX
  8
3
  5
4945
 10
332.719
 20
126.816
 30
0.00000
  70
    32
  0
VERTEX
  8
3
  5
4946
 10
332.719
 20
126.875
 30
0.00000
  70
    32
  0
VERTEX
  8
3
  5
4947
 10
332.720
 20
126.935
 30
0.00000
  70
    32
  0
VERTEX
  8
3
  5
4948
 10
332.720
 20
126.995
 30
0.00000
  70
    32
  0
VERTEX
  8
3
  5
4949
 10
332.720
 20
127.055
 30
0.00000
  70
    32
  0
VERTEX
  8
3
  5
494A
 10
332.721
 20
127.116
 30
0.00000
  70
    32
  0
VERTEX
  8
3
  5
494B
 10
332.721
 20
127.177
 30
0.00000
  70
    32
  0
VERTEX
  8
3
  5
494C
 10
332.721
 20
127.238
 30
0.00000
  70
    32
  0
VERTEX
  8
3
  5
494D
 10
332.721
 20
127.299
 30
0.00000
  70
    32
  0
VERTEX
  8
3
  5
494E
 10
332.721
 20
127.360
 30
0.00000
  70
    32
  0
VERTEX
  8
3
  5
494F
 10
332.721
 20
127.421
 30
0.00000
  70
    32
  0
VERTEX
  8
3
  5
4950
 10
332.722
 20
127.483
 30
0.00000
  70
    32
  0
VERTEX
  8
3
  5
4951
 10
332.721
 20
127.544
 30
0.00000
  70
    32
  0
VERTEX
  8
3
  5
4952
 10
332.721
 20
127.605
 30
0.00000
  70
    32
  0
VERTEX
  8
3
  5
4953
 10
332.721
 20
127.667
 30
0.00000
  70
    32
  0
VERTEX
  8
3
  5
4954
 10
332.721
 20
127.728
 30
0.00000
  70
    32
  0
VERTEX
  8
3
  5
4955
 10
332.721
 20
127.789
 30
0.00000
  70
    32
  0
VERTEX
  8
3
  5
4956
 10
332.721
 20
127.850
 30
0.00000
  70
    32
  0
VERTEX
  8
3
  5
4957
 10
332.720
 20
127.910
 30
0.00000
  70
    32
  0
VERTEX
  8
3
  5
4958
 10
332.720
 20
127.971
 30
0.00000
  70
    32
  0
VERTEX
  8
3
  5
4959
 10
332.720
 20
128.031
 30
0.00000
  70
    32
  0
VERTEX
  8
3
  5
495A
 10
332.719
 20
128.090
 30
0.00000
  70
    32
  0
VERTEX
  8
3
  5
495B
 10
332.719
 20
128.150
 30
0.00000
  70
    32
  0
VERTEX
  8
3
  5
495C
 10
332.718
 20
128.209
 30
0.00000
  70
    32
  0
VERTEX
  8
3
  5
495D
 10
332.718
 20
128.267
 30
0.00000
  70
    32
  0
VERTEX
  8
3
  5
495E
 10
332.717
 20
128.325
 30
0.00000
  70
    32
  0
VERTEX
  8
3
  5
495F
 10
332.717
 20
128.383
 30
0.00000
  70
    32
  0
VERTEX
  8
3
  5
4960
 10
332.716
 20
128.440
 30
0.00000
  70
    32
  0
VERTEX
  8
3
  5
4961
 10
332.715
 20
128.496
 30
0.00000
  70
    32
  0
VERTEX
  8
3
  5
4962
 10
332.714
 20
128.552
 30
0.00000
  70
    32
  0
VERTEX
  8
3
  5
4963
 10
332.714
 20
128.607
 30
0.00000
  70
    32
  0
VERTEX
  8
3
  5
4964
 10
332.713
 20
128.661
 30
0.00000
  70
    32
  0
VERTEX
  8
3
  5
4965
 10
332.712
 20
128.715
 30
0.00000
  70
    32
  0
VERTEX
  8
3
  5
4966
 10
332.711
 20
128.768
 30
0.00000
  70
    32
  0
VERTEX
  8
3
  5
4967
 10
332.710
 20
128.820
 30
0.00000
  70
    32
  0
VERTEX
  8
3
  5
4968
 10
332.709
 20
128.872
 30
0.00000
  70
    32
  0
VERTEX
  8
3
  5
4969
 10
332.708
 20
128.922
 30
0.00000
  70
    32
  0
VERTEX
  8
3
  5
496A
 10
332.707
 20
128.972
 30
0.00000
  70
    32
  0
VERTEX
  8
3
  5
496B
 10
332.706
 20
129.021
 30
0.00000
  70
    32
  0
VERTEX
  8
3
  5
496C
 10
332.705
 20
129.069
 30
0.00000
  70
    32
  0
VERTEX
  8
3
  5
496D
 10
332.704
 20
129.116
 30
0.00000
  70
    32
  0
VERTEX
  8
3
  5
496E
 10
332.702
 20
129.162
 30
0.00000
  70
    32
  0
VERTEX
  8
3
  5
496F
 10
332.701
 20
129.207
 30
0.00000
  70
    32
  0
VERTEX
  8
3
  5
4970
 10
332.700
 20
129.251
 30
0.00000
  70
    32
  0
VERTEX
  8
3
  5
4971
 10
332.699
 20
129.293
 30
0.00000
  70
    32
  0
VERTEX
  8
3
  5
4972
 10
332.697
 20
129.335
 30
0.00000
  70
    32
  0
VERTEX
  8
3
  5
4973
 10
332.696
 20
129.376
 30
0.00000
  70
    32
  0
VERTEX
  8
3
  5
4974
 10
332.695
 20
129.415
 30
0.00000
  70
    32
  0
VERTEX
  8
3
  5
4975
 10
332.693
 20
129.454
 30
0.00000
  70
    32
  0
VERTEX
  8
3
  5
4976
 10
332.692
 20
129.491
 30
0.00000
  70
    32
  0
VERTEX
  8
3
  5
4977
 10
332.690
 20
129.527
 30
0.00000
  70
    32
  0
VERTEX
  8
3
  5
4978
 10
332.689
 20
129.561
 30
0.00000
  70
    32
  0
VERTEX
  8
3
  5
4979
 10
332.687
 20
129.595
 30
0.00000
  70
    32
  0
VERTEX
  8
3
  5
497A
 10
332.686
 20
129.627
 30
0.00000
  70
    32
  0
VERTEX
  8
3
  5
497B
 10
332.684
 20
129.658
 30
0.00000
  70
    32
  0
VERTEX
  8
3
  5
497C
 10
332.682
 20
129.688
 30
0.00000
  70
    32
  0
VERTEX
  8
3
  5
497D
 10
332.681
 20
129.716
 30
0.00000
  70
    32
  0
VERTEX
  8
3
  5
497E
 10
332.679
 20
129.743
 30
0.00000
  70
    32
  0
VERTEX
  8
3
  5
497F
 10
332.678
 20
129.768
 30
0.00000
  70
    32
  0
VERTEX
  8
3
  5
4980
 10
332.676
 20
129.793
 30
0.00000
  70
    32
  0
VERTEX
  8
3
  5
4981
 10
332.674
 20
129.815
 30
0.00000
  70
    32
  0
VERTEX
  8
3
  5
4982
 10
332.673
 20
129.837
 30
0.00000
  70
    32
  0
VERTEX
  8
3
  5
4983
 10
332.671
 20
129.857
 30
0.00000
  70
    32
  0
VERTEX
  8
3
  5
4984
 10
332.669
 20
129.875
 30
0.00000
  70
    32
  0
VERTEX
  8
3
  5
4985
 10
332.667
 20
129.892
 30
0.00000
  70
    32
  0
VERTEX
  8
3
  5
4986
 10
332.666
 20
129.908
 30
0.00000
  70
    32
  0
VERTEX
  8
3
  5
4987
 10
332.664
 20
129.922
 30
0.00000
  70
    32
  0
VERTEX
  8
3
  5
4988
 10
332.662
 20
129.935
 30
0.00000
  70
    32
  0
VERTEX
  8
3
  5
4989
 10
332.660
 20
129.946
 30
0.00000
  70
    32
  0
VERTEX
  8
3
  5
498A
 10
332.659
 20
129.956
 30
0.00000
  70
    32
  0
VERTEX
  8
3
  5
498B
 10
332.657
 20
129.964
 30
0.00000
  70
    32
  0
VERTEX
  8
3
  5
498C
 10
332.655
 20
129.971
 30
0.00000
  70
    32
  0
VERTEX
  8
3
  5
498D
 10
332.653
 20
129.976
 30
0.00000
  70
    32
  0
VERTEX
  8
3
  5
498E
 10
332.651
 20
129.980
 30
0.00000
  70
    32
  0
VERTEX
  8
3
  5
498F
 10
332.650
 20
129.982
 30
0.00000
  70
    32
  0
VERTEX
  8
3
  5
4990
 10
332.648
 20
129.983
 30
0.00000
  70
    32
  0
SEQEND
  8
3
  5
4991
  0
POLYLINE
  5
2845
  8
3
 10
332.5435388295960593
 20
125.0043855693541985
 30
0.0
 66
     1
 70
     8
  0
VERTEX
  8
3
  5
4992
 10
332.544
 20
125.004
 30
0.00000
  70
    32
  0
VERTEX
  8
3
  5
4993
 10
332.544
 20
125.004
 30
0.00000
  70
    32
  0
VERTEX
  8
3
  5
4994
 10
332.545
 20
125.004
 30
0.00000
  70
    32
  0
VERTEX
  8
3
  5
4995
 10
332.546
 20
125.003
 30
0.00000
  70
    32
  0
VERTEX
  8
3
  5
4996
 10
332.547
 20
125.003
 30
0.00000
  70
    32
  0
VERTEX
  8
3
  5
4997
 10
332.548
 20
125.003
 30
0.00000
  70
    32
  0
VERTEX
  8
3
  5
4998
 10
332.548
 20
125.002
 30
0.00000
  70
    32
  0
VERTEX
  8
3
  5
4999
 10
332.549
 20
125.002
 30
0.00000
  70
    32
  0
VERTEX
  8
3
  5
499A
 10
332.550
 20
125.002
 30
0.00000
  70
    32
  0
VERTEX
  8
3
  5
499B
 10
332.551
 20
125.001
 30
0.00000
  70
    32
  0
VERTEX
  8
3
  5
499C
 10
332.552
 20
125.001
 30
0.00000
  70
    32
  0
VERTEX
  8
3
  5
499D
 10
332.552
 20
125.001
 30
0.00000
  70
    32
  0
VERTEX
  8
3
  5
499E
 10
332.553
 20
125.001
 30
0.00000
  70
    32
  0
VERTEX
  8
3
  5
499F
 10
332.554
 20
125.000
 30
0.00000
  70
    32
  0
VERTEX
  8
3
  5
49A0
 10
332.555
 20
125.000
 30
0.00000
  70
    32
  0
VERTEX
  8
3
  5
49A1
 10
332.556
 20
125.000
 30
0.00000
  70
    32
  0
VERTEX
  8
3
  5
49A2
 10
332.556
 20
124.999
 30
0.00000
  70
    32
  0
VERTEX
  8
3
  5
49A3
 10
332.557
 20
124.999
 30
0.00000
  70
    32
  0
VERTEX
  8
3
  5
49A4
 10
332.558
 20
124.999
 30
0.00000
  70
    32
  0
VERTEX
  8
3
  5
49A5
 10
332.559
 20
124.998
 30
0.00000
  70
    32
  0
VERTEX
  8
3
  5
49A6
 10
332.560
 20
124.998
 30
0.00000
  70
    32
  0
VERTEX
  8
3
  5
49A7
 10
332.561
 20
124.998
 30
0.00000
  70
    32
  0
VERTEX
  8
3
  5
49A8
 10
332.561
 20
124.998
 30
0.00000
  70
    32
  0
VERTEX
  8
3
  5
49A9
 10
332.562
 20
124.997
 30
0.00000
  70
    32
  0
VERTEX
  8
3
  5
49AA
 10
332.563
 20
124.997
 30
0.00000
  70
    32
  0
VERTEX
  8
3
  5
49AB
 10
332.564
 20
124.997
 30
0.00000
  70
    32
  0
VERTEX
  8
3
  5
49AC
 10
332.565
 20
124.997
 30
0.00000
  70
    32
  0
VERTEX
  8
3
  5
49AD
 10
332.565
 20
124.996
 30
0.00000
  70
    32
  0
VERTEX
  8
3
  5
49AE
 10
332.566
 20
124.996
 30
0.00000
  70
    32
  0
VERTEX
  8
3
  5
49AF
 10
332.567
 20
124.996
 30
0.00000
  70
    32
  0
VERTEX
  8
3
  5
49B0
 10
332.568
 20
124.995
 30
0.00000
  70
    32
  0
VERTEX
  8
3
  5
49B1
 10
332.569
 20
124.995
 30
0.00000
  70
    32
  0
VERTEX
  8
3
  5
49B2
 10
332.569
 20
124.995
 30
0.00000
  70
    32
  0
VERTEX
  8
3
  5
49B3
 10
332.570
 20
124.995
 30
0.00000
  70
    32
  0
VERTEX
  8
3
  5
49B4
 10
332.571
 20
124.994
 30
0.00000
  70
    32
  0
VERTEX
  8
3
  5
49B5
 10
332.572
 20
124.994
 30
0.00000
  70
    32
  0
VERTEX
  8
3
  5
49B6
 10
332.573
 20
124.994
 30
0.00000
  70
    32
  0
VERTEX
  8
3
  5
49B7
 10
332.574
 20
124.994
 30
0.00000
  70
    32
  0
VERTEX
  8
3
  5
49B8
 10
332.574
 20
124.993
 30
0.00000
  70
    32
  0
VERTEX
  8
3
  5
49B9
 10
332.575
 20
124.993
 30
0.00000
  70
    32
  0
VERTEX
  8
3
  5
49BA
 10
332.576
 20
124.993
 30
0.00000
  70
    32
  0
VERTEX
  8
3
  5
49BB
 10
332.577
 20
124.993
 30
0.00000
  70
    32
  0
VERTEX
  8
3
  5
49BC
 10
332.578
 20
124.993
 30
0.00000
  70
    32
  0
VERTEX
  8
3
  5
49BD
 10
332.578
 20
124.992
 30
0.00000
  70
    32
  0
VERTEX
  8
3
  5
49BE
 10
332.579
 20
124.992
 30
0.00000
  70
    32
  0
VERTEX
  8
3
  5
49BF
 10
332.580
 20
124.992
 30
0.00000
  70
    32
  0
VERTEX
  8
3
  5
49C0
 10
332.581
 20
124.992
 30
0.00000
  70
    32
  0
VERTEX
  8
3
  5
49C1
 10
332.582
 20
124.991
 30
0.00000
  70
    32
  0
VERTEX
  8
3
  5
49C2
 10
332.582
 20
124.991
 30
0.00000
  70
    32
  0
VERTEX
  8
3
  5
49C3
 10
332.583
 20
124.991
 30
0.00000
  70
    32
  0
VERTEX
  8
3
  5
49C4
 10
332.584
 20
124.991
 30
0.00000
  70
    32
  0
VERTEX
  8
3
  5
49C5
 10
332.585
 20
124.991
 30
0.00000
  70
    32
  0
VERTEX
  8
3
  5
49C6
 10
332.586
 20
124.990
 30
0.00000
  70
    32
  0
VERTEX
  8
3
  5
49C7
 10
332.587
 20
124.990
 30
0.00000
  70
    32
  0
VERTEX
  8
3
  5
49C8
 10
332.587
 20
124.990
 30
0.00000
  70
    32
  0
VERTEX
  8
3
  5
49C9
 10
332.588
 20
124.990
 30
0.00000
  70
    32
  0
VERTEX
  8
3
  5
49CA
 10
332.589
 20
124.990
 30
0.00000
  70
    32
  0
VERTEX
  8
3
  5
49CB
 10
332.590
 20
124.989
 30
0.00000
  70
    32
  0
VERTEX
  8
3
  5
49CC
 10
332.591
 20
124.989
 30
0.00000
  70
    32
  0
VERTEX
  8
3
  5
49CD
 10
332.591
 20
124.989
 30
0.00000
  70
    32
  0
VERTEX
  8
3
  5
49CE
 10
332.592
 20
124.989
 30
0.00000
  70
    32
  0
VERTEX
  8
3
  5
49CF
 10
332.593
 20
124.989
 30
0.00000
  70
    32
  0
VERTEX
  8
3
  5
49D0
 10
332.594
 20
124.989
 30
0.00000
  70
    32
  0
VERTEX
  8
3
  5
49D1
 10
332.595
 20
124.988
 30
0.00000
  70
    32
  0
VERTEX
  8
3
  5
49D2
 10
332.596
 20
124.988
 30
0.00000
  70
    32
  0
VERTEX
  8
3
  5
49D3
 10
332.596
 20
124.988
 30
0.00000
  70
    32
  0
VERTEX
  8
3
  5
49D4
 10
332.597
 20
124.988
 30
0.00000
  70
    32
  0
VERTEX
  8
3
  5
49D5
 10
332.598
 20
124.988
 30
0.00000
  70
    32
  0
VERTEX
  8
3
  5
49D6
 10
332.599
 20
124.988
 30
0.00000
  70
    32
  0
VERTEX
  8
3
  5
49D7
 10
332.600
 20
124.987
 30
0.00000
  70
    32
  0
VERTEX
  8
3
  5
49D8
 10
332.600
 20
124.987
 30
0.00000
  70
    32
  0
VERTEX
  8
3
  5
49D9
 10
332.601
 20
124.987
 30
0.00000
  70
    32
  0
VERTEX
  8
3
  5
49DA
 10
332.602
 20
124.987
 30
0.00000
  70
    32
  0
VERTEX
  8
3
  5
49DB
 10
332.603
 20
124.987
 30
0.00000
  70
    32
  0
VERTEX
  8
3
  5
49DC
 10
332.604
 20
124.987
 30
0.00000
  70
    32
  0
VERTEX
  8
3
  5
49DD
 10
332.604
 20
124.987
 30
0.00000
  70
    32
  0
VERTEX
  8
3
  5
49DE
 10
332.605
 20
124.986
 30
0.00000
  70
    32
  0
VERTEX
  8
3
  5
49DF
 10
332.606
 20
124.986
 30
0.00000
  70
    32
  0
VERTEX
  8
3
  5
49E0
 10
332.607
 20
124.986
 30
0.00000
  70
    32
  0
VERTEX
  8
3
  5
49E1
 10
332.608
 20
124.986
 30
0.00000
  70
    32
  0
VERTEX
  8
3
  5
49E2
 10
332.609
 20
124.986
 30
0.00000
  70
    32
  0
VERTEX
  8
3
  5
49E3
 10
332.609
 20
124.986
 30
0.00000
  70
    32
  0
VERTEX
  8
3
  5
49E4
 10
332.610
 20
124.986
 30
0.00000
  70
    32
  0
VERTEX
  8
3
  5
49E5
 10
332.611
 20
124.985
 30
0.00000
  70
    32
  0
VERTEX
  8
3
  5
49E6
 10
332.612
 20
124.985
 30
0.00000
  70
    32
  0
VERTEX
  8
3
  5
49E7
 10
332.613
 20
124.985
 30
0.00000
  70
    32
  0
VERTEX
  8
3
  5
49E8
 10
332.613
 20
124.985
 30
0.00000
  70
    32
  0
VERTEX
  8
3
  5
49E9
 10
332.614
 20
124.985
 30
0.00000
  70
    32
  0
VERTEX
  8
3
  5
49EA
 10
332.615
 20
124.985
 30
0.00000
  70
    32
  0
VERTEX
  8
3
  5
49EB
 10
332.616
 20
124.985
 30
0.00000
  70
    32
  0
VERTEX
  8
3
  5
49EC
 10
332.617
 20
124.985
 30
0.00000
  70
    32
  0
VERTEX
  8
3
  5
49ED
 10
332.618
 20
124.985
 30
0.00000
  70
    32
  0
VERTEX
  8
3
  5
49EE
 10
332.618
 20
124.985
 30
0.00000
  70
    32
  0
VERTEX
  8
3
  5
49EF
 10
332.619
 20
124.984
 30
0.00000
  70
    32
  0
VERTEX
  8
3
  5
49F0
 10
332.620
 20
124.984
 30
0.00000
  70
    32
  0
VERTEX
  8
3
  5
49F1
 10
332.621
 20
124.984
 30
0.00000
  70
    32
  0
VERTEX
  8
3
  5
49F2
 10
332.622
 20
124.984
 30
0.00000
  70
    32
  0
VERTEX
  8
3
  5
49F3
 10
332.622
 20
124.984
 30
0.00000
  70
    32
  0
VERTEX
  8
3
  5
49F4
 10
332.623
 20
124.984
 30
0.00000
  70
    32
  0
VERTEX
  8
3
  5
49F5
 10
332.624
 20
124.984
 30
0.00000
  70
    32
  0
VERTEX
  8
3
  5
49F6
 10
332.625
 20
124.984
 30
0.00000
  70
    32
  0
VERTEX
  8
3
  5
49F7
 10
332.626
 20
124.984
 30
0.00000
  70
    32
  0
VERTEX
  8
3
  5
49F8
 10
332.626
 20
124.984
 30
0.00000
  70
    32
  0
VERTEX
  8
3
  5
49F9
 10
332.627
 20
124.984
 30
0.00000
  70
    32
  0
VERTEX
  8
3
  5
49FA
 10
332.628
 20
124.984
 30
0.00000
  70
    32
  0
VERTEX
  8
3
  5
49FB
 10
332.629
 20
124.984
 30
0.00000
  70
    32
  0
VERTEX
  8
3
  5
49FC
 10
332.630
 20
124.983
 30
0.00000
  70
    32
  0
VERTEX
  8
3
  5
49FD
 10
332.631
 20
124.983
 30
0.00000
  70
    32
  0
VERTEX
  8
3
  5
49FE
 10
332.631
 20
124.983
 30
0.00000
  70
    32
  0
VERTEX
  8
3
  5
49FF
 10
332.632
 20
124.983
 30
0.00000
  70
    32
  0
VERTEX
  8
3
  5
4A00
 10
332.633
 20
124.983
 30
0.00000
  70
    32
  0
VERTEX
  8
3
  5
4A01
 10
332.634
 20
124.983
 30
0.00000
  70
    32
  0
VERTEX
  8
3
  5
4A02
 10
332.635
 20
124.983
 30
0.00000
  70
    32
  0
VERTEX
  8
3
  5
4A03
 10
332.635
 20
124.983
 30
0.00000
  70
    32
  0
VERTEX
  8
3
  5
4A04
 10
332.636
 20
124.983
 30
0.00000
  70
    32
  0
VERTEX
  8
3
  5
4A05
 10
332.637
 20
124.983
 30
0.00000
  70
    32
  0
VERTEX
  8
3
  5
4A06
 10
332.638
 20
124.983
 30
0.00000
  70
    32
  0
VERTEX
  8
3
  5
4A07
 10
332.639
 20
124.983
 30
0.00000
  70
    32
  0
VERTEX
  8
3
  5
4A08
 10
332.640
 20
124.983
 30
0.00000
  70
    32
  0
VERTEX
  8
3
  5
4A09
 10
332.640
 20
124.983
 30
0.00000
  70
    32
  0
VERTEX
  8
3
  5
4A0A
 10
332.641
 20
124.983
 30
0.00000
  70
    32
  0
VERTEX
  8
3
  5
4A0B
 10
332.642
 20
124.983
 30
0.00000
  70
    32
  0
VERTEX
  8
3
  5
4A0C
 10
332.643
 20
124.983
 30
0.00000
  70
    32
  0
VERTEX
  8
3
  5
4A0D
 10
332.644
 20
124.983
 30
0.00000
  70
    32
  0
VERTEX
  8
3
  5
4A0E
 10
332.644
 20
124.983
 30
0.00000
  70
    32
  0
VERTEX
  8
3
  5
4A0F
 10
332.645
 20
124.983
 30
0.00000
  70
    32
  0
VERTEX
  8
3
  5
4A10
 10
332.646
 20
124.983
 30
0.00000
  70
    32
  0
VERTEX
  8
3
  5
4A11
 10
332.647
 20
124.983
 30
0.00000
  70
    32
  0
VERTEX
  8
3
  5
4A12
 10
332.648
 20
124.983
 30
0.00000
  70
    32
  0
SEQEND
  8
3
  5
4A13
  0
LINE
  5
2846
  8
0
 10
303.8609429448983974
 20
131.4828067786694135
 30
0.0
 11
303.8609429448983974
 21
123.4828067786693993
 31
0.0
  0
LINE
  5
2847
  8
0
 10
303.8609429448983974
 20
123.4828067786693993
 30
0.0
 11
304.8609429448983974
 21
122.4828067786693993
 31
0.0
  0
LINE
  5
2848
  8
0
 10
303.8609429448983974
 20
123.4828067786693993
 30
0.0
 11
333.1798533689134274
 21
123.4828067786693993
 31
0.0
  0
ARC
  5
284A
  8
0
 10
375.9583335282071062
 20
127.4828067786693993
 30
0.0
 40
10.0
 50
216.8698976458431105
 51
143.1301023541568043
  0
LINE
  5
284B
  8
0
 10
346.050176555997723
 20
131.4828067786694135
 30
0.0
 11
333.8609429448983974
 21
131.4828067786694987
 31
0.0
  0
LINE
  5
284C
  8
0
 10
333.8609429448986248
 20
123.4828067786694987
 30
0.0
 11
346.050176555997723
 21
123.4828067786694987
 31
0.0
  0
LINE
  5
284D
  8
0
 10
367.6203018874697932
 20
131.4828067786694135
 30
0.0
 11
353.3006388522907741
 21
131.4828067786694135
 31
0.0
  0
LINE
  5
284E
  8
0
 10
353.3006388522907741
 20
123.4828067786693993
 30
0.0
 11
367.6203018874697932
 21
123.4828067786693993
 31
0.0
  0
POLYLINE
  5
284F
  8
0
 66
     1
 10
0.0
 20
0.0
 30
0.0
 70
   128
  0
VERTEX
  5
4449
  8
0
 10
346.8742821663921063
 20
130.9828067786694135
 30
0.0
  0
VERTEX
  5
444A
  8
0
 10
346.6813782930491925
 20
131.1989169787727008
 30
0.0
  0
VERTEX
  5
444B
  8
0
 10
346.4785036833703202
 20
131.3557901248769042
 30
0.0
  0
VERTEX
  5
444C
  8
0
 10
346.2688922818732067
 20
131.4509255637381102
 30
0.0
  0
VERTEX
  5
444D
  8
0
 10
346.0558854216296822
 20
131.4828067786694135
 30
0.0
  0
SEQEND
  5
444E
  8
0
  0
POLYLINE
  5
2850
  8
0
 66
     1
 10
0.0
 20
0.0
 30
0.0
 70
   128
  0
VERTEX
  5
444F
  8
0
 10
352.487950973160423
 20
130.9828067786694135
 30
0.0
  0
VERTEX
  5
4450
  8
0
 10
352.68085484650328
 20
131.1989169787727008
 30
0.0
  0
VERTEX
  5
4451
  8
0
 10
352.8837294561819817
 20
131.3557901248769042
 30
0.0
  0
VERTEX
  5
4452
  8
0
 10
353.0933408576790953
 20
131.4509255637381102
 30
0.0
  0
VERTEX
  5
4453
  8
0
 10
353.3063477179227903
 20
131.4828067786694135
 30
0.0
  0
VERTEX
  5
4454
  8
0
 10
353.5193545781664852
 20
131.4509255637381102
 30
0.0
  0
VERTEX
  5
4455
  8
0
 10
353.7289659796635988
 20
131.3557901248769042
 30
0.0
  0
VERTEX
  5
4456
  8
0
 10
353.9318405893423005
 20
131.1989169787727008
 30
0.0
  0
VERTEX
  5
4457
  8
0
 10
354.1247444626852143
 20
130.9828067786694135
 30
0.0
  0
SEQEND
  5
4458
  8
0
  0
LINE
  5
2851
  8
0
 10
346.8742821663918221
 20
130.9828067786694135
 30
0.0
 11
354.1247444626852143
 21
130.9828067786694135
 31
0.0
  0
POLYLINE
  5
2852
  8
0
 66
     1
 10
0.0
 20
0.0
 30
0.0
 70
   128
  0
VERTEX
  5
4459
  8
0
 10
346.8742821663921063
 20
123.9828067786693993
 30
0.0
  0
VERTEX
  5
445A
  8
0
 10
346.6813782930491925
 20
123.7666965785661972
 30
0.0
  0
VERTEX
  5
445B
  8
0
 10
346.4785036833703202
 20
123.6098234324619938
 30
0.0
  0
VERTEX
  5
445C
  8
0
 10
346.2688922818732067
 20
123.5146879936007025
 30
0.0
  0
VERTEX
  5
445D
  8
0
 10
346.0558854216296822
 20
123.4828067786693993
 30
0.0
  0
SEQEND
  5
445E
  8
0
  0
LINE
  5
2853
  8
0
 10
354.1247444626852143
 20
123.9828067786693993
 30
0.0
 11
346.8742821663918221
 21
123.9828067786694987
 31
0.0
  0
POLYLINE
  5
2854
  8
0
 66
     1
 10
0.0
 20
0.0
 30
0.0
 70
   128
  0
VERTEX
  5
445F
  8
0
 10
352.487950973160423
 20
123.9828067786693993
 30
0.0
  0
VERTEX
  5
4460
  8
0
 10
352.68085484650328
 20
123.7666965785661972
 30
0.0
  0
VERTEX
  5
4461
  8
0
 10
352.8837294561819817
 20
123.6098234324619938
 30
0.0
  0
VERTEX
  5
4462
  8
0
 10
353.0933408576790953
 20
123.5146879936007025
 30
0.0
  0
VERTEX
  5
4463
  8
0
 10
353.3063477179227903
 20
123.4828067786693993
 30
0.0
  0
VERTEX
  5
4464
  8
0
 10
353.5193545781664852
 20
123.5146879936007025
 30
0.0
  0
VERTEX
  5
4465
  8
0
 10
353.7289659796635988
 20
123.6098234324619938
 30
0.0
  0
VERTEX
  5
4466
  8
0
 10
353.9318405893423005
 20
123.7666965785661972
 30
0.0
  0
VERTEX
  5
4467
  8
0
 10
354.1247444626852143
 20
123.9828067786694987
 30
0.0
  0
SEQEND
  5
4468
  8
0
  0
LINE
  5
2868
  8
1
 10
293.8609429448982269
 20
105.9828065793662972
 30
0.0
 11
293.8609429448982269
 21
124.982798885766698
 31
0.0
  0
LINE
  5
286A
  8
0
 10
305.3609429448982269
 20
76.9828066743613135
 30
0.0
 11
305.8609429448982269
 21
76.4828066743613135
 31
0.0
  0
LINE
  5
286B
  8
0
 10
331.8609429448982269
 20
76.4828066743613135
 30
0.0
 11
332.3609429448982269
 21
76.9828066743613135
 31
0.0
  0
LINE
  5
286C
  8
0
 10
332.3609429448982269
 20
76.9828066743613135
 30
0.0
 11
332.3609429448982269
 21
83.4827994014484744
 31
0.0
  0
LINE
  5
286D
  8
0
 10
305.3609429448982269
 20
83.4828139472742237
 30
0.0
 11
305.3609429448982269
 21
76.9828066743613135
 31
0.0
  0
LINE
  5
286E
  8
0
 10
331.8609429448982269
 20
76.4828066743613135
 30
0.0
 11
305.8609429448982269
 21
76.4828066743613135
 31
0.0
  0
LINE
  5
286F
  8
0
 10
305.3609429448982269
 20
76.9828066743613135
 30
0.0
 11
332.3609429448982269
 21
76.9828066743613135
 31
0.0
  0
LINE
  5
2870
  8
1
 10
318.8609429448982269
 20
71.4828066743613135
 30
0.0
 11
318.8609429448982269
 21
137.4828067786694135
 31
0.0
  0
LINE
  5
2872
  8
0
 10
333.8609426096219863
 20
110.2827994065007999
 30
0.0
 11
333.6609429493685184
 21
110.4827994014484034
 31
0.0
  0
LINE
  5
2873
  8
0
 10
333.8609426096219863
 20
110.2827994065007999
 30
0.0
 11
333.8609426096219863
 21
83.6828002239925013
 31
0.0
  0
LINE
  5
2874
  8
0
 10
333.6609429493685184
 20
83.4827987010938273
 30
0.0
 11
333.8609426096219863
 21
83.6828002239925013
 31
0.0
  0
LINE
  5
2875
  8
0
 10
333.6609429493685184
 20
83.4827987010938273
 30
0.0
 11
304.0609269940327977
 21
83.4828146476373831
 31
0.0
  0
LINE
  5
2876
  8
0
 10
303.8609432801742969
 20
83.6828002239925013
 30
0.0
 11
304.0609429404278217
 21
83.4827987010938273
 31
0.0
  0
LINE
  5
2877
  8
0
 10
303.8609432801742969
 20
83.6828002239925013
 30
0.0
 11
303.8609432801742969
 21
110.2827994065008994
 31
0.0
  0
LINE
  5
2878
  8
0
 10
303.8609432801742969
 20
110.2827994065008994
 30
0.0
 11
333.8609426096219863
 21
110.2827994065007999
 31
0.0
  0
LINE
  5
2879
  8
0
 10
333.8609426096219863
 20
83.6828002239925013
 30
0.0
 11
303.8609432801742969
 21
83.6828002239925581
 31
0.0
  0
LINE
  5
28BD
  8
1
 10
220.6632988655221936
 20
189.4828082985877984
 30
0.0
 11
231.6632988655221084
 21
189.4828082985877984
 31
0.0
  0
LINE
  5
28BE
  8
1
 10
206.1632992007984058
 20
214.4828082985877984
 30
0.0
 11
246.1632985302460099
 21
214.4828082985875994
 31
0.0
  0
LINE
  5
28BF
  8
1
 10
226.1632988655221936
 20
214.4828082985877984
 30
0.0
 11
193.1990744497475134
 21
285.1748156874464826
 31
0.0
  0
LINE
  5
28C0
  8
0
 10
208.3365047346541985
 20
248.0983985955861897
 30
0.0
 11
211.7174508285798993
 21
240.8479362992929964
 31
0.0
  0
LINE
  5
28C1
  8
0
 10
199.8012052357260018
 20
261.5516941941967843
 30
0.0
 11
216.4283463826697869
 21
225.8946749362860089
 31
0.0
  0
LINE
  5
28C2
  8
0
 10
211.8711051040972109
 20
249.7466098163747006
 30
0.0
 11
215.252051198022798
 21
242.4961475200817063
 31
0.0
  0
LINE
  5
28C3
  8
0
 10
211.7174508285798993
 20
240.8479362992929964
 30
0.0
 11
215.2520511980227127
 21
242.4961475200817063
 31
0.0
  0
LINE
  5
28C4
  8
0
 10
211.8711051040972109
 20
249.7466098163748995
 30
0.0
 11
208.3365047346541985
 21
248.0983985955861897
 31
0.0
  0
LINE
  5
28C5
  8
0
 10
223.6788086789632075
 20
229.2756210302117097
 30
0.0
 11
207.0516675320191951
 21
264.9326402881222862
 31
0.0
  0
LINE
  5
28C6
  8
0
 10
207.0516675320191951
 20
264.9326402881222862
 30
0.0
 11
206.7858823803354937
 21
265.0293782202608099
 31
0.0
  0
LINE
  5
28C7
  8
0
 10
207.0516675320191951
 20
264.9326402881222862
 30
0.0
 11
199.8012052357260018
 21
261.5516941941967843
 31
0.0
  0
LINE
  5
28C8
  8
0
 10
199.8979430827135957
 20
261.8174793768729955
 30
0.0
 11
199.8012052357260018
 21
261.5516941941967843
 31
0.0
  0
LINE
  5
28C9
  8
0
 10
197.9040660093045858
 20
260.8877192281227053
 30
0.0
 11
208.7797594537443899
 21
265.9591383690111002
 31
0.0
  0
LINE
  5
28CA
  8
0
 10
208.7797594537443899
 20
265.9591383690111002
 30
0.0
 11
208.3571411920036951
 21
266.8654461560478239
 31
0.0
  0
LINE
  5
28CB
  8
0
 10
197.9040660093045858
 20
260.8877192281227053
 30
0.0
 11
197.481447747563891
 21
261.7940270151593722
 31
0.0
  0
LINE
  5
28CC
  8
0
 10
197.481447747563891
 20
261.7940270151593722
 30
0.0
 11
208.3571411920036951
 21
266.8654461560478239
 31
0.0
  0
ARC
  5
28CD
  8
0
 10
199.5383483758579928
 20
271.5801988818967061
 30
0.0
 40
10.0
 50
331.8698976458442189
 51
258.1301023541557811
  0
CIRCLE
  5
28CE
  8
0
 10
226.1632988655221936
 20
214.4828082985879121
 30
0.0
 40
4.25
  0
LINE
  5
28CF
  8
0
 10
225.0085983271430905
 20
212.4828082985875994
 30
0.0
 11
227.3179994039012115
 21
212.482808298588111
 31
0.0
  0
LINE
  5
28D0
  8
0
 10
223.8538977887635042
 20
214.4828082985877984
 30
0.0
 11
225.0085983271430905
 21
212.4828082985875994
 31
0.0
  0
LINE
  5
28D1
  8
0
 10
225.0085983271424084
 20
216.4828082985877984
 30
0.0
 11
223.8538977887635042
 21
214.4828082985877984
 31
0.0
  0
LINE
  5
28D2
  8
0
 10
227.3179994039012115
 20
216.4828082985877984
 30
0.0
 11
225.0085983271424084
 21
216.4828082985877984
 31
0.0
  0
LINE
  5
28D3
  8
0
 10
228.4726999422805136
 20
214.482808298588111
 30
0.0
 11
227.3179994039012115
 21
216.4828082985877984
 31
0.0
  0
LINE
  5
28D4
  8
0
 10
227.3179994039012115
 20
212.482808298588111
 30
0.0
 11
228.4726999422805136
 21
214.482808298588111
 31
0.0
  0
CIRCLE
  5
28D5
  8
0
 10
226.1632988655221936
 20
214.4828082985879121
 30
0.0
 40
3.730384757729325
  0
CIRCLE
  5
28D8
  8
0
 10
226.1632988655221936
 20
214.4828082985879121
 30
0.0
 40
15.0000000000001101
  0
CIRCLE
  5
28D9
  8
0
 10
226.1632988655221936
 20
214.4828082985879121
 30
0.0
 40
14.0000000000001101
  0
CIRCLE
  5
28E7
  8
0
 10
226.1632988655221936
 20
214.4828082985879121
 30
0.0
 40
6.0
  0
CIRCLE
  5
28E8
  8
0
 10
226.1632988655221936
 20
214.4828082985879121
 30
0.0
 40
5.0
  0
LINE
  5
28F0
  8
1
 10
226.1632988655221936
 20
234.4828079633117
 30
0.0
 11
226.1632988655221936
 21
177.4728080995083133
 31
0.0
  0
LINE
  5
28F1
  8
0
 10
224.1632988655221936
 20
219.0653839935438043
 30
0.0
 11
224.1632988655221936
 21
219.0653839935438043
 31
0.0
  0
LINE
  5
28F2
  8
0
 10
228.1632988655221936
 20
219.0653839935438043
 30
0.0
 11
228.1632988655221936
 21
219.0653839935438043
 31
0.0
  0
LINE
  5
28F3
  8
0
 10
224.1632988655221936
 20
219.0653839935438043
 30
0.0
 11
224.1632988655221936
 21
219.0653839935438043
 31
0.0
  0
LINE
  5
28F4
  8
0
 10
224.1632988655221936
 20
219.0653839935438043
 30
0.0
 11
224.1632988655221936
 21
219.0653839935438043
 31
0.0
  0
CIRCLE
  5
28F5
  8
3
 10
226.1632988655221936
 20
189.4828082985879121
 30
0.0
 40
3.0
  0
CIRCLE
  5
28F6
  8
0
 10
226.1632988655221936
 20
189.4828082985879121
 30
0.0
 40
2.458499999999999
  0
LINE
  5
2A96
  8
0
 10
459.6937647264085172
 20
110.4827994014484034
 30
0.0
 11
459.8937643866619851
 21
110.2827994065007999
 31
0.0
  0
LINE
  5
2A97
  8
0
 10
429.8937650572142957
 20
110.2827994065007999
 30
0.0
 11
430.0937647174678204
 21
110.4827994014484034
 31
0.0
  0
LINE
  5
2A98
  8
0
 10
430.0937719903683956
 20
110.4828066743611998
 30
0.0
 11
459.6937574535078852
 21
110.4828066743611998
 31
0.0
  0
LINE
  5
2A99
  8
0
 10
459.8937643866622125
 20
110.2827994065007999
 30
0.0
 11
429.8937650572142957
 21
110.2827994065007999
 31
0.0
  0
LINE
  5
2A9A
  8
0
 10
443.7393442417092047
 20
123.4828067786694987
 30
0.0
 11
459.8937647219378846
 21
123.4828067786694987
 31
0.0
  0
LINE
  5
2A9B
  8
0
 10
440.9116573618643997
 20
131.4828067786694987
 30
0.0
 11
429.8937647219377141
 21
131.4828067786694135
 31
0.0
  0
POLYLINE
  5
2A9C
  8
0
 66
     1
 10
0.0
 20
0.0
 30
0.0
 70
     1
  0
VERTEX
  5
2A9D
  8
0
 10
442.6016087887425101
 20
129.582806778669692
 30
0.0
 42
-0.099865230634072
  0
VERTEX
  5
2A9E
  8
0
 10
443.3915183105297046
 20
129.4234484951161051
 30
0.0
 42
-0.0990498822468826
  0
VERTEX
  5
2A9F
  8
0
 10
444.0639737019055246
 20
128.9677310191615049
 30
0.0
 42
-0.0979181979165839
 70
     2
 50
314.561451579571326
  0
VERTEX
  5
2AA0
  8
0
 10
444.5118024835248889
 20
128.2879567288173916
 30
0.0
 42
-0.0971327293011444
  0
VERTEX
  5
2AA1
  8
0
 10
444.6697050820760069
 20
127.4828067786695982
 30
0.0
 42
-0.0971327293014754
  0
VERTEX
  5
2AA2
  8
0
 10
444.5118024835242068
 20
126.6776568285210942
 30
0.0
 42
-0.0979181979167043
  0
VERTEX
  5
2AA3
  8
0
 10
444.0639737019055246
 20
125.9978825381777057
 30
0.0
 42
-0.0990498822469581
 70
     2
 50
225.4385484204287877
  0
VERTEX
  5
2AA4
  8
0
 10
443.3915183105302731
 20
125.5421650622235035
 30
0.0
 42
-0.099865230634295
  0
VERTEX
  5
2AA5
  8
0
 10
442.6016087887425101
 20
125.3828067786695044
 30
0.0
 42
-0.099865230634072
  0
VERTEX
  5
2AA6
  8
0
 10
441.8116992669553724
 20
125.5421650622231056
 30
0.0
 42
-0.0990498822468824
  0
VERTEX
  5
2AA7
  8
0
 10
441.139243875579723
 20
125.9978825381777057
 30
0.0
 42
-0.097918197916742
 70
     2
 50
134.5614515795712123
  0
VERTEX
  5
2AA8
  8
0
 10
440.6914150939606998
 20
126.6776568285216058
 30
0.0
 42
-0.097132729301392
  0
VERTEX
  5
2AA9
  8
0
 10
440.5335124954091839
 20
127.4828067786695982
 30
0.0
 42
-0.097132729301583
  0
VERTEX
  5
2AAA
  8
0
 10
440.691415093960984
 20
128.2879567288171074
 30
0.0
 42
-0.0979181979170155
  0
VERTEX
  5
2AAB
  8
0
 10
441.139243875579723
 20
128.9677310191615049
 30
0.0
 42
-0.0990498822468194
 70
     2
 50
45.4385484204286598
  0
VERTEX
  5
2AAC
  8
0
 10
441.8116992669546903
 20
129.4234484951157924
 30
0.0
 42
-0.099865230634197
  0
SEQEND
  5
2AAD
  8
0
  0
POLYLINE
  5
2AAE
  8
3
 66
     1
 10
0.0
 20
0.0
 30
0.0
 70
     1
  0
VERTEX
  5
2AAF
  8
3
 10
442.5321495056679737
 20
129.9828067786696124
 30
0.0
 42
-0.0998652311581154
  0
VERTEX
  5
2AB0
  8
3
 10
443.4725179778358211
 20
129.7930945365689865
 30
0.0
 42
-0.0990498824558336
  0
VERTEX
  5
2AB1
  8
3
 10
444.2730601064678808
 20
129.2505737316359102
 30
0.0
 42
-0.0979181976966268
 70
     2
 50
314.5614514132557247
  0
VERTEX
  5
2AB2
  8
3
 10
444.8061896050854784
 20
128.4413186247622889
 30
0.0
 42
-0.0971327287891391
  0
VERTEX
  5
2AB3
  8
3
 10
444.9941688881983737
 20
127.4828067786695982
 30
0.0
 42
-0.0971327287889537
  0
VERTEX
  5
2AB4
  8
3
 10
444.80618960508599
 20
126.5242949325773054
 30
0.0
 42
-0.0979181976965587
  0
VERTEX
  5
2AB5
  8
3
 10
444.2730601064678808
 20
125.7150398257033004
 30
0.0
 42
-0.0990498824558168
 70
     2
 50
225.4385485867445027
  0
VERTEX
  5
2AB6
  8
3
 10
443.4725179778361053
 20
125.1725190207701957
 30
0.0
 42
-0.0998652311581504
  0
VERTEX
  5
2AB7
  8
3
 10
442.5321495056679737
 20
124.9828067786695982
 30
0.0
 42
-0.0998652311580454
  0
VERTEX
  5
2AB8
  8
3
 10
441.5917810335005811
 20
125.1725190207698972
 30
0.0
 42
-0.0990498824558687
  0
VERTEX
  5
2AB9
  8
3
 10
440.7912389048681234
 20
125.7150398257033004
 30
0.0
 42
-0.097918197696494
 70
     2
 50
134.561451413255611
  0
VERTEX
  5
2ABA
  8
3
 10
440.2581094062500142
 20
126.5242949325771065
 30
0.0
 42
-0.0971327287889311
  0
VERTEX
  5
2ABB
  8
3
 10
440.0701301231376874
 20
127.4828067786695982
 30
0.0
 42
-0.0971327287889085
  0
VERTEX
  5
2ABC
  8
3
 10
440.2581094062500142
 20
128.4413186247622889
 30
0.0
 42
-0.0979181976964289
  0
VERTEX
  5
2ABD
  8
3
 10
440.7912389048681234
 20
129.2505737316359102
 30
0.0
 42
-0.0990498824559495
 70
     2
 50
45.4385485867443535
  0
VERTEX
  5
2ABE
  8
3
 10
441.5917810335002969
 20
129.7930945365689013
 30
0.0
 42
-0.0998652311581978
  0
SEQEND
  5
2ABF
  8
3
  0
POLYLINE
  5
2AC0
  8
0
 66
     1
 10
0.0
 20
0.0
 30
0.0
 70
     1
  0
VERTEX
  5
2AC1
  8
0
 10
442.4642434141402987
 20
130.38280674178921
 30
0.0
 42
-0.0998161775597635
  0
VERTEX
  5
2AC2
  8
0
 10
443.5557391123995217
 20
130.1627160622315103
 30
0.0
 42
-0.0990303044399048
  0
VERTEX
  5
2AC3
  8
0
 10
444.4847980023159266
 20
129.5334164180322034
 30
0.0
 42
-0.0979388031780009
 70
     2
 50
314.5770260772467282
  0
VERTEX
  5
2AC4
  8
0
 10
445.1035878081997907
 20
128.5946068110505109
 30
0.0
 42
-0.0971807251504692
  0
VERTEX
  5
2AC5
  8
0
 10
445.3217391162535819
 20
127.4828067786695982
 30
0.0
 42
-0.09718072515021
  0
VERTEX
  5
2AC6
  8
0
 10
445.103587808200416
 20
126.3710067462891971
 30
0.0
 42
-0.0979388031778571
  0
VERTEX
  5
2AC7
  8
0
 10
444.4847980023159266
 20
125.432197139306993
 30
0.0
 42
-0.0990303044401347
 70
     2
 50
225.4229739227533003
  0
VERTEX
  5
2AC8
  8
0
 10
443.5557391123986122
 20
124.8028974951077004
 30
0.0
 42
-0.099816177559845
  0
VERTEX
  5
2AC9
  8
0
 10
442.4642434141402987
 20
124.5828068155500006
 30
0.0
 42
-0.0998161775598042
  0
VERTEX
  5
2ACA
  8
0
 10
441.3727477158815873
 20
124.8028974951077004
 30
0.0
 42
-0.09903030444002
  0
VERTEX
  5
2ACB
  8
0
 10
440.4436888259647276
 20
125.432197139306993
 30
0.0
 42
-0.0979388031781419
 70
     2
 50
134.5770260772465861
  0
VERTEX
  5
2ACC
  8
0
 10
439.8248990200810908
 20
126.3710067462889981
 30
0.0
 42
-0.0971807251505881
  0
VERTEX
  5
2ACD
  8
0
 10
439.6067477120270155
 20
127.4828067786695982
 30
0.0
 42
-0.0971807251504088
  0
VERTEX
  5
2ACE
  8
0
 10
439.8248990200806929
 20
128.5946068110499994
 30
0.0
 42
-0.0979388031780276
  0
VERTEX
  5
2ACF
  8
0
 10
440.4436888259647276
 20
129.5334164180322034
 30
0.0
 42
-0.0990303044398055
 70
     2
 50
45.4229739227533713
  0
VERTEX
  5
2AD0
  8
0
 10
441.3727477158809052
 20
130.1627160622315955
 30
0.0
 42
-0.0998161775596926
  0
SEQEND
  5
2AD1
  8
0
  0
POLYLINE
  5
2AD2
  8
0
 66
     1
 10
0.0
 20
0.0
 30
0.0
  0
VERTEX
  5
2AD3
  8
0
 10
442.2890420569344201
 20
131.7328070096376109
 30
0.0
 42
-0.0976258198763456
  0
VERTEX
  5
2AD4
  8
0
 10
443.9333282134923024
 20
131.4086681383637085
 30
0.0
 42
-0.0981286416929715
  0
VERTEX
  5
2AD5
  8
0
 10
445.3236390572603796
 20
130.4880107620315073
 30
0.0
 42
-0.0988482120037866
 70
     2
 50
315.2788307973937094
  0
VERTEX
  5
2AD6
  8
0
 10
446.2545746926875836
 20
129.1072357658582064
 30
0.0
 42
-0.0993631123209296
  0
VERTEX
  5
2AD7
  8
0
 10
446.580610291132075
 20
127.4828067786695982
 30
0.0
 42
-0.0993631123208347
  0
VERTEX
  5
2AD8
  8
0
 10
446.2545746926879815
 20
125.8583777914817006
 30
0.0
 42
-0.098848212003788
  0
VERTEX
  5
2AD9
  8
0
 10
445.3236390572603796
 20
124.4776027953077033
 30
0.0
 42
-0.0981286416928954
 70
     2
 50
224.7211692026062906
  0
VERTEX
  5
2ADA
  8
0
 10
443.933328213492814
 20
123.5569454189755021
 30
0.0
 42
-0.09762581987632
  0
VERTEX
  5
2ADB
  8
0
 10
442.2890420569344201
 20
123.2328065477015997
 30
0.0
 42
-0.0976258198763262
  0
SEQEND
  5
2ADC
  8
0
  0
POLYLINE
  5
2ADD
  8
0
 66
     1
 10
0.0
 20
0.0
 30
0.0
  0
VERTEX
  5
2ADE
  8
0
 10
442.2890420569344201
 20
123.2328065477015997
 30
0.0
 42
-0.1022043465889152
  0
VERTEX
  5
2ADF
  8
0
 10
440.736084178061617
 20
123.5535955127041063
 30
0.0
 42
-0.0999525827554545
  0
VERTEX
  5
2AE0
  8
0
 10
439.4045434055572059
 20
124.4776027953077033
 30
0.0
 42
-0.0969246487631242
 70
     2
 50
133.8259274710912905
  0
VERTEX
  5
2AE1
  8
0
 10
438.5227487691603869
 20
125.8483080464313986
 30
0.0
 42
-0.0948870961146523
  0
VERTEX
  5
2AE2
  8
0
 10
438.2097449435096905
 20
127.4828067786695982
 30
0.0
 42
-0.0948870961148295
  0
VERTEX
  5
2AE3
  8
0
 10
438.5227487691611259
 20
129.11730551090821
 30
0.0
 42
-0.0969246487632256
  0
VERTEX
  5
2AE4
  8
0
 10
439.4045434055572059
 20
130.4880107620315073
 30
0.0
 42
-0.0999525827554142
 70
     2
 50
46.1740725289086598
  0
VERTEX
  5
2AE5
  8
0
 10
440.7360841780613896
 20
131.4120180446350901
 30
0.0
 42
-0.1022043465888975
  0
VERTEX
  5
2AE6
  8
0
 10
442.2890420569344201
 20
131.7328070096376109
 30
0.0
 42
-0.1022043465889214
  0
SEQEND
  5
2AE7
  8
0
  0
POLYLINE
  5
2AE8
  8
0
 66
     1
 10
0.0
 20
0.0
 30
0.0
  0
VERTEX
  5
2AE9
  8
0
 10
442.2890420569344201
 20
123.2328065477015997
 30
0.0
 42
-0.1022043465889152
  0
VERTEX
  5
2AEA
  8
0
 10
440.736084178061617
 20
123.5535955127041063
 30
0.0
 42
-0.0999525827554545
  0
VERTEX
  5
2AEB
  8
0
 10
439.4045434055572059
 20
124.4776027953077033
 30
0.0
 42
-0.0969246487631242
 70
     2
 50
133.8259274710912905
  0
VERTEX
  5
2AEC
  8
0
 10
438.5227487691603869
 20
125.8483080464313986
 30
0.0
 42
-0.0948870961146523
  0
VERTEX
  5
2AED
  8
0
 10
438.2097449435096905
 20
127.4828067786695982
 30
0.0
 42
-0.0948870961148295
  0
VERTEX
  5
2AEE
  8
0
 10
438.5227487691611259
 20
129.11730551090821
 30
0.0
 42
-0.0969246487632256
  0
VERTEX
  5
2AEF
  8
0
 10
439.4045434055572059
 20
130.4880107620315073
 30
0.0
 42
-0.0999525827554142
 70
     2
 50
46.1740725289086598
  0
VERTEX
  5
2AF0
  8
0
 10
440.7360841780613896
 20
131.4120180446350901
 30
0.0
 42
-0.1022043465889006
  0
VERTEX
  5
2AF1
  8
0
 10
442.2890420569344201
 20
131.7328070096376109
 30
0.0
 42
-0.1022043465889214
  0
SEQEND
  5
2AF2
  8
0
  0
POLYLINE
  5
2AF3
  8
0
 10
451.2330386480484208
 20
123.4828067786694561
 30
0.0
 66
     1
 70
     8
  0
VERTEX
  8
0
  5
4A14
 10
451.233
 20
123.483
 30
0.00000
  70
    32
  0
VERTEX
  8
0
  5
4A15
 10
451.138
 20
123.484
 30
0.00000
  70
    32
  0
VERTEX
  8
0
  5
4A16
 10
451.044
 20
123.488
 30
0.00000
  70
    32
  0
VERTEX
  8
0
  5
4A17
 10
450.949
 20
123.494
 30
0.00000
  70
    32
  0
VERTEX
  8
0
  5
4A18
 10
450.855
 20
123.502
 30
0.00000
  70
    32
  0
VERTEX
  8
0
  5
4A19
 10
450.761
 20
123.513
 30
0.00000
  70
    32
  0
VERTEX
  8
0
  5
4A1A
 10
450.667
 20
123.526
 30
0.00000
  70
    32
  0
VERTEX
  8
0
  5
4A1B
 10
450.574
 20
123.542
 30
0.00000
  70
    32
  0
VERTEX
  8
0
  5
4A1C
 10
450.481
 20
123.560
 30
0.00000
  70
    32
  0
VERTEX
  8
0
  5
4A1D
 10
450.388
 20
123.580
 30
0.00000
  70
    32
  0
VERTEX
  8
0
  5
4A1E
 10
450.296
 20
123.603
 30
0.00000
  70
    32
  0
VERTEX
  8
0
  5
4A1F
 10
450.205
 20
123.628
 30
0.00000
  70
    32
  0
VERTEX
  8
0
  5
4A20
 10
450.114
 20
123.655
 30
0.00000
  70
    32
  0
VERTEX
  8
0
  5
4A21
 10
450.024
 20
123.685
 30
0.00000
  70
    32
  0
VERTEX
  8
0
  5
4A22
 10
449.934
 20
123.717
 30
0.00000
  70
    32
  0
VERTEX
  8
0
  5
4A23
 10
449.846
 20
123.751
 30
0.00000
  70
    32
  0
VERTEX
  8
0
  5
4A24
 10
449.758
 20
123.787
 30
0.00000
  70
    32
  0
VERTEX
  8
0
  5
4A25
 10
449.671
 20
123.826
 30
0.00000
  70
    32
  0
VERTEX
  8
0
  5
4A26
 10
449.585
 20
123.867
 30
0.00000
  70
    32
  0
VERTEX
  8
0
  5
4A27
 10
449.500
 20
123.910
 30
0.00000
  70
    32
  0
VERTEX
  8
0
  5
4A28
 10
449.416
 20
123.955
 30
0.00000
  70
    32
  0
VERTEX
  8
0
  5
4A29
 10
449.333
 20
124.002
 30
0.00000
  70
    32
  0
VERTEX
  8
0
  5
4A2A
 10
449.251
 20
124.052
 30
0.00000
  70
    32
  0
VERTEX
  8
0
  5
4A2B
 10
449.171
 20
124.103
 30
0.00000
  70
    32
  0
VERTEX
  8
0
  5
4A2C
 10
449.091
 20
124.157
 30
0.00000
  70
    32
  0
VERTEX
  8
0
  5
4A2D
 10
449.013
 20
124.212
 30
0.00000
  70
    32
  0
VERTEX
  8
0
  5
4A2E
 10
448.937
 20
124.270
 30
0.00000
  70
    32
  0
VERTEX
  8
0
  5
4A2F
 10
448.861
 20
124.329
 30
0.00000
  70
    32
  0
VERTEX
  8
0
  5
4A30
 10
448.788
 20
124.391
 30
0.00000
  70
    32
  0
VERTEX
  8
0
  5
4A31
 10
448.715
 20
124.454
 30
0.00000
  70
    32
  0
VERTEX
  8
0
  5
4A32
 10
448.644
 20
124.519
 30
0.00000
  70
    32
  0
VERTEX
  8
0
  5
4A33
 10
448.575
 20
124.586
 30
0.00000
  70
    32
  0
VERTEX
  8
0
  5
4A34
 10
448.507
 20
124.654
 30
0.00000
  70
    32
  0
VERTEX
  8
0
  5
4A35
 10
448.441
 20
124.725
 30
0.00000
  70
    32
  0
VERTEX
  8
0
  5
4A36
 10
448.377
 20
124.797
 30
0.00000
  70
    32
  0
VERTEX
  8
0
  5
4A37
 10
448.314
 20
124.870
 30
0.00000
  70
    32
  0
VERTEX
  8
0
  5
4A38
 10
448.253
 20
124.945
 30
0.00000
  70
    32
  0
VERTEX
  8
0
  5
4A39
 10
448.194
 20
125.022
 30
0.00000
  70
    32
  0
VERTEX
  8
0
  5
4A3A
 10
448.137
 20
125.100
 30
0.00000
  70
    32
  0
VERTEX
  8
0
  5
4A3B
 10
448.081
 20
125.180
 30
0.00000
  70
    32
  0
VERTEX
  8
0
  5
4A3C
 10
448.028
 20
125.261
 30
0.00000
  70
    32
  0
VERTEX
  8
0
  5
4A3D
 10
447.976
 20
125.343
 30
0.00000
  70
    32
  0
VERTEX
  8
0
  5
4A3E
 10
447.927
 20
125.426
 30
0.00000
  70
    32
  0
VERTEX
  8
0
  5
4A3F
 10
447.879
 20
125.511
 30
0.00000
  70
    32
  0
VERTEX
  8
0
  5
4A40
 10
447.833
 20
125.597
 30
0.00000
  70
    32
  0
VERTEX
  8
0
  5
4A41
 10
447.790
 20
125.684
 30
0.00000
  70
    32
  0
VERTEX
  8
0
  5
4A42
 10
447.748
 20
125.773
 30
0.00000
  70
    32
  0
VERTEX
  8
0
  5
4A43
 10
447.709
 20
125.862
 30
0.00000
  70
    32
  0
VERTEX
  8
0
  5
4A44
 10
447.672
 20
125.952
 30
0.00000
  70
    32
  0
VERTEX
  8
0
  5
4A45
 10
447.637
 20
126.043
 30
0.00000
  70
    32
  0
VERTEX
  8
0
  5
4A46
 10
447.604
 20
126.135
 30
0.00000
  70
    32
  0
VERTEX
  8
0
  5
4A47
 10
447.573
 20
126.228
 30
0.00000
  70
    32
  0
VERTEX
  8
0
  5
4A48
 10
447.544
 20
126.322
 30
0.00000
  70
    32
  0
VERTEX
  8
0
  5
4A49
 10
447.518
 20
126.416
 30
0.00000
  70
    32
  0
VERTEX
  8
0
  5
4A4A
 10
447.494
 20
126.511
 30
0.00000
  70
    32
  0
VERTEX
  8
0
  5
4A4B
 10
447.472
 20
126.606
 30
0.00000
  70
    32
  0
VERTEX
  8
0
  5
4A4C
 10
447.452
 20
126.702
 30
0.00000
  70
    32
  0
VERTEX
  8
0
  5
4A4D
 10
447.435
 20
126.799
 30
0.00000
  70
    32
  0
VERTEX
  8
0
  5
4A4E
 10
447.420
 20
126.896
 30
0.00000
  70
    32
  0
VERTEX
  8
0
  5
4A4F
 10
447.407
 20
126.993
 30
0.00000
  70
    32
  0
VERTEX
  8
0
  5
4A50
 10
447.397
 20
127.091
 30
0.00000
  70
    32
  0
VERTEX
  8
0
  5
4A51
 10
447.389
 20
127.189
 30
0.00000
  70
    32
  0
VERTEX
  8
0
  5
4A52
 10
447.383
 20
127.287
 30
0.00000
  70
    32
  0
VERTEX
  8
0
  5
4A53
 10
447.379
 20
127.385
 30
0.00000
  70
    32
  0
VERTEX
  8
0
  5
4A54
 10
447.378
 20
127.483
 30
0.00000
  70
    32
  0
VERTEX
  8
0
  5
4A55
 10
447.379
 20
127.581
 30
0.00000
  70
    32
  0
VERTEX
  8
0
  5
4A56
 10
447.383
 20
127.679
 30
0.00000
  70
    32
  0
VERTEX
  8
0
  5
4A57
 10
447.389
 20
127.777
 30
0.00000
  70
    32
  0
VERTEX
  8
0
  5
4A58
 10
447.397
 20
127.875
 30
0.00000
  70
    32
  0
VERTEX
  8
0
  5
4A59
 10
447.407
 20
127.972
 30
0.00000
  70
    32
  0
VERTEX
  8
0
  5
4A5A
 10
447.420
 20
128.070
 30
0.00000
  70
    32
  0
VERTEX
  8
0
  5
4A5B
 10
447.435
 20
128.167
 30
0.00000
  70
    32
  0
VERTEX
  8
0
  5
4A5C
 10
447.452
 20
128.263
 30
0.00000
  70
    32
  0
VERTEX
  8
0
  5
4A5D
 10
447.472
 20
128.359
 30
0.00000
  70
    32
  0
VERTEX
  8
0
  5
4A5E
 10
447.494
 20
128.455
 30
0.00000
  70
    32
  0
VERTEX
  8
0
  5
4A5F
 10
447.518
 20
128.550
 30
0.00000
  70
    32
  0
VERTEX
  8
0
  5
4A60
 10
447.544
 20
128.644
 30
0.00000
  70
    32
  0
VERTEX
  8
0
  5
4A61
 10
447.573
 20
128.738
 30
0.00000
  70
    32
  0
VERTEX
  8
0
  5
4A62
 10
447.604
 20
128.830
 30
0.00000
  70
    32
  0
VERTEX
  8
0
  5
4A63
 10
447.637
 20
128.922
 30
0.00000
  70
    32
  0
VERTEX
  8
0
  5
4A64
 10
447.672
 20
129.014
 30
0.00000
  70
    32
  0
VERTEX
  8
0
  5
4A65
 10
447.709
 20
129.104
 30
0.00000
  70
    32
  0
VERTEX
  8
0
  5
4A66
 10
447.748
 20
129.193
 30
0.00000
  70
    32
  0
VERTEX
  8
0
  5
4A67
 10
447.790
 20
129.281
 30
0.00000
  70
    32
  0
VERTEX
  8
0
  5
4A68
 10
447.833
 20
129.368
 30
0.00000
  70
    32
  0
VERTEX
  8
0
  5
4A69
 10
447.879
 20
129.454
 30
0.00000
  70
    32
  0
VERTEX
  8
0
  5
4A6A
 10
447.927
 20
129.539
 30
0.00000
  70
    32
  0
VERTEX
  8
0
  5
4A6B
 10
447.976
 20
129.623
 30
0.00000
  70
    32
  0
VERTEX
  8
0
  5
4A6C
 10
448.028
 20
129.705
 30
0.00000
  70
    32
  0
VERTEX
  8
0
  5
4A6D
 10
448.081
 20
129.786
 30
0.00000
  70
    32
  0
VERTEX
  8
0
  5
4A6E
 10
448.137
 20
129.866
 30
0.00000
  70
    32
  0
VERTEX
  8
0
  5
4A6F
 10
448.194
 20
129.944
 30
0.00000
  70
    32
  0
VERTEX
  8
0
  5
4A70
 10
448.253
 20
130.020
 30
0.00000
  70
    32
  0
VERTEX
  8
0
  5
4A71
 10
448.314
 20
130.095
 30
0.00000
  70
    32
  0
VERTEX
  8
0
  5
4A72
 10
448.377
 20
130.169
 30
0.00000
  70
    32
  0
VERTEX
  8
0
  5
4A73
 10
448.441
 20
130.241
 30
0.00000
  70
    32
  0
VERTEX
  8
0
  5
4A74
 10
448.507
 20
130.311
 30
0.00000
  70
    32
  0
VERTEX
  8
0
  5
4A75
 10
448.575
 20
130.380
 30
0.00000
  70
    32
  0
VERTEX
  8
0
  5
4A76
 10
448.644
 20
130.447
 30
0.00000
  70
    32
  0
VERTEX
  8
0
  5
4A77
 10
448.715
 20
130.512
 30
0.00000
  70
    32
  0
VERTEX
  8
0
  5
4A78
 10
448.788
 20
130.575
 30
0.00000
  70
    32
  0
VERTEX
  8
0
  5
4A79
 10
448.861
 20
130.636
 30
0.00000
  70
    32
  0
VERTEX
  8
0
  5
4A7A
 10
448.937
 20
130.696
 30
0.00000
  70
    32
  0
VERTEX
  8
0
  5
4A7B
 10
449.013
 20
130.753
 30
0.00000
  70
    32
  0
VERTEX
  8
0
  5
4A7C
 10
449.091
 20
130.809
 30
0.00000
  70
    32
  0
VERTEX
  8
0
  5
4A7D
 10
449.171
 20
130.862
 30
0.00000
  70
    32
  0
VERTEX
  8
0
  5
4A7E
 10
449.251
 20
130.914
 30
0.00000
  70
    32
  0
VERTEX
  8
0
  5
4A7F
 10
449.333
 20
130.963
 30
0.00000
  70
    32
  0
VERTEX
  8
0
  5
4A80
 10
449.416
 20
131.010
 30
0.00000
  70
    32
  0
VERTEX
  8
0
  5
4A81
 10
449.500
 20
131.056
 30
0.00000
  70
    32
  0
VERTEX
  8
0
  5
4A82
 10
449.585
 20
131.099
 30
0.00000
  70
    32
  0
VERTEX
  8
0
  5
4A83
 10
449.671
 20
131.140
 30
0.00000
  70
    32
  0
VERTEX
  8
0
  5
4A84
 10
449.758
 20
131.178
 30
0.00000
  70
    32
  0
VERTEX
  8
0
  5
4A85
 10
449.846
 20
131.215
 30
0.00000
  70
    32
  0
VERTEX
  8
0
  5
4A86
 10
449.934
 20
131.249
 30
0.00000
  70
    32
  0
VERTEX
  8
0
  5
4A87
 10
450.024
 20
131.281
 30
0.00000
  70
    32
  0
VERTEX
  8
0
  5
4A88
 10
450.114
 20
131.311
 30
0.00000
  70
    32
  0
VERTEX
  8
0
  5
4A89
 10
450.205
 20
131.338
 30
0.00000
  70
    32
  0
VERTEX
  8
0
  5
4A8A
 10
450.296
 20
131.363
 30
0.00000
  70
    32
  0
VERTEX
  8
0
  5
4A8B
 10
450.388
 20
131.386
 30
0.00000
  70
    32
  0
VERTEX
  8
0
  5
4A8C
 10
450.481
 20
131.406
 30
0.00000
  70
    32
  0
VERTEX
  8
0
  5
4A8D
 10
450.574
 20
131.424
 30
0.00000
  70
    32
  0
VERTEX
  8
0
  5
4A8E
 10
450.667
 20
131.440
 30
0.00000
  70
    32
  0
VERTEX
  8
0
  5
4A8F
 10
450.761
 20
131.453
 30
0.00000
  70
    32
  0
VERTEX
  8
0
  5
4A90
 10
450.855
 20
131.464
 30
0.00000
  70
    32
  0
VERTEX
  8
0
  5
4A91
 10
450.949
 20
131.472
 30
0.00000
  70
    32
  0
VERTEX
  8
0
  5
4A92
 10
451.044
 20
131.478
 30
0.00000
  70
    32
  0
VERTEX
  8
0
  5
4A93
 10
451.138
 20
131.482
 30
0.00000
  70
    32
  0
VERTEX
  8
0
  5
4A94
 10
451.233
 20
131.483
 30
0.00000
  70
    32
  0
SEQEND
  8
0
  5
4A95
  0
CIRCLE
  5
2AF4
  8
0
 10
471.5187152116017728
 20
127.4828067786693993
 30
0.0
 40
10.0
  0
LINE
  5
2AF5
  8
0
 10
462.3535638216902726
 20
131.4828067786694135
 30
0.0
 11
459.8937647219378846
 21
131.4828067786694135
 31
0.0
  0
LINE
  5
2AF6
  8
0
 10
459.8937647219378846
 20
123.4828067786693993
 30
0.0
 11
462.3535638216902726
 21
123.4828067786693993
 31
0.0
  0
LINE
  5
2AF7
  8
0
 10
431.3937647219376004
 20
76.9828066743613135
 30
0.0
 11
431.8937647219377141
 21
76.4828066743613135
 31
0.0
  0
LINE
  5
2AF8
  8
0
 10
457.8937647219378846
 20
76.4828066743613135
 30
0.0
 11
458.3937647219378846
 21
76.9828066743613135
 31
0.0
  0
LINE
  5
2AF9
  8
0
 10
458.3937647219378846
 20
76.9828066743613135
 30
0.0
 11
458.3937647219377141
 21
83.4827994014484744
 31
0.0
  0
LINE
  5
2AFA
  8
0
 10
431.3937647219376004
 20
83.4828139472742237
 30
0.0
 11
431.3937647219376004
 21
76.9828066743613135
 31
0.0
  0
LINE
  5
2AFB
  8
0
 10
457.8937647219378846
 20
76.4828066743613135
 30
0.0
 11
431.8937647219377141
 21
76.4828066743613135
 31
0.0
  0
LINE
  5
2AFC
  8
0
 10
431.3937647219376004
 20
76.9828066743613135
 30
0.0
 11
458.3937647219378846
 21
76.9828066743613135
 31
0.0
  0
LINE
  5
2AFD
  8
1
 10
444.8937647219378846
 20
71.4828066743613135
 30
0.0
 11
444.8937647219378846
 21
137.4828067786694135
 31
0.0
  0
LINE
  5
2AFE
  8
0
 10
459.8937643866618146
 20
110.2827994065007999
 30
0.0
 11
459.8937643866618146
 21
83.6828002239925013
 31
0.0
  0
LINE
  5
2AFF
  8
0
 10
459.6937647264081761
 20
83.4827987010938273
 30
0.0
 11
459.8937643866618146
 21
83.6828002239925013
 31
0.0
  0
LINE
  5
2B00
  8
0
 10
459.6937647264081761
 20
83.4827987010938273
 30
0.0
 11
430.0937487710725122
 21
83.4828146476373831
 31
0.0
  0
LINE
  5
2B01
  8
0
 10
429.8937650572140114
 20
83.6828002239925013
 30
0.0
 11
430.0937647174674794
 21
83.4827987010938273
 31
0.0
  0
LINE
  5
2B02
  8
0
 10
429.8937650572140114
 20
83.6828002239925013
 30
0.0
 11
429.8937650572140114
 21
110.2827994065008994
 31
0.0
  0
LINE
  5
2B03
  8
0
 10
459.8937643866618146
 20
83.6828002239925013
 30
0.0
 11
429.8937650572140114
 21
83.6828002239925581
 31
0.0
  0
LINE
  5
2B0B
  8
0
 10
429.8937647219378846
 20
123.4828067786694987
 30
0.0
 11
440.9116573618654797
 21
123.4828067786693993
 31
0.0
  0
LINE
  5
2B0C
  8
0
 10
459.893764721938112
 20
131.4828067786694135
 30
0.0
 11
443.7393442417092047
 21
131.4828067786694987
 31
0.0
  0
LINE
  5
2B0D
  8
0
 10
430.8937647219376004
 20
132.4828067786694987
 30
0.0
 11
458.8937647219378846
 21
132.4828067786694135
 31
0.0
  0
LINE
  5
2B0E
  8
0
 10
429.8937647219378846
 20
123.4828067786694987
 30
0.0
 11
430.8937647219378846
 21
122.4828067786694987
 31
0.0
  0
LINE
  5
2B0F
  8
0
 10
429.8937647219377141
 20
131.4828067786694135
 30
0.0
 11
429.8937647219378846
 21
123.4828067786694987
 31
0.0
  0
LINE
  5
2B10
  8
0
 10
430.8937647219376004
 20
132.4828067786694987
 30
0.0
 11
429.8937647219377141
 21
131.4828067786694135
 31
0.0
  0
LINE
  5
2B11
  8
0
 10
458.893764721938112
 20
132.4828067786694987
 30
0.0
 11
459.893764721938112
 21
131.4828067786694135
 31
0.0
  0
LINE
  5
2B12
  8
0
 10
459.8937647219378846
 20
123.4828067786694987
 30
0.0
 11
458.8937647219378846
 21
122.4828067786694987
 31
0.0
  0
LINE
  5
2B13
  8
1
 10
435.7097449435098042
 20
127.4828067786693993
 30
0.0
 11
486.5187152116017728
 21
127.4828067786693993
 31
0.0
  0
ARC
  5
2B55
  8
0
 10
62.3466188243370425
 20
127.4828067786693993
 30
0.0
 40
10.0
 50
90.0
 51
270.0
  0
LINE
  5
2B56
  8
0
 10
92.2547757965464967
 20
131.4828067786694135
 30
0.0
 11
105.8507332323805059
 21
131.4828067786694987
 31
0.0
  0
LINE
  5
2B57
  8
0
 10
105.8507332323805059
 20
123.4828067786693993
 30
0.0
 11
92.2547757965464967
 21
123.4828067786694987
 31
0.0
  0
LINE
  5
2B58
  8
0
 10
72.3933952312366955
 20
131.4828067786694135
 30
0.0
 11
85.0043135002533745
 21
131.4828067786694135
 31
0.0
  0
LINE
  5
2B59
  8
0
 10
85.0043135002533745
 20
123.4828067786693993
 30
0.0
 11
72.3933952312365818
 21
123.4828067786693993
 31
0.0
  0
POLYLINE
  5
2B5A
  8
0
 66
     1
 10
0.0
 20
0.0
 30
0.0
 70
   128
  0
VERTEX
  5
4469
  8
0
 10
85.8227102450157417
 20
130.9828067786694135
 30
0.0
  0
VERTEX
  5
446A
  8
0
 10
85.6298063716728848
 20
131.1989169787727008
 30
0.0
  0
VERTEX
  5
446B
  8
0
 10
85.4269317619939557
 20
131.3557901248769042
 30
0.0
  0
VERTEX
  5
446C
  8
0
 10
85.2173203604969558
 20
131.4509255637381102
 30
0.0
  0
VERTEX
  5
446D
  8
0
 10
85.0043135002533745
 20
131.4828067786694135
 30
0.0
  0
SEQEND
  5
446E
  8
0
  0
POLYLINE
  5
2B5B
  8
0
 66
     1
 10
0.0
 20
0.0
 30
0.0
 70
   128
  0
VERTEX
  5
446F
  8
0
 10
91.4363790517841153
 20
130.9828067786694135
 30
0.0
  0
VERTEX
  5
4470
  8
0
 10
91.6292829251269723
 20
131.1989169787727008
 30
0.0
  0
VERTEX
  5
4471
  8
0
 10
91.8321575348057877
 20
131.3557901248769042
 30
0.0
  0
VERTEX
  5
4472
  8
0
 10
92.0417689363027876
 20
131.4509255637381102
 30
0.0
  0
VERTEX
  5
4473
  8
0
 10
92.2547757965464967
 20
131.4828067786694135
 30
0.0
  0
VERTEX
  5
4474
  8
0
 10
92.4677826567901633
 20
131.4509255637381102
 30
0.0
  0
VERTEX
  5
4475
  8
0
 10
92.677394058287291
 20
131.3557901248769042
 30
0.0
  0
VERTEX
  5
4476
  8
0
 10
92.8802686679659928
 20
131.1989169787727008
 30
0.0
  0
VERTEX
  5
4477
  8
0
 10
93.0731725413089634
 20
130.9828067786694135
 30
0.0
  0
SEQEND
  5
4478
  8
0
  0
LINE
  5
2B5C
  8
0
 10
93.0731725413089634
 20
130.9828067786694135
 30
0.0
 11
85.8227102450157417
 21
130.9828067786694135
 31
0.0
  0
POLYLINE
  5
2B5D
  8
0
 66
     1
 10
0.0
 20
0.0
 30
0.0
 70
   128
  0
VERTEX
  5
4479
  8
0
 10
85.8227102450157417
 20
123.9828067786693993
 30
0.0
  0
VERTEX
  5
447A
  8
0
 10
85.6298063716728848
 20
123.7666965785661972
 30
0.0
  0
VERTEX
  5
447B
  8
0
 10
85.4269317619939557
 20
123.6098234324619938
 30
0.0
  0
VERTEX
  5
447C
  8
0
 10
85.2173203604969558
 20
123.5146879936007025
 30
0.0
  0
VERTEX
  5
447D
  8
0
 10
85.0043135002533745
 20
123.4828067786693993
 30
0.0
  0
SEQEND
  5
447E
  8
0
  0
LINE
  5
2B5E
  8
0
 10
85.8227102450157417
 20
123.9828067786693993
 30
0.0
 11
93.0731725413089634
 21
123.9828067786694987
 31
0.0
  0
POLYLINE
  5
2B5F
  8
0
 66
     1
 10
0.0
 20
0.0
 30
0.0
 70
   128
  0
VERTEX
  5
447F
  8
0
 10
91.4363790517841153
 20
123.9828067786693993
 30
0.0
  0
VERTEX
  5
4480
  8
0
 10
91.6292829251269723
 20
123.7666965785661972
 30
0.0
  0
VERTEX
  5
4481
  8
0
 10
91.8321575348057877
 20
123.6098234324619938
 30
0.0
  0
VERTEX
  5
4482
  8
0
 10
92.0417689363027876
 20
123.5146879936007025
 30
0.0
  0
VERTEX
  5
4483
  8
0
 10
92.2547757965464967
 20
123.4828067786693993
 30
0.0
  0
VERTEX
  5
4484
  8
0
 10
92.4677826567901633
 20
123.5146879936007025
 30
0.0
  0
VERTEX
  5
4485
  8
0
 10
92.677394058287291
 20
123.6098234324619938
 30
0.0
  0
VERTEX
  5
4486
  8
0
 10
92.8802686679659928
 20
123.7666965785661972
 30
0.0
  0
VERTEX
  5
4487
  8
0
 10
93.0731725413089634
 20
123.9828067786694987
 30
0.0
  0
SEQEND
  5
4488
  8
0
  0
LINE
  5
2B62
  8
0
 10
134.4440094076458934
 20
123.4828067786694987
 30
0.0
 11
113.2912271779333935
 21
123.4828067786694987
 31
0.0
  0
LINE
  5
2B65
  8
0
 10
133.444009407646007
 20
132.4828067786694987
 30
0.0
 11
105.4440094076457939
 21
132.4828067786694135
 31
0.0
  0
LINE
  5
2B66
  8
0
 10
134.4440094076458934
 20
123.4828067786694987
 30
0.0
 11
133.4440094076458934
 21
122.4828067786694987
 31
0.0
  0
LINE
  5
2B67
  8
0
 10
134.444009407646007
 20
131.4828067786694135
 30
0.0
 11
134.4440094076458934
 21
123.4828067786694987
 31
0.0
  0
LINE
  5
2B68
  8
0
 10
133.444009407646007
 20
132.4828067786694987
 30
0.0
 11
134.444009407646007
 21
131.4828067786694135
 31
0.0
  0
LINE
  5
2B69
  8
1
 10
119.4440094076457939
 20
127.4828067786693993
 30
0.0
 11
47.3466188243370425
 21
127.4828067786693993
 31
0.0
  0
LINE
  5
2B6A
  8
1
 10
119.4440094076458934
 20
71.4828066743613135
 30
0.0
 11
119.4440094076457939
 21
137.4828067786694135
 31
0.0
  0
LINE
  5
2B80
  8
0
 10
132.944009407646007
 20
76.9828066743613135
 30
0.0
 11
132.444009407646007
 21
76.4828066743613135
 31
0.0
  0
LINE
  5
2B81
  8
0
 10
106.4440094076457939
 20
76.4828066743613135
 30
0.0
 11
105.9440094076457939
 21
76.9828066743613135
 31
0.0
  0
LINE
  5
2B82
  8
0
 10
105.9440094076457939
 20
76.9828066743613135
 30
0.0
 11
105.944009407646007
 21
83.4827994014484744
 31
0.0
  0
LINE
  5
2B83
  8
0
 10
132.944009407646007
 20
83.4828139472742237
 30
0.0
 11
132.944009407646007
 21
76.9828066743613135
 31
0.0
  0
LINE
  5
2B84
  8
0
 10
106.4440094076457939
 20
76.4828066743613135
 30
0.0
 11
132.444009407646007
 21
76.4828066743613135
 31
0.0
  0
LINE
  5
2B85
  8
0
 10
132.944009407646007
 20
76.9828066743613135
 30
0.0
 11
105.9440094076457939
 21
76.9828066743613135
 31
0.0
  0
LINE
  5
2B87
  8
0
 10
104.4440097429219065
 20
110.2827994065007999
 30
0.0
 11
104.6440094031754029
 21
110.4827994014484034
 31
0.0
  0
LINE
  5
2B88
  8
0
 10
104.4440097429219065
 20
110.2827994065007999
 30
0.0
 11
104.4440097429219065
 21
83.6828002239925013
 31
0.0
  0
LINE
  5
2B89
  8
0
 10
104.6440094031754029
 20
83.4827987010938273
 30
0.0
 11
104.4440097429219065
 21
83.6828002239925013
 31
0.0
  0
LINE
  5
2B8A
  8
0
 10
104.6440094031754029
 20
83.4827987010938273
 30
0.0
 11
134.2440253585114078
 21
83.4828146476373831
 31
0.0
  0
LINE
  5
2B8B
  8
0
 10
134.4440090723697097
 20
83.6828002239925013
 30
0.0
 11
134.2440094121160996
 21
83.4827987010938273
 31
0.0
  0
LINE
  5
2B8C
  8
0
 10
134.4440090723697097
 20
83.6828002239925013
 30
0.0
 11
134.4440090723697097
 21
110.2827994065008994
 31
0.0
  0
LINE
  5
2B8D
  8
0
 10
134.2440094121160996
 20
110.4827994014484034
 30
0.0
 11
134.4440090723697097
 21
110.2827994065008994
 31
0.0
  0
LINE
  5
2B8E
  8
0
 10
134.4440090723697097
 20
110.2827994065008994
 30
0.0
 11
104.4440097429219065
 21
110.2827994065007999
 31
0.0
  0
LINE
  5
2B8F
  8
0
 10
104.4440097429219065
 20
83.6828002239925013
 30
0.0
 11
134.4440090723697097
 21
83.6828002239925581
 31
0.0
  0
POLYLINE
  5
2B90
  8
0
 10
112.444009595866504
 20
129.5498067786694776
 30
0.0
 66
     1
 70
     8
  0
VERTEX
  8
0
  5
4A96
 10
112.444
 20
129.550
 30
0.00000
  70
    32
  0
VERTEX
  8
0
  5
4A97
 10
112.498
 20
129.549
 30
0.00000
  70
    32
  0
VERTEX
  8
0
  5
4A98
 10
112.551
 20
129.547
 30
0.00000
  70
    32
  0
VERTEX
  8
0
  5
4A99
 10
112.605
 20
129.544
 30
0.00000
  70
    32
  0
VERTEX
  8
0
  5
4A9A
 10
112.658
 20
129.540
 30
0.00000
  70
    32
  0
VERTEX
  8
0
  5
4A9B
 10
112.712
 20
129.534
 30
0.00000
  70
    32
  0
VERTEX
  8
0
  5
4A9C
 10
112.765
 20
129.527
 30
0.00000
  70
    32
  0
VERTEX
  8
0
  5
4A9D
 10
112.818
 20
129.519
 30
0.00000
  70
    32
  0
VERTEX
  8
0
  5
4A9E
 10
112.871
 20
129.510
 30
0.00000
  70
    32
  0
VERTEX
  8
0
  5
4A9F
 10
112.923
 20
129.500
 30
0.00000
  70
    32
  0
VERTEX
  8
0
  5
4AA0
 10
112.975
 20
129.488
 30
0.00000
  70
    32
  0
VERTEX
  8
0
  5
4AA1
 10
113.027
 20
129.475
 30
0.00000
  70
    32
  0
VERTEX
  8
0
  5
4AA2
 10
113.079
 20
129.461
 30
0.00000
  70
    32
  0
VERTEX
  8
0
  5
4AA3
 10
113.130
 20
129.445
 30
0.00000
  70
    32
  0
VERTEX
  8
0
  5
4AA4
 10
113.181
 20
129.429
 30
0.00000
  70
    32
  0
VERTEX
  8
0
  5
4AA5
 10
113.231
 20
129.411
 30
0.00000
  70
    32
  0
VERTEX
  8
0
  5
4AA6
 10
113.281
 20
129.392
 30
0.00000
  70
    32
  0
VERTEX
  8
0
  5
4AA7
 10
113.330
 20
129.372
 30
0.00000
  70
    32
  0
VERTEX
  8
0
  5
4AA8
 10
113.379
 20
129.351
 30
0.00000
  70
    32
  0
VERTEX
  8
0
  5
4AA9
 10
113.427
 20
129.329
 30
0.00000
  70
    32
  0
VERTEX
  8
0
  5
4AAA
 10
113.475
 20
129.306
 30
0.00000
  70
    32
  0
VERTEX
  8
0
  5
4AAB
 10
113.522
 20
129.281
 30
0.00000
  70
    32
  0
VERTEX
  8
0
  5
4AAC
 10
113.568
 20
129.256
 30
0.00000
  70
    32
  0
VERTEX
  8
0
  5
4AAD
 10
113.614
 20
129.229
 30
0.00000
  70
    32
  0
VERTEX
  8
0
  5
4AAE
 10
113.659
 20
129.201
 30
0.00000
  70
    32
  0
VERTEX
  8
0
  5
4AAF
 10
113.703
 20
129.173
 30
0.00000
  70
    32
  0
VERTEX
  8
0
  5
4AB0
 10
113.747
 20
129.143
 30
0.00000
  70
    32
  0
VERTEX
  8
0
  5
4AB1
 10
113.790
 20
129.112
 30
0.00000
  70
    32
  0
VERTEX
  8
0
  5
4AB2
 10
113.832
 20
129.081
 30
0.00000
  70
    32
  0
VERTEX
  8
0
  5
4AB3
 10
113.873
 20
129.048
 30
0.00000
  70
    32
  0
VERTEX
  8
0
  5
4AB4
 10
113.913
 20
129.014
 30
0.00000
  70
    32
  0
VERTEX
  8
0
  5
4AB5
 10
113.952
 20
128.980
 30
0.00000
  70
    32
  0
VERTEX
  8
0
  5
4AB6
 10
113.991
 20
128.944
 30
0.00000
  70
    32
  0
VERTEX
  8
0
  5
4AB7
 10
114.028
 20
128.908
 30
0.00000
  70
    32
  0
VERTEX
  8
0
  5
4AB8
 10
114.065
 20
128.871
 30
0.00000
  70
    32
  0
VERTEX
  8
0
  5
4AB9
 10
114.100
 20
128.833
 30
0.00000
  70
    32
  0
VERTEX
  8
0
  5
4ABA
 10
114.135
 20
128.794
 30
0.00000
  70
    32
  0
VERTEX
  8
0
  5
4ABB
 10
114.168
 20
128.754
 30
0.00000
  70
    32
  0
VERTEX
  8
0
  5
4ABC
 10
114.201
 20
128.714
 30
0.00000
  70
    32
  0
VERTEX
  8
0
  5
4ABD
 10
114.232
 20
128.673
 30
0.00000
  70
    32
  0
VERTEX
  8
0
  5
4ABE
 10
114.263
 20
128.631
 30
0.00000
  70
    32
  0
VERTEX
  8
0
  5
4ABF
 10
114.292
 20
128.589
 30
0.00000
  70
    32
  0
VERTEX
  8
0
  5
4AC0
 10
114.320
 20
128.545
 30
0.00000
  70
    32
  0
VERTEX
  8
0
  5
4AC1
 10
114.347
 20
128.502
 30
0.00000
  70
    32
  0
VERTEX
  8
0
  5
4AC2
 10
114.373
 20
128.457
 30
0.00000
  70
    32
  0
VERTEX
  8
0
  5
4AC3
 10
114.398
 20
128.412
 30
0.00000
  70
    32
  0
VERTEX
  8
0
  5
4AC4
 10
114.421
 20
128.367
 30
0.00000
  70
    32
  0
VERTEX
  8
0
  5
4AC5
 10
114.444
 20
128.320
 30
0.00000
  70
    32
  0
VERTEX
  8
0
  5
4AC6
 10
114.465
 20
128.274
 30
0.00000
  70
    32
  0
VERTEX
  8
0
  5
4AC7
 10
114.485
 20
128.227
 30
0.00000
  70
    32
  0
VERTEX
  8
0
  5
4AC8
 10
114.503
 20
128.179
 30
0.00000
  70
    32
  0
VERTEX
  8
0
  5
4AC9
 10
114.521
 20
128.131
 30
0.00000
  70
    32
  0
VERTEX
  8
0
  5
4ACA
 10
114.537
 20
128.083
 30
0.00000
  70
    32
  0
VERTEX
  8
0
  5
4ACB
 10
114.552
 20
128.034
 30
0.00000
  70
    32
  0
VERTEX
  8
0
  5
4ACC
 10
114.566
 20
127.985
 30
0.00000
  70
    32
  0
VERTEX
  8
0
  5
4ACD
 10
114.578
 20
127.936
 30
0.00000
  70
    32
  0
VERTEX
  8
0
  5
4ACE
 10
114.589
 20
127.886
 30
0.00000
  70
    32
  0
VERTEX
  8
0
  5
4ACF
 10
114.599
 20
127.836
 30
0.00000
  70
    32
  0
VERTEX
  8
0
  5
4AD0
 10
114.608
 20
127.786
 30
0.00000
  70
    32
  0
VERTEX
  8
0
  5
4AD1
 10
114.615
 20
127.736
 30
0.00000
  70
    32
  0
VERTEX
  8
0
  5
4AD2
 10
114.621
 20
127.685
 30
0.00000
  70
    32
  0
VERTEX
  8
0
  5
4AD3
 10
114.625
 20
127.635
 30
0.00000
  70
    32
  0
VERTEX
  8
0
  5
4AD4
 10
114.629
 20
127.584
 30
0.00000
  70
    32
  0
VERTEX
  8
0
  5
4AD5
 10
114.631
 20
127.534
 30
0.00000
  70
    32
  0
VERTEX
  8
0
  5
4AD6
 10
114.631
 20
127.483
 30
0.00000
  70
    32
  0
VERTEX
  8
0
  5
4AD7
 10
114.631
 20
127.432
 30
0.00000
  70
    32
  0
VERTEX
  8
0
  5
4AD8
 10
114.629
 20
127.381
 30
0.00000
  70
    32
  0
VERTEX
  8
0
  5
4AD9
 10
114.625
 20
127.331
 30
0.00000
  70
    32
  0
VERTEX
  8
0
  5
4ADA
 10
114.621
 20
127.280
 30
0.00000
  70
    32
  0
VERTEX
  8
0
  5
4ADB
 10
114.615
 20
127.230
 30
0.00000
  70
    32
  0
VERTEX
  8
0
  5
4ADC
 10
114.608
 20
127.180
 30
0.00000
  70
    32
  0
VERTEX
  8
0
  5
4ADD
 10
114.599
 20
127.129
 30
0.00000
  70
    32
  0
VERTEX
  8
0
  5
4ADE
 10
114.589
 20
127.080
 30
0.00000
  70
    32
  0
VERTEX
  8
0
  5
4ADF
 10
114.578
 20
127.030
 30
0.00000
  70
    32
  0
VERTEX
  8
0
  5
4AE0
 10
114.566
 20
126.981
 30
0.00000
  70
    32
  0
VERTEX
  8
0
  5
4AE1
 10
114.552
 20
126.932
 30
0.00000
  70
    32
  0
VERTEX
  8
0
  5
4AE2
 10
114.537
 20
126.883
 30
0.00000
  70
    32
  0
VERTEX
  8
0
  5
4AE3
 10
114.521
 20
126.834
 30
0.00000
  70
    32
  0
VERTEX
  8
0
  5
4AE4
 10
114.503
 20
126.786
 30
0.00000
  70
    32
  0
VERTEX
  8
0
  5
4AE5
 10
114.485
 20
126.739
 30
0.00000
  70
    32
  0
VERTEX
  8
0
  5
4AE6
 10
114.465
 20
126.692
 30
0.00000
  70
    32
  0
VERTEX
  8
0
  5
4AE7
 10
114.444
 20
126.645
 30
0.00000
  70
    32
  0
VERTEX
  8
0
  5
4AE8
 10
114.421
 20
126.599
 30
0.00000
  70
    32
  0
VERTEX
  8
0
  5
4AE9
 10
114.398
 20
126.553
 30
0.00000
  70
    32
  0
VERTEX
  8
0
  5
4AEA
 10
114.373
 20
126.508
 30
0.00000
  70
    32
  0
VERTEX
  8
0
  5
4AEB
 10
114.347
 20
126.464
 30
0.00000
  70
    32
  0
VERTEX
  8
0
  5
4AEC
 10
114.320
 20
126.420
 30
0.00000
  70
    32
  0
VERTEX
  8
0
  5
4AED
 10
114.292
 20
126.377
 30
0.00000
  70
    32
  0
VERTEX
  8
0
  5
4AEE
 10
114.263
 20
126.334
 30
0.00000
  70
    32
  0
VERTEX
  8
0
  5
4AEF
 10
114.232
 20
126.293
 30
0.00000
  70
    32
  0
VERTEX
  8
0
  5
4AF0
 10
114.201
 20
126.251
 30
0.00000
  70
    32
  0
VERTEX
  8
0
  5
4AF1
 10
114.168
 20
126.211
 30
0.00000
  70
    32
  0
VERTEX
  8
0
  5
4AF2
 10
114.135
 20
126.172
 30
0.00000
  70
    32
  0
VERTEX
  8
0
  5
4AF3
 10
114.100
 20
126.133
 30
0.00000
  70
    32
  0
VERTEX
  8
0
  5
4AF4
 10
114.065
 20
126.095
 30
0.00000
  70
    32
  0
VERTEX
  8
0
  5
4AF5
 10
114.028
 20
126.058
 30
0.00000
  70
    32
  0
VERTEX
  8
0
  5
4AF6
 10
113.991
 20
126.021
 30
0.00000
  70
    32
  0
VERTEX
  8
0
  5
4AF7
 10
113.952
 20
125.986
 30
0.00000
  70
    32
  0
VERTEX
  8
0
  5
4AF8
 10
113.913
 20
125.951
 30
0.00000
  70
    32
  0
VERTEX
  8
0
  5
4AF9
 10
113.873
 20
125.918
 30
0.00000
  70
    32
  0
VERTEX
  8
0
  5
4AFA
 10
113.832
 20
125.885
 30
0.00000
  70
    32
  0
VERTEX
  8
0
  5
4AFB
 10
113.790
 20
125.853
 30
0.00000
  70
    32
  0
VERTEX
  8
0
  5
4AFC
 10
113.747
 20
125.823
 30
0.00000
  70
    32
  0
VERTEX
  8
0
  5
4AFD
 10
113.703
 20
125.793
 30
0.00000
  70
    32
  0
VERTEX
  8
0
  5
4AFE
 10
113.659
 20
125.764
 30
0.00000
  70
    32
  0
VERTEX
  8
0
  5
4AFF
 10
113.614
 20
125.736
 30
0.00000
  70
    32
  0
VERTEX
  8
0
  5
4B00
 10
113.568
 20
125.710
 30
0.00000
  70
    32
  0
VERTEX
  8
0
  5
4B01
 10
113.522
 20
125.684
 30
0.00000
  70
    32
  0
VERTEX
  8
0
  5
4B02
 10
113.475
 20
125.660
 30
0.00000
  70
    32
  0
VERTEX
  8
0
  5
4B03
 10
113.427
 20
125.637
 30
0.00000
  70
    32
  0
VERTEX
  8
0
  5
4B04
 10
113.379
 20
125.614
 30
0.00000
  70
    32
  0
VERTEX
  8
0
  5
4B05
 10
113.330
 20
125.593
 30
0.00000
  70
    32
  0
VERTEX
  8
0
  5
4B06
 10
113.281
 20
125.573
 30
0.00000
  70
    32
  0
VERTEX
  8
0
  5
4B07
 10
113.231
 20
125.554
 30
0.00000
  70
    32
  0
VERTEX
  8
0
  5
4B08
 10
113.181
 20
125.537
 30
0.00000
  70
    32
  0
VERTEX
  8
0
  5
4B09
 10
113.130
 20
125.520
 30
0.00000
  70
    32
  0
VERTEX
  8
0
  5
4B0A
 10
113.079
 20
125.505
 30
0.00000
  70
    32
  0
VERTEX
  8
0
  5
4B0B
 10
113.027
 20
125.491
 30
0.00000
  70
    32
  0
VERTEX
  8
0
  5
4B0C
 10
112.975
 20
125.478
 30
0.00000
  70
    32
  0
VERTEX
  8
0
  5
4B0D
 10
112.923
 20
125.466
 30
0.00000
  70
    32
  0
VERTEX
  8
0
  5
4B0E
 10
112.871
 20
125.456
 30
0.00000
  70
    32
  0
VERTEX
  8
0
  5
4B0F
 10
112.818
 20
125.446
 30
0.00000
  70
    32
  0
VERTEX
  8
0
  5
4B10
 10
112.765
 20
125.438
 30
0.00000
  70
    32
  0
VERTEX
  8
0
  5
4B11
 10
112.712
 20
125.431
 30
0.00000
  70
    32
  0
VERTEX
  8
0
  5
4B12
 10
112.658
 20
125.426
 30
0.00000
  70
    32
  0
VERTEX
  8
0
  5
4B13
 10
112.605
 20
125.421
 30
0.00000
  70
    32
  0
VERTEX
  8
0
  5
4B14
 10
112.551
 20
125.418
 30
0.00000
  70
    32
  0
VERTEX
  8
0
  5
4B15
 10
112.498
 20
125.416
 30
0.00000
  70
    32
  0
VERTEX
  8
0
  5
4B16
 10
112.444
 20
125.416
 30
0.00000
  70
    32
  0
SEQEND
  8
0
  5
4B17
  0
POLYLINE
  5
2B91
  8
0
 10
112.444009595866504
 20
125.4158067786695057
 30
0.0
 66
     1
 70
     8
  0
VERTEX
  8
0
  5
4B18
 10
112.444
 20
125.416
 30
0.00000
  70
    32
  0
VERTEX
  8
0
  5
4B19
 10
112.410
 20
125.416
 30
0.00000
  70
    32
  0
VERTEX
  8
0
  5
4B1A
 10
112.376
 20
125.418
 30
0.00000
  70
    32
  0
VERTEX
  8
0
  5
4B1B
 10
112.342
 20
125.421
 30
0.00000
  70
    32
  0
VERTEX
  8
0
  5
4B1C
 10
112.307
 20
125.426
 30
0.00000
  70
    32
  0
VERTEX
  8
0
  5
4B1D
 10
112.274
 20
125.431
 30
0.00000
  70
    32
  0
VERTEX
  8
0
  5
4B1E
 10
112.240
 20
125.438
 30
0.00000
  70
    32
  0
VERTEX
  8
0
  5
4B1F
 10
112.206
 20
125.446
 30
0.00000
  70
    32
  0
VERTEX
  8
0
  5
4B20
 10
112.172
 20
125.456
 30
0.00000
  70
    32
  0
VERTEX
  8
0
  5
4B21
 10
112.139
 20
125.466
 30
0.00000
  70
    32
  0
VERTEX
  8
0
  5
4B22
 10
112.106
 20
125.478
 30
0.00000
  70
    32
  0
VERTEX
  8
0
  5
4B23
 10
112.073
 20
125.491
 30
0.00000
  70
    32
  0
VERTEX
  8
0
  5
4B24
 10
112.040
 20
125.505
 30
0.00000
  70
    32
  0
VERTEX
  8
0
  5
4B25
 10
112.007
 20
125.520
 30
0.00000
  70
    32
  0
VERTEX
  8
0
  5
4B26
 10
111.975
 20
125.537
 30
0.00000
  70
    32
  0
VERTEX
  8
0
  5
4B27
 10
111.943
 20
125.554
 30
0.00000
  70
    32
  0
VERTEX
  8
0
  5
4B28
 10
111.911
 20
125.573
 30
0.00000
  70
    32
  0
VERTEX
  8
0
  5
4B29
 10
111.880
 20
125.593
 30
0.00000
  70
    32
  0
VERTEX
  8
0
  5
4B2A
 10
111.848
 20
125.614
 30
0.00000
  70
    32
  0
VERTEX
  8
0
  5
4B2B
 10
111.818
 20
125.637
 30
0.00000
  70
    32
  0
VERTEX
  8
0
  5
4B2C
 10
111.787
 20
125.660
 30
0.00000
  70
    32
  0
VERTEX
  8
0
  5
4B2D
 10
111.757
 20
125.684
 30
0.00000
  70
    32
  0
VERTEX
  8
0
  5
4B2E
 10
111.728
 20
125.710
 30
0.00000
  70
    32
  0
VERTEX
  8
0
  5
4B2F
 10
111.699
 20
125.736
 30
0.00000
  70
    32
  0
VERTEX
  8
0
  5
4B30
 10
111.670
 20
125.764
 30
0.00000
  70
    32
  0
VERTEX
  8
0
  5
4B31
 10
111.642
 20
125.793
 30
0.00000
  70
    32
  0
VERTEX
  8
0
  5
4B32
 10
111.614
 20
125.823
 30
0.00000
  70
    32
  0
VERTEX
  8
0
  5
4B33
 10
111.587
 20
125.853
 30
0.00000
  70
    32
  0
VERTEX
  8
0
  5
4B34
 10
111.560
 20
125.885
 30
0.00000
  70
    32
  0
VERTEX
  8
0
  5
4B35
 10
111.534
 20
125.918
 30
0.00000
  70
    32
  0
VERTEX
  8
0
  5
4B36
 10
111.509
 20
125.951
 30
0.00000
  70
    32
  0
VERTEX
  8
0
  5
4B37
 10
111.484
 20
125.986
 30
0.00000
  70
    32
  0
VERTEX
  8
0
  5
4B38
 10
111.459
 20
126.021
 30
0.00000
  70
    32
  0
VERTEX
  8
0
  5
4B39
 10
111.435
 20
126.058
 30
0.00000
  70
    32
  0
VERTEX
  8
0
  5
4B3A
 10
111.412
 20
126.095
 30
0.00000
  70
    32
  0
VERTEX
  8
0
  5
4B3B
 10
111.389
 20
126.133
 30
0.00000
  70
    32
  0
VERTEX
  8
0
  5
4B3C
 10
111.367
 20
126.172
 30
0.00000
  70
    32
  0
VERTEX
  8
0
  5
4B3D
 10
111.346
 20
126.211
 30
0.00000
  70
    32
  0
VERTEX
  8
0
  5
4B3E
 10
111.325
 20
126.251
 30
0.00000
  70
    32
  0
VERTEX
  8
0
  5
4B3F
 10
111.305
 20
126.293
 30
0.00000
  70
    32
  0
VERTEX
  8
0
  5
4B40
 10
111.286
 20
126.334
 30
0.00000
  70
    32
  0
VERTEX
  8
0
  5
4B41
 10
111.267
 20
126.377
 30
0.00000
  70
    32
  0
VERTEX
  8
0
  5
4B42
 10
111.249
 20
126.420
 30
0.00000
  70
    32
  0
VERTEX
  8
0
  5
4B43
 10
111.232
 20
126.464
 30
0.00000
  70
    32
  0
VERTEX
  8
0
  5
4B44
 10
111.216
 20
126.508
 30
0.00000
  70
    32
  0
VERTEX
  8
0
  5
4B45
 10
111.200
 20
126.553
 30
0.00000
  70
    32
  0
VERTEX
  8
0
  5
4B46
 10
111.185
 20
126.599
 30
0.00000
  70
    32
  0
VERTEX
  8
0
  5
4B47
 10
111.171
 20
126.645
 30
0.00000
  70
    32
  0
VERTEX
  8
0
  5
4B48
 10
111.157
 20
126.692
 30
0.00000
  70
    32
  0
VERTEX
  8
0
  5
4B49
 10
111.144
 20
126.739
 30
0.00000
  70
    32
  0
VERTEX
  8
0
  5
4B4A
 10
111.133
 20
126.786
 30
0.00000
  70
    32
  0
VERTEX
  8
0
  5
4B4B
 10
111.121
 20
126.834
 30
0.00000
  70
    32
  0
VERTEX
  8
0
  5
4B4C
 10
111.111
 20
126.883
 30
0.00000
  70
    32
  0
VERTEX
  8
0
  5
4B4D
 10
111.102
 20
126.932
 30
0.00000
  70
    32
  0
VERTEX
  8
0
  5
4B4E
 10
111.093
 20
126.981
 30
0.00000
  70
    32
  0
VERTEX
  8
0
  5
4B4F
 10
111.085
 20
127.030
 30
0.00000
  70
    32
  0
VERTEX
  8
0
  5
4B50
 10
111.078
 20
127.080
 30
0.00000
  70
    32
  0
VERTEX
  8
0
  5
4B51
 10
111.072
 20
127.129
 30
0.00000
  70
    32
  0
VERTEX
  8
0
  5
4B52
 10
111.066
 20
127.180
 30
0.00000
  70
    32
  0
VERTEX
  8
0
  5
4B53
 10
111.062
 20
127.230
 30
0.00000
  70
    32
  0
VERTEX
  8
0
  5
4B54
 10
111.058
 20
127.280
 30
0.00000
  70
    32
  0
VERTEX
  8
0
  5
4B55
 10
111.055
 20
127.331
 30
0.00000
  70
    32
  0
VERTEX
  8
0
  5
4B56
 10
111.053
 20
127.381
 30
0.00000
  70
    32
  0
VERTEX
  8
0
  5
4B57
 10
111.052
 20
127.432
 30
0.00000
  70
    32
  0
VERTEX
  8
0
  5
4B58
 10
111.051
 20
127.483
 30
0.00000
  70
    32
  0
VERTEX
  8
0
  5
4B59
 10
111.052
 20
127.534
 30
0.00000
  70
    32
  0
VERTEX
  8
0
  5
4B5A
 10
111.053
 20
127.584
 30
0.00000
  70
    32
  0
VERTEX
  8
0
  5
4B5B
 10
111.055
 20
127.635
 30
0.00000
  70
    32
  0
VERTEX
  8
0
  5
4B5C
 10
111.058
 20
127.685
 30
0.00000
  70
    32
  0
VERTEX
  8
0
  5
4B5D
 10
111.062
 20
127.736
 30
0.00000
  70
    32
  0
VERTEX
  8
0
  5
4B5E
 10
111.066
 20
127.786
 30
0.00000
  70
    32
  0
VERTEX
  8
0
  5
4B5F
 10
111.072
 20
127.836
 30
0.00000
  70
    32
  0
VERTEX
  8
0
  5
4B60
 10
111.078
 20
127.886
 30
0.00000
  70
    32
  0
VERTEX
  8
0
  5
4B61
 10
111.085
 20
127.936
 30
0.00000
  70
    32
  0
VERTEX
  8
0
  5
4B62
 10
111.093
 20
127.985
 30
0.00000
  70
    32
  0
VERTEX
  8
0
  5
4B63
 10
111.102
 20
128.034
 30
0.00000
  70
    32
  0
VERTEX
  8
0
  5
4B64
 10
111.111
 20
128.083
 30
0.00000
  70
    32
  0
VERTEX
  8
0
  5
4B65
 10
111.121
 20
128.131
 30
0.00000
  70
    32
  0
VERTEX
  8
0
  5
4B66
 10
111.133
 20
128.179
 30
0.00000
  70
    32
  0
VERTEX
  8
0
  5
4B67
 10
111.144
 20
128.227
 30
0.00000
  70
    32
  0
VERTEX
  8
0
  5
4B68
 10
111.157
 20
128.274
 30
0.00000
  70
    32
  0
VERTEX
  8
0
  5
4B69
 10
111.171
 20
128.320
 30
0.00000
  70
    32
  0
VERTEX
  8
0
  5
4B6A
 10
111.185
 20
128.367
 30
0.00000
  70
    32
  0
VERTEX
  8
0
  5
4B6B
 10
111.200
 20
128.412
 30
0.00000
  70
    32
  0
VERTEX
  8
0
  5
4B6C
 10
111.216
 20
128.457
 30
0.00000
  70
    32
  0
VERTEX
  8
0
  5
4B6D
 10
111.232
 20
128.502
 30
0.00000
  70
    32
  0
VERTEX
  8
0
  5
4B6E
 10
111.249
 20
128.545
 30
0.00000
  70
    32
  0
VERTEX
  8
0
  5
4B6F
 10
111.267
 20
128.589
 30
0.00000
  70
    32
  0
VERTEX
  8
0
  5
4B70
 10
111.286
 20
128.631
 30
0.00000
  70
    32
  0
VERTEX
  8
0
  5
4B71
 10
111.305
 20
128.673
 30
0.00000
  70
    32
  0
VERTEX
  8
0
  5
4B72
 10
111.325
 20
128.714
 30
0.00000
  70
    32
  0
VERTEX
  8
0
  5
4B73
 10
111.346
 20
128.754
 30
0.00000
  70
    32
  0
VERTEX
  8
0
  5
4B74
 10
111.367
 20
128.794
 30
0.00000
  70
    32
  0
VERTEX
  8
0
  5
4B75
 10
111.389
 20
128.833
 30
0.00000
  70
    32
  0
VERTEX
  8
0
  5
4B76
 10
111.412
 20
128.871
 30
0.00000
  70
    32
  0
VERTEX
  8
0
  5
4B77
 10
111.435
 20
128.908
 30
0.00000
  70
    32
  0
VERTEX
  8
0
  5
4B78
 10
111.459
 20
128.944
 30
0.00000
  70
    32
  0
VERTEX
  8
0
  5
4B79
 10
111.484
 20
128.980
 30
0.00000
  70
    32
  0
VERTEX
  8
0
  5
4B7A
 10
111.509
 20
129.014
 30
0.00000
  70
    32
  0
VERTEX
  8
0
  5
4B7B
 10
111.534
 20
129.048
 30
0.00000
  70
    32
  0
VERTEX
  8
0
  5
4B7C
 10
111.560
 20
129.081
 30
0.00000
  70
    32
  0
VERTEX
  8
0
  5
4B7D
 10
111.587
 20
129.112
 30
0.00000
  70
    32
  0
VERTEX
  8
0
  5
4B7E
 10
111.614
 20
129.143
 30
0.00000
  70
    32
  0
VERTEX
  8
0
  5
4B7F
 10
111.642
 20
129.173
 30
0.00000
  70
    32
  0
VERTEX
  8
0
  5
4B80
 10
111.670
 20
129.201
 30
0.00000
  70
    32
  0
VERTEX
  8
0
  5
4B81
 10
111.699
 20
129.229
 30
0.00000
  70
    32
  0
VERTEX
  8
0
  5
4B82
 10
111.728
 20
129.256
 30
0.00000
  70
    32
  0
VERTEX
  8
0
  5
4B83
 10
111.757
 20
129.281
 30
0.00000
  70
    32
  0
VERTEX
  8
0
  5
4B84
 10
111.787
 20
129.306
 30
0.00000
  70
    32
  0
VERTEX
  8
0
  5
4B85
 10
111.818
 20
129.329
 30
0.00000
  70
    32
  0
VERTEX
  8
0
  5
4B86
 10
111.848
 20
129.351
 30
0.00000
  70
    32
  0
VERTEX
  8
0
  5
4B87
 10
111.880
 20
129.372
 30
0.00000
  70
    32
  0
VERTEX
  8
0
  5
4B88
 10
111.911
 20
129.392
 30
0.00000
  70
    32
  0
VERTEX
  8
0
  5
4B89
 10
111.943
 20
129.411
 30
0.00000
  70
    32
  0
VERTEX
  8
0
  5
4B8A
 10
111.975
 20
129.429
 30
0.00000
  70
    32
  0
VERTEX
  8
0
  5
4B8B
 10
112.007
 20
129.445
 30
0.00000
  70
    32
  0
VERTEX
  8
0
  5
4B8C
 10
112.040
 20
129.461
 30
0.00000
  70
    32
  0
VERTEX
  8
0
  5
4B8D
 10
112.073
 20
129.475
 30
0.00000
  70
    32
  0
VERTEX
  8
0
  5
4B8E
 10
112.106
 20
129.488
 30
0.00000
  70
    32
  0
VERTEX
  8
0
  5
4B8F
 10
112.139
 20
129.500
 30
0.00000
  70
    32
  0
VERTEX
  8
0
  5
4B90
 10
112.172
 20
129.510
 30
0.00000
  70
    32
  0
VERTEX
  8
0
  5
4B91
 10
112.206
 20
129.519
 30
0.00000
  70
    32
  0
VERTEX
  8
0
  5
4B92
 10
112.240
 20
129.527
 30
0.00000
  70
    32
  0
VERTEX
  8
0
  5
4B93
 10
112.274
 20
129.534
 30
0.00000
  70
    32
  0
VERTEX
  8
0
  5
4B94
 10
112.307
 20
129.540
 30
0.00000
  70
    32
  0
VERTEX
  8
0
  5
4B95
 10
112.342
 20
129.544
 30
0.00000
  70
    32
  0
VERTEX
  8
0
  5
4B96
 10
112.376
 20
129.547
 30
0.00000
  70
    32
  0
VERTEX
  8
0
  5
4B97
 10
112.410
 20
129.549
 30
0.00000
  70
    32
  0
VERTEX
  8
0
  5
4B98
 10
112.444
 20
129.550
 30
0.00000
  70
    32
  0
SEQEND
  8
0
  5
4B99
  0
POLYLINE
  5
2B92
  8
3
 10
112.444009595866504
 20
129.9828067786694987
 30
0.0
 66
     1
 70
     8
  0
VERTEX
  8
3
  5
4B9A
 10
112.444
 20
129.983
 30
0.00000
  70
    32
  0
VERTEX
  8
3
  5
4B9B
 10
112.502
 20
129.982
 30
0.00000
  70
    32
  0
VERTEX
  8
3
  5
4B9C
 10
112.559
 20
129.980
 30
0.00000
  70
    32
  0
VERTEX
  8
3
  5
4B9D
 10
112.617
 20
129.976
 30
0.00000
  70
    32
  0
VERTEX
  8
3
  5
4B9E
 10
112.674
 20
129.971
 30
0.00000
  70
    32
  0
VERTEX
  8
3
  5
4B9F
 10
112.731
 20
129.964
 30
0.00000
  70
    32
  0
VERTEX
  8
3
  5
4BA0
 10
112.788
 20
129.956
 30
0.00000
  70
    32
  0
VERTEX
  8
3
  5
4BA1
 10
112.845
 20
129.946
 30
0.00000
  70
    32
  0
VERTEX
  8
3
  5
4BA2
 10
112.902
 20
129.935
 30
0.00000
  70
    32
  0
VERTEX
  8
3
  5
4BA3
 10
112.958
 20
129.922
 30
0.00000
  70
    32
  0
VERTEX
  8
3
  5
4BA4
 10
113.014
 20
129.908
 30
0.00000
  70
    32
  0
VERTEX
  8
3
  5
4BA5
 10
113.070
 20
129.892
 30
0.00000
  70
    32
  0
VERTEX
  8
3
  5
4BA6
 10
113.125
 20
129.875
 30
0.00000
  70
    32
  0
VERTEX
  8
3
  5
4BA7
 10
113.180
 20
129.857
 30
0.00000
  70
    32
  0
VERTEX
  8
3
  5
4BA8
 10
113.234
 20
129.837
 30
0.00000
  70
    32
  0
VERTEX
  8
3
  5
4BA9
 10
113.288
 20
129.815
 30
0.00000
  70
    32
  0
VERTEX
  8
3
  5
4BAA
 10
113.342
 20
129.793
 30
0.00000
  70
    32
  0
VERTEX
  8
3
  5
4BAB
 10
113.395
 20
129.768
 30
0.00000
  70
    32
  0
VERTEX
  8
3
  5
4BAC
 10
113.447
 20
129.743
 30
0.00000
  70
    32
  0
VERTEX
  8
3
  5
4BAD
 10
113.499
 20
129.716
 30
0.00000
  70
    32
  0
VERTEX
  8
3
  5
4BAE
 10
113.550
 20
129.688
 30
0.00000
  70
    32
  0
VERTEX
  8
3
  5
4BAF
 10
113.600
 20
129.658
 30
0.00000
  70
    32
  0
VERTEX
  8
3
  5
4BB0
 10
113.650
 20
129.627
 30
0.00000
  70
    32
  0
VERTEX
  8
3
  5
4BB1
 10
113.699
 20
129.595
 30
0.00000
  70
    32
  0
VERTEX
  8
3
  5
4BB2
 10
113.747
 20
129.561
 30
0.00000
  70
    32
  0
VERTEX
  8
3
  5
4BB3
 10
113.795
 20
129.527
 30
0.00000
  70
    32
  0
VERTEX
  8
3
  5
4BB4
 10
113.841
 20
129.491
 30
0.00000
  70
    32
  0
VERTEX
  8
3
  5
4BB5
 10
113.887
 20
129.454
 30
0.00000
  70
    32
  0
VERTEX
  8
3
  5
4BB6
 10
113.932
 20
129.415
 30
0.00000
  70
    32
  0
VERTEX
  8
3
  5
4BB7
 10
113.976
 20
129.376
 30
0.00000
  70
    32
  0
VERTEX
  8
3
  5
4BB8
 10
114.019
 20
129.335
 30
0.00000
  70
    32
  0
VERTEX
  8
3
  5
4BB9
 10
114.061
 20
129.293
 30
0.00000
  70
    32
  0
VERTEX
  8
3
  5
4BBA
 10
114.103
 20
129.251
 30
0.00000
  70
    32
  0
VERTEX
  8
3
  5
4BBB
 10
114.143
 20
129.207
 30
0.00000
  70
    32
  0
VERTEX
  8
3
  5
4BBC
 10
114.182
 20
129.162
 30
0.00000
  70
    32
  0
VERTEX
  8
3
  5
4BBD
 10
114.220
 20
129.116
 30
0.00000
  70
    32
  0
VERTEX
  8
3
  5
4BBE
 10
114.257
 20
129.069
 30
0.00000
  70
    32
  0
VERTEX
  8
3
  5
4BBF
 10
114.293
 20
129.021
 30
0.00000
  70
    32
  0
VERTEX
  8
3
  5
4BC0
 10
114.328
 20
128.972
 30
0.00000
  70
    32
  0
VERTEX
  8
3
  5
4BC1
 10
114.362
 20
128.922
 30
0.00000
  70
    32
  0
VERTEX
  8
3
  5
4BC2
 10
114.394
 20
128.872
 30
0.00000
  70
    32
  0
VERTEX
  8
3
  5
4BC3
 10
114.426
 20
128.820
 30
0.00000
  70
    32
  0
VERTEX
  8
3
  5
4BC4
 10
114.456
 20
128.768
 30
0.00000
  70
    32
  0
VERTEX
  8
3
  5
4BC5
 10
114.485
 20
128.715
 30
0.00000
  70
    32
  0
VERTEX
  8
3
  5
4BC6
 10
114.513
 20
128.661
 30
0.00000
  70
    32
  0
VERTEX
  8
3
  5
4BC7
 10
114.539
 20
128.607
 30
0.00000
  70
    32
  0
VERTEX
  8
3
  5
4BC8
 10
114.565
 20
128.552
 30
0.00000
  70
    32
  0
VERTEX
  8
3
  5
4BC9
 10
114.589
 20
128.496
 30
0.00000
  70
    32
  0
VERTEX
  8
3
  5
4BCA
 10
114.611
 20
128.440
 30
0.00000
  70
    32
  0
VERTEX
  8
3
  5
4BCB
 10
114.633
 20
128.383
 30
0.00000
  70
    32
  0
VERTEX
  8
3
  5
4BCC
 10
114.653
 20
128.325
 30
0.00000
  70
    32
  0
VERTEX
  8
3
  5
4BCD
 10
114.671
 20
128.267
 30
0.00000
  70
    32
  0
VERTEX
  8
3
  5
4BCE
 10
114.689
 20
128.209
 30
0.00000
  70
    32
  0
VERTEX
  8
3
  5
4BCF
 10
114.705
 20
128.150
 30
0.00000
  70
    32
  0
VERTEX
  8
3
  5
4BD0
 10
114.719
 20
128.090
 30
0.00000
  70
    32
  0
VERTEX
  8
3
  5
4BD1
 10
114.733
 20
128.031
 30
0.00000
  70
    32
  0
VERTEX
  8
3
  5
4BD2
 10
114.745
 20
127.971
 30
0.00000
  70
    32
  0
VERTEX
  8
3
  5
4BD3
 10
114.755
 20
127.910
 30
0.00000
  70
    32
  0
VERTEX
  8
3
  5
4BD4
 10
114.764
 20
127.850
 30
0.00000
  70
    32
  0
VERTEX
  8
3
  5
4BD5
 10
114.772
 20
127.789
 30
0.00000
  70
    32
  0
VERTEX
  8
3
  5
4BD6
 10
114.778
 20
127.728
 30
0.00000
  70
    32
  0
VERTEX
  8
3
  5
4BD7
 10
114.783
 20
127.667
 30
0.00000
  70
    32
  0
VERTEX
  8
3
  5
4BD8
 10
114.787
 20
127.605
 30
0.00000
  70
    32
  0
VERTEX
  8
3
  5
4BD9
 10
114.789
 20
127.544
 30
0.00000
  70
    32
  0
VERTEX
  8
3
  5
4BDA
 10
114.790
 20
127.483
 30
0.00000
  70
    32
  0
VERTEX
  8
3
  5
4BDB
 10
114.789
 20
127.421
 30
0.00000
  70
    32
  0
VERTEX
  8
3
  5
4BDC
 10
114.787
 20
127.360
 30
0.00000
  70
    32
  0
VERTEX
  8
3
  5
4BDD
 10
114.783
 20
127.299
 30
0.00000
  70
    32
  0
VERTEX
  8
3
  5
4BDE
 10
114.778
 20
127.238
 30
0.00000
  70
    32
  0
VERTEX
  8
3
  5
4BDF
 10
114.772
 20
127.177
 30
0.00000
  70
    32
  0
VERTEX
  8
3
  5
4BE0
 10
114.764
 20
127.116
 30
0.00000
  70
    32
  0
VERTEX
  8
3
  5
4BE1
 10
114.755
 20
127.055
 30
0.00000
  70
    32
  0
VERTEX
  8
3
  5
4BE2
 10
114.745
 20
126.995
 30
0.00000
  70
    32
  0
VERTEX
  8
3
  5
4BE3
 10
114.733
 20
126.935
 30
0.00000
  70
    32
  0
VERTEX
  8
3
  5
4BE4
 10
114.719
 20
126.875
 30
0.00000
  70
    32
  0
VERTEX
  8
3
  5
4BE5
 10
114.705
 20
126.816
 30
0.00000
  70
    32
  0
VERTEX
  8
3
  5
4BE6
 10
114.689
 20
126.757
 30
0.00000
  70
    32
  0
VERTEX
  8
3
  5
4BE7
 10
114.671
 20
126.699
 30
0.00000
  70
    32
  0
VERTEX
  8
3
  5
4BE8
 10
114.653
 20
126.641
 30
0.00000
  70
    32
  0
VERTEX
  8
3
  5
4BE9
 10
114.633
 20
126.583
 30
0.00000
  70
    32
  0
VERTEX
  8
3
  5
4BEA
 10
114.611
 20
126.526
 30
0.00000
  70
    32
  0
VERTEX
  8
3
  5
4BEB
 10
114.589
 20
126.470
 30
0.00000
  70
    32
  0
VERTEX
  8
3
  5
4BEC
 10
114.565
 20
126.414
 30
0.00000
  70
    32
  0
VERTEX
  8
3
  5
4BED
 10
114.539
 20
126.359
 30
0.00000
  70
    32
  0
VERTEX
  8
3
  5
4BEE
 10
114.513
 20
126.304
 30
0.00000
  70
    32
  0
VERTEX
  8
3
  5
4BEF
 10
114.485
 20
126.251
 30
0.00000
  70
    32
  0
VERTEX
  8
3
  5
4BF0
 10
114.456
 20
126.198
 30
0.00000
  70
    32
  0
VERTEX
  8
3
  5
4BF1
 10
114.426
 20
126.145
 30
0.00000
  70
    32
  0
VERTEX
  8
3
  5
4BF2
 10
114.394
 20
126.094
 30
0.00000
  70
    32
  0
VERTEX
  8
3
  5
4BF3
 10
114.362
 20
126.043
 30
0.00000
  70
    32
  0
VERTEX
  8
3
  5
4BF4
 10
114.328
 20
125.994
 30
0.00000
  70
    32
  0
VERTEX
  8
3
  5
4BF5
 10
114.293
 20
125.945
 30
0.00000
  70
    32
  0
VERTEX
  8
3
  5
4BF6
 10
114.257
 20
125.897
 30
0.00000
  70
    32
  0
VERTEX
  8
3
  5
4BF7
 10
114.220
 20
125.850
 30
0.00000
  70
    32
  0
VERTEX
  8
3
  5
4BF8
 10
114.182
 20
125.804
 30
0.00000
  70
    32
  0
VERTEX
  8
3
  5
4BF9
 10
114.143
 20
125.759
 30
0.00000
  70
    32
  0
VERTEX
  8
3
  5
4BFA
 10
114.103
 20
125.715
 30
0.00000
  70
    32
  0
VERTEX
  8
3
  5
4BFB
 10
114.061
 20
125.672
 30
0.00000
  70
    32
  0
VERTEX
  8
3
  5
4BFC
 10
114.019
 20
125.630
 30
0.00000
  70
    32
  0
VERTEX
  8
3
  5
4BFD
 10
113.976
 20
125.590
 30
0.00000
  70
    32
  0
VERTEX
  8
3
  5
4BFE
 10
113.932
 20
125.550
 30
0.00000
  70
    32
  0
VERTEX
  8
3
  5
4BFF
 10
113.887
 20
125.512
 30
0.00000
  70
    32
  0
VERTEX
  8
3
  5
4C00
 10
113.841
 20
125.475
 30
0.00000
  70
    32
  0
VERTEX
  8
3
  5
4C01
 10
113.795
 20
125.439
 30
0.00000
  70
    32
  0
VERTEX
  8
3
  5
4C02
 10
113.747
 20
125.404
 30
0.00000
  70
    32
  0
VERTEX
  8
3
  5
4C03
 10
113.699
 20
125.371
 30
0.00000
  70
    32
  0
VERTEX
  8
3
  5
4C04
 10
113.650
 20
125.338
 30
0.00000
  70
    32
  0
VERTEX
  8
3
  5
4C05
 10
113.600
 20
125.308
 30
0.00000
  70
    32
  0
VERTEX
  8
3
  5
4C06
 10
113.550
 20
125.278
 30
0.00000
  70
    32
  0
VERTEX
  8
3
  5
4C07
 10
113.499
 20
125.250
 30
0.00000
  70
    32
  0
VERTEX
  8
3
  5
4C08
 10
113.447
 20
125.223
 30
0.00000
  70
    32
  0
VERTEX
  8
3
  5
4C09
 10
113.395
 20
125.197
 30
0.00000
  70
    32
  0
VERTEX
  8
3
  5
4C0A
 10
113.342
 20
125.173
 30
0.00000
  70
    32
  0
VERTEX
  8
3
  5
4C0B
 10
113.288
 20
125.150
 30
0.00000
  70
    32
  0
VERTEX
  8
3
  5
4C0C
 10
113.234
 20
125.129
 30
0.00000
  70
    32
  0
VERTEX
  8
3
  5
4C0D
 10
113.180
 20
125.109
 30
0.00000
  70
    32
  0
VERTEX
  8
3
  5
4C0E
 10
113.125
 20
125.090
 30
0.00000
  70
    32
  0
VERTEX
  8
3
  5
4C0F
 10
113.070
 20
125.073
 30
0.00000
  70
    32
  0
VERTEX
  8
3
  5
4C10
 10
113.014
 20
125.058
 30
0.00000
  70
    32
  0
VERTEX
  8
3
  5
4C11
 10
112.958
 20
125.044
 30
0.00000
  70
    32
  0
VERTEX
  8
3
  5
4C12
 10
112.902
 20
125.031
 30
0.00000
  70
    32
  0
VERTEX
  8
3
  5
4C13
 10
112.845
 20
125.020
 30
0.00000
  70
    32
  0
VERTEX
  8
3
  5
4C14
 10
112.788
 20
125.010
 30
0.00000
  70
    32
  0
VERTEX
  8
3
  5
4C15
 10
112.731
 20
125.002
 30
0.00000
  70
    32
  0
VERTEX
  8
3
  5
4C16
 10
112.674
 20
124.995
 30
0.00000
  70
    32
  0
VERTEX
  8
3
  5
4C17
 10
112.617
 20
124.990
 30
0.00000
  70
    32
  0
VERTEX
  8
3
  5
4C18
 10
112.559
 20
124.986
 30
0.00000
  70
    32
  0
VERTEX
  8
3
  5
4C19
 10
112.502
 20
124.984
 30
0.00000
  70
    32
  0
VERTEX
  8
3
  5
4C1A
 10
112.444
 20
124.983
 30
0.00000
  70
    32
  0
SEQEND
  8
3
  5
4C1B
  0
POLYLINE
  5
2B93
  8
3
 10
112.444009595866504
 20
124.9828067786694987
 30
0.0
 66
     1
 70
     8
  0
VERTEX
  8
3
  5
4C1C
 10
112.444
 20
124.983
 30
0.00000
  70
    32
  0
VERTEX
  8
3
  5
4C1D
 10
112.395
 20
124.984
 30
0.00000
  70
    32
  0
VERTEX
  8
3
  5
4C1E
 10
112.347
 20
124.986
 30
0.00000
  70
    32
  0
VERTEX
  8
3
  5
4C1F
 10
112.298
 20
124.990
 30
0.00000
  70
    32
  0
VERTEX
  8
3
  5
4C20
 10
112.250
 20
124.995
 30
0.00000
  70
    32
  0
VERTEX
  8
3
  5
4C21
 10
112.201
 20
125.002
 30
0.00000
  70
    32
  0
VERTEX
  8
3
  5
4C22
 10
112.153
 20
125.010
 30
0.00000
  70
    32
  0
VERTEX
  8
3
  5
4C23
 10
112.105
 20
125.020
 30
0.00000
  70
    32
  0
VERTEX
  8
3
  5
4C24
 10
112.057
 20
125.031
 30
0.00000
  70
    32
  0
VERTEX
  8
3
  5
4C25
 10
112.009
 20
125.044
 30
0.00000
  70
    32
  0
VERTEX
  8
3
  5
4C26
 10
111.962
 20
125.058
 30
0.00000
  70
    32
  0
VERTEX
  8
3
  5
4C27
 10
111.915
 20
125.073
 30
0.00000
  70
    32
  0
VERTEX
  8
3
  5
4C28
 10
111.868
 20
125.090
 30
0.00000
  70
    32
  0
VERTEX
  8
3
  5
4C29
 10
111.822
 20
125.109
 30
0.00000
  70
    32
  0
VERTEX
  8
3
  5
4C2A
 10
111.775
 20
125.129
 30
0.00000
  70
    32
  0
VERTEX
  8
3
  5
4C2B
 10
111.730
 20
125.150
 30
0.00000
  70
    32
  0
VERTEX
  8
3
  5
4C2C
 10
111.685
 20
125.173
 30
0.00000
  70
    32
  0
VERTEX
  8
3
  5
4C2D
 10
111.640
 20
125.197
 30
0.00000
  70
    32
  0
VERTEX
  8
3
  5
4C2E
 10
111.596
 20
125.223
 30
0.00000
  70
    32
  0
VERTEX
  8
3
  5
4C2F
 10
111.552
 20
125.250
 30
0.00000
  70
    32
  0
VERTEX
  8
3
  5
4C30
 10
111.509
 20
125.278
 30
0.00000
  70
    32
  0
VERTEX
  8
3
  5
4C31
 10
111.466
 20
125.308
 30
0.00000
  70
    32
  0
VERTEX
  8
3
  5
4C32
 10
111.424
 20
125.338
 30
0.00000
  70
    32
  0
VERTEX
  8
3
  5
4C33
 10
111.382
 20
125.371
 30
0.00000
  70
    32
  0
VERTEX
  8
3
  5
4C34
 10
111.342
 20
125.404
 30
0.00000
  70
    32
  0
VERTEX
  8
3
  5
4C35
 10
111.301
 20
125.439
 30
0.00000
  70
    32
  0
VERTEX
  8
3
  5
4C36
 10
111.262
 20
125.475
 30
0.00000
  70
    32
  0
VERTEX
  8
3
  5
4C37
 10
111.223
 20
125.512
 30
0.00000
  70
    32
  0
VERTEX
  8
3
  5
4C38
 10
111.185
 20
125.550
 30
0.00000
  70
    32
  0
VERTEX
  8
3
  5
4C39
 10
111.148
 20
125.590
 30
0.00000
  70
    32
  0
VERTEX
  8
3
  5
4C3A
 10
111.111
 20
125.630
 30
0.00000
  70
    32
  0
VERTEX
  8
3
  5
4C3B
 10
111.076
 20
125.672
 30
0.00000
  70
    32
  0
VERTEX
  8
3
  5
4C3C
 10
111.041
 20
125.715
 30
0.00000
  70
    32
  0
VERTEX
  8
3
  5
4C3D
 10
111.007
 20
125.759
 30
0.00000
  70
    32
  0
VERTEX
  8
3
  5
4C3E
 10
110.974
 20
125.804
 30
0.00000
  70
    32
  0
VERTEX
  8
3
  5
4C3F
 10
110.941
 20
125.850
 30
0.00000
  70
    32
  0
VERTEX
  8
3
  5
4C40
 10
110.910
 20
125.897
 30
0.00000
  70
    32
  0
VERTEX
  8
3
  5
4C41
 10
110.880
 20
125.945
 30
0.00000
  70
    32
  0
VERTEX
  8
3
  5
4C42
 10
110.850
 20
125.994
 30
0.00000
  70
    32
  0
VERTEX
  8
3
  5
4C43
 10
110.822
 20
126.043
 30
0.00000
  70
    32
  0
VERTEX
  8
3
  5
4C44
 10
110.794
 20
126.094
 30
0.00000
  70
    32
  0
VERTEX
  8
3
  5
4C45
 10
110.767
 20
126.145
 30
0.00000
  70
    32
  0
VERTEX
  8
3
  5
4C46
 10
110.742
 20
126.198
 30
0.00000
  70
    32
  0
VERTEX
  8
3
  5
4C47
 10
110.717
 20
126.251
 30
0.00000
  70
    32
  0
VERTEX
  8
3
  5
4C48
 10
110.694
 20
126.304
 30
0.00000
  70
    32
  0
VERTEX
  8
3
  5
4C49
 10
110.672
 20
126.359
 30
0.00000
  70
    32
  0
VERTEX
  8
3
  5
4C4A
 10
110.650
 20
126.414
 30
0.00000
  70
    32
  0
VERTEX
  8
3
  5
4C4B
 10
110.630
 20
126.470
 30
0.00000
  70
    32
  0
VERTEX
  8
3
  5
4C4C
 10
110.611
 20
126.526
 30
0.00000
  70
    32
  0
VERTEX
  8
3
  5
4C4D
 10
110.593
 20
126.583
 30
0.00000
  70
    32
  0
VERTEX
  8
3
  5
4C4E
 10
110.576
 20
126.641
 30
0.00000
  70
    32
  0
VERTEX
  8
3
  5
4C4F
 10
110.560
 20
126.699
 30
0.00000
  70
    32
  0
VERTEX
  8
3
  5
4C50
 10
110.545
 20
126.757
 30
0.00000
  70
    32
  0
VERTEX
  8
3
  5
4C51
 10
110.531
 20
126.816
 30
0.00000
  70
    32
  0
VERTEX
  8
3
  5
4C52
 10
110.519
 20
126.875
 30
0.00000
  70
    32
  0
VERTEX
  8
3
  5
4C53
 10
110.508
 20
126.935
 30
0.00000
  70
    32
  0
VERTEX
  8
3
  5
4C54
 10
110.498
 20
126.995
 30
0.00000
  70
    32
  0
VERTEX
  8
3
  5
4C55
 10
110.489
 20
127.055
 30
0.00000
  70
    32
  0
VERTEX
  8
3
  5
4C56
 10
110.481
 20
127.116
 30
0.00000
  70
    32
  0
VERTEX
  8
3
  5
4C57
 10
110.475
 20
127.177
 30
0.00000
  70
    32
  0
VERTEX
  8
3
  5
4C58
 10
110.469
 20
127.238
 30
0.00000
  70
    32
  0
VERTEX
  8
3
  5
4C59
 10
110.465
 20
127.299
 30
0.00000
  70
    32
  0
VERTEX
  8
3
  5
4C5A
 10
110.462
 20
127.360
 30
0.00000
  70
    32
  0
VERTEX
  8
3
  5
4C5B
 10
110.460
 20
127.421
 30
0.00000
  70
    32
  0
VERTEX
  8
3
  5
4C5C
 10
110.460
 20
127.483
 30
0.00000
  70
    32
  0
VERTEX
  8
3
  5
4C5D
 10
110.460
 20
127.544
 30
0.00000
  70
    32
  0
VERTEX
  8
3
  5
4C5E
 10
110.462
 20
127.605
 30
0.00000
  70
    32
  0
VERTEX
  8
3
  5
4C5F
 10
110.465
 20
127.667
 30
0.00000
  70
    32
  0
VERTEX
  8
3
  5
4C60
 10
110.469
 20
127.728
 30
0.00000
  70
    32
  0
VERTEX
  8
3
  5
4C61
 10
110.475
 20
127.789
 30
0.00000
  70
    32
  0
VERTEX
  8
3
  5
4C62
 10
110.481
 20
127.850
 30
0.00000
  70
    32
  0
VERTEX
  8
3
  5
4C63
 10
110.489
 20
127.910
 30
0.00000
  70
    32
  0
VERTEX
  8
3
  5
4C64
 10
110.498
 20
127.971
 30
0.00000
  70
    32
  0
VERTEX
  8
3
  5
4C65
 10
110.508
 20
128.031
 30
0.00000
  70
    32
  0
VERTEX
  8
3
  5
4C66
 10
110.519
 20
128.090
 30
0.00000
  70
    32
  0
VERTEX
  8
3
  5
4C67
 10
110.531
 20
128.150
 30
0.00000
  70
    32
  0
VERTEX
  8
3
  5
4C68
 10
110.545
 20
128.209
 30
0.00000
  70
    32
  0
VERTEX
  8
3
  5
4C69
 10
110.560
 20
128.267
 30
0.00000
  70
    32
  0
VERTEX
  8
3
  5
4C6A
 10
110.576
 20
128.325
 30
0.00000
  70
    32
  0
VERTEX
  8
3
  5
4C6B
 10
110.593
 20
128.383
 30
0.00000
  70
    32
  0
VERTEX
  8
3
  5
4C6C
 10
110.611
 20
128.440
 30
0.00000
  70
    32
  0
VERTEX
  8
3
  5
4C6D
 10
110.630
 20
128.496
 30
0.00000
  70
    32
  0
VERTEX
  8
3
  5
4C6E
 10
110.650
 20
128.552
 30
0.00000
  70
    32
  0
VERTEX
  8
3
  5
4C6F
 10
110.672
 20
128.607
 30
0.00000
  70
    32
  0
VERTEX
  8
3
  5
4C70
 10
110.694
 20
128.661
 30
0.00000
  70
    32
  0
VERTEX
  8
3
  5
4C71
 10
110.717
 20
128.715
 30
0.00000
  70
    32
  0
VERTEX
  8
3
  5
4C72
 10
110.742
 20
128.768
 30
0.00000
  70
    32
  0
VERTEX
  8
3
  5
4C73
 10
110.767
 20
128.820
 30
0.00000
  70
    32
  0
VERTEX
  8
3
  5
4C74
 10
110.794
 20
128.872
 30
0.00000
  70
    32
  0
VERTEX
  8
3
  5
4C75
 10
110.822
 20
128.922
 30
0.00000
  70
    32
  0
VERTEX
  8
3
  5
4C76
 10
110.850
 20
128.972
 30
0.00000
  70
    32
  0
VERTEX
  8
3
  5
4C77
 10
110.880
 20
129.021
 30
0.00000
  70
    32
  0
VERTEX
  8
3
  5
4C78
 10
110.910
 20
129.069
 30
0.00000
  70
    32
  0
VERTEX
  8
3
  5
4C79
 10
110.941
 20
129.116
 30
0.00000
  70
    32
  0
VERTEX
  8
3
  5
4C7A
 10
110.974
 20
129.162
 30
0.00000
  70
    32
  0
VERTEX
  8
3
  5
4C7B
 10
111.007
 20
129.207
 30
0.00000
  70
    32
  0
VERTEX
  8
3
  5
4C7C
 10
111.041
 20
129.251
 30
0.00000
  70
    32
  0
VERTEX
  8
3
  5
4C7D
 10
111.076
 20
129.293
 30
0.00000
  70
    32
  0
VERTEX
  8
3
  5
4C7E
 10
111.111
 20
129.335
 30
0.00000
  70
    32
  0
VERTEX
  8
3
  5
4C7F
 10
111.148
 20
129.376
 30
0.00000
  70
    32
  0
VERTEX
  8
3
  5
4C80
 10
111.185
 20
129.415
 30
0.00000
  70
    32
  0
VERTEX
  8
3
  5
4C81
 10
111.223
 20
129.454
 30
0.00000
  70
    32
  0
VERTEX
  8
3
  5
4C82
 10
111.262
 20
129.491
 30
0.00000
  70
    32
  0
VERTEX
  8
3
  5
4C83
 10
111.301
 20
129.527
 30
0.00000
  70
    32
  0
VERTEX
  8
3
  5
4C84
 10
111.342
 20
129.561
 30
0.00000
  70
    32
  0
VERTEX
  8
3
  5
4C85
 10
111.382
 20
129.595
 30
0.00000
  70
    32
  0
VERTEX
  8
3
  5
4C86
 10
111.424
 20
129.627
 30
0.00000
  70
    32
  0
VERTEX
  8
3
  5
4C87
 10
111.466
 20
129.658
 30
0.00000
  70
    32
  0
VERTEX
  8
3
  5
4C88
 10
111.509
 20
129.688
 30
0.00000
  70
    32
  0
VERTEX
  8
3
  5
4C89
 10
111.552
 20
129.716
 30
0.00000
  70
    32
  0
VERTEX
  8
3
  5
4C8A
 10
111.596
 20
129.743
 30
0.00000
  70
    32
  0
VERTEX
  8
3
  5
4C8B
 10
111.640
 20
129.768
 30
0.00000
  70
    32
  0
VERTEX
  8
3
  5
4C8C
 10
111.685
 20
129.793
 30
0.00000
  70
    32
  0
VERTEX
  8
3
  5
4C8D
 10
111.730
 20
129.815
 30
0.00000
  70
    32
  0
VERTEX
  8
3
  5
4C8E
 10
111.775
 20
129.837
 30
0.00000
  70
    32
  0
VERTEX
  8
3
  5
4C8F
 10
111.822
 20
129.857
 30
0.00000
  70
    32
  0
VERTEX
  8
3
  5
4C90
 10
111.868
 20
129.875
 30
0.00000
  70
    32
  0
VERTEX
  8
3
  5
4C91
 10
111.915
 20
129.892
 30
0.00000
  70
    32
  0
VERTEX
  8
3
  5
4C92
 10
111.962
 20
129.908
 30
0.00000
  70
    32
  0
VERTEX
  8
3
  5
4C93
 10
112.009
 20
129.922
 30
0.00000
  70
    32
  0
VERTEX
  8
3
  5
4C94
 10
112.057
 20
129.935
 30
0.00000
  70
    32
  0
VERTEX
  8
3
  5
4C95
 10
112.105
 20
129.946
 30
0.00000
  70
    32
  0
VERTEX
  8
3
  5
4C96
 10
112.153
 20
129.956
 30
0.00000
  70
    32
  0
VERTEX
  8
3
  5
4C97
 10
112.201
 20
129.964
 30
0.00000
  70
    32
  0
VERTEX
  8
3
  5
4C98
 10
112.250
 20
129.971
 30
0.00000
  70
    32
  0
VERTEX
  8
3
  5
4C99
 10
112.298
 20
129.976
 30
0.00000
  70
    32
  0
VERTEX
  8
3
  5
4C9A
 10
112.347
 20
129.980
 30
0.00000
  70
    32
  0
VERTEX
  8
3
  5
4C9B
 10
112.395
 20
129.982
 30
0.00000
  70
    32
  0
VERTEX
  8
3
  5
4C9C
 10
112.444
 20
129.983
 30
0.00000
  70
    32
  0
SEQEND
  8
3
  5
4C9D
  0
POLYLINE
  5
2B94
  8
0
 10
111.9440094076457939
 20
131.7328067786694987
 30
0.0
 66
     1
 70
     8
  0
VERTEX
  8
0
  5
4C9E
 10
111.944
 20
131.733
 30
0.00000
  70
    32
  0
VERTEX
  8
0
  5
4C9F
 10
112.042
 20
131.732
 30
0.00000
  70
    32
  0
VERTEX
  8
0
  5
4CA0
 10
112.140
 20
131.728
 30
0.00000
  70
    32
  0
VERTEX
  8
0
  5
4CA1
 10
112.237
 20
131.721
 30
0.00000
  70
    32
  0
VERTEX
  8
0
  5
4CA2
 10
112.335
 20
131.712
 30
0.00000
  70
    32
  0
VERTEX
  8
0
  5
4CA3
 10
112.432
 20
131.701
 30
0.00000
  70
    32
  0
VERTEX
  8
0
  5
4CA4
 10
112.529
 20
131.687
 30
0.00000
  70
    32
  0
VERTEX
  8
0
  5
4CA5
 10
112.626
 20
131.670
 30
0.00000
  70
    32
  0
VERTEX
  8
0
  5
4CA6
 10
112.722
 20
131.651
 30
0.00000
  70
    32
  0
VERTEX
  8
0
  5
4CA7
 10
112.818
 20
131.630
 30
0.00000
  70
    32
  0
VERTEX
  8
0
  5
4CA8
 10
112.913
 20
131.605
 30
0.00000
  70
    32
  0
VERTEX
  8
0
  5
4CA9
 10
113.007
 20
131.579
 30
0.00000
  70
    32
  0
VERTEX
  8
0
  5
4CAA
 10
113.101
 20
131.550
 30
0.00000
  70
    32
  0
VERTEX
  8
0
  5
4CAB
 10
113.195
 20
131.518
 30
0.00000
  70
    32
  0
VERTEX
  8
0
  5
4CAC
 10
113.287
 20
131.484
 30
0.00000
  70
    32
  0
VERTEX
  8
0
  5
4CAD
 10
113.379
 20
131.448
 30
0.00000
  70
    32
  0
VERTEX
  8
0
  5
4CAE
 10
113.470
 20
131.409
 30
0.00000
  70
    32
  0
VERTEX
  8
0
  5
4CAF
 10
113.560
 20
131.368
 30
0.00000
  70
    32
  0
VERTEX
  8
0
  5
4CB0
 10
113.649
 20
131.325
 30
0.00000
  70
    32
  0
VERTEX
  8
0
  5
4CB1
 10
113.737
 20
131.279
 30
0.00000
  70
    32
  0
VERTEX
  8
0
  5
4CB2
 10
113.823
 20
131.231
 30
0.00000
  70
    32
  0
VERTEX
  8
0
  5
4CB3
 10
113.909
 20
131.181
 30
0.00000
  70
    32
  0
VERTEX
  8
0
  5
4CB4
 10
113.994
 20
131.128
 30
0.00000
  70
    32
  0
VERTEX
  8
0
  5
4CB5
 10
114.077
 20
131.073
 30
0.00000
  70
    32
  0
VERTEX
  8
0
  5
4CB6
 10
114.159
 20
131.017
 30
0.00000
  70
    32
  0
VERTEX
  8
0
  5
4CB7
 10
114.240
 20
130.958
 30
0.00000
  70
    32
  0
VERTEX
  8
0
  5
4CB8
 10
114.319
 20
130.896
 30
0.00000
  70
    32
  0
VERTEX
  8
0
  5
4CB9
 10
114.397
 20
130.833
 30
0.00000
  70
    32
  0
VERTEX
  8
0
  5
4CBA
 10
114.473
 20
130.768
 30
0.00000
  70
    32
  0
VERTEX
  8
0
  5
4CBB
 10
114.548
 20
130.701
 30
0.00000
  70
    32
  0
VERTEX
  8
0
  5
4CBC
 10
114.621
 20
130.632
 30
0.00000
  70
    32
  0
VERTEX
  8
0
  5
4CBD
 10
114.693
 20
130.561
 30
0.00000
  70
    32
  0
VERTEX
  8
0
  5
4CBE
 10
114.763
 20
130.488
 30
0.00000
  70
    32
  0
VERTEX
  8
0
  5
4CBF
 10
114.831
 20
130.413
 30
0.00000
  70
    32
  0
VERTEX
  8
0
  5
4CC0
 10
114.898
 20
130.337
 30
0.00000
  70
    32
  0
VERTEX
  8
0
  5
4CC1
 10
114.963
 20
130.259
 30
0.00000
  70
    32
  0
VERTEX
  8
0
  5
4CC2
 10
115.026
 20
130.179
 30
0.00000
  70
    32
  0
VERTEX
  8
0
  5
4CC3
 10
115.087
 20
130.098
 30
0.00000
  70
    32
  0
VERTEX
  8
0
  5
4CC4
 10
115.146
 20
130.015
 30
0.00000
  70
    32
  0
VERTEX
  8
0
  5
4CC5
 10
115.204
 20
129.930
 30
0.00000
  70
    32
  0
VERTEX
  8
0
  5
4CC6
 10
115.259
 20
129.844
 30
0.00000
  70
    32
  0
VERTEX
  8
0
  5
4CC7
 10
115.312
 20
129.757
 30
0.00000
  70
    32
  0
VERTEX
  8
0
  5
4CC8
 10
115.364
 20
129.668
 30
0.00000
  70
    32
  0
VERTEX
  8
0
  5
4CC9
 10
115.413
 20
129.578
 30
0.00000
  70
    32
  0
VERTEX
  8
0
  5
4CCA
 10
115.460
 20
129.486
 30
0.00000
  70
    32
  0
VERTEX
  8
0
  5
4CCB
 10
115.505
 20
129.394
 30
0.00000
  70
    32
  0
VERTEX
  8
0
  5
4CCC
 10
115.548
 20
129.300
 30
0.00000
  70
    32
  0
VERTEX
  8
0
  5
4CCD
 10
115.589
 20
129.205
 30
0.00000
  70
    32
  0
VERTEX
  8
0
  5
4CCE
 10
115.627
 20
129.109
 30
0.00000
  70
    32
  0
VERTEX
  8
0
  5
4CCF
 10
115.664
 20
129.012
 30
0.00000
  70
    32
  0
VERTEX
  8
0
  5
4CD0
 10
115.698
 20
128.915
 30
0.00000
  70
    32
  0
VERTEX
  8
0
  5
4CD1
 10
115.730
 20
128.816
 30
0.00000
  70
    32
  0
VERTEX
  8
0
  5
4CD2
 10
115.759
 20
128.717
 30
0.00000
  70
    32
  0
VERTEX
  8
0
  5
4CD3
 10
115.786
 20
128.616
 30
0.00000
  70
    32
  0
VERTEX
  8
0
  5
4CD4
 10
115.811
 20
128.515
 30
0.00000
  70
    32
  0
VERTEX
  8
0
  5
4CD5
 10
115.834
 20
128.414
 30
0.00000
  70
    32
  0
VERTEX
  8
0
  5
4CD6
 10
115.854
 20
128.312
 30
0.00000
  70
    32
  0
VERTEX
  8
0
  5
4CD7
 10
115.872
 20
128.209
 30
0.00000
  70
    32
  0
VERTEX
  8
0
  5
4CD8
 10
115.888
 20
128.106
 30
0.00000
  70
    32
  0
VERTEX
  8
0
  5
4CD9
 10
115.901
 20
128.003
 30
0.00000
  70
    32
  0
VERTEX
  8
0
  5
4CDA
 10
115.912
 20
127.899
 30
0.00000
  70
    32
  0
VERTEX
  8
0
  5
4CDB
 10
115.920
 20
127.795
 30
0.00000
  70
    32
  0
VERTEX
  8
0
  5
4CDC
 10
115.926
 20
127.691
 30
0.00000
  70
    32
  0
VERTEX
  8
0
  5
4CDD
 10
115.930
 20
127.587
 30
0.00000
  70
    32
  0
VERTEX
  8
0
  5
4CDE
 10
115.931
 20
127.483
 30
0.00000
  70
    32
  0
VERTEX
  8
0
  5
4CDF
 10
115.930
 20
127.379
 30
0.00000
  70
    32
  0
VERTEX
  8
0
  5
4CE0
 10
115.926
 20
127.274
 30
0.00000
  70
    32
  0
VERTEX
  8
0
  5
4CE1
 10
115.920
 20
127.170
 30
0.00000
  70
    32
  0
VERTEX
  8
0
  5
4CE2
 10
115.912
 20
127.066
 30
0.00000
  70
    32
  0
VERTEX
  8
0
  5
4CE3
 10
115.901
 20
126.963
 30
0.00000
  70
    32
  0
VERTEX
  8
0
  5
4CE4
 10
115.888
 20
126.859
 30
0.00000
  70
    32
  0
VERTEX
  8
0
  5
4CE5
 10
115.872
 20
126.756
 30
0.00000
  70
    32
  0
VERTEX
  8
0
  5
4CE6
 10
115.854
 20
126.654
 30
0.00000
  70
    32
  0
VERTEX
  8
0
  5
4CE7
 10
115.834
 20
126.552
 30
0.00000
  70
    32
  0
VERTEX
  8
0
  5
4CE8
 10
115.811
 20
126.450
 30
0.00000
  70
    32
  0
VERTEX
  8
0
  5
4CE9
 10
115.786
 20
126.349
 30
0.00000
  70
    32
  0
VERTEX
  8
0
  5
4CEA
 10
115.759
 20
126.249
 30
0.00000
  70
    32
  0
VERTEX
  8
0
  5
4CEB
 10
115.730
 20
126.150
 30
0.00000
  70
    32
  0
VERTEX
  8
0
  5
4CEC
 10
115.698
 20
126.051
 30
0.00000
  70
    32
  0
VERTEX
  8
0
  5
4CED
 10
115.664
 20
125.953
 30
0.00000
  70
    32
  0
VERTEX
  8
0
  5
4CEE
 10
115.627
 20
125.856
 30
0.00000
  70
    32
  0
VERTEX
  8
0
  5
4CEF
 10
115.589
 20
125.761
 30
0.00000
  70
    32
  0
VERTEX
  8
0
  5
4CF0
 10
115.548
 20
125.666
 30
0.00000
  70
    32
  0
VERTEX
  8
0
  5
4CF1
 10
115.505
 20
125.572
 30
0.00000
  70
    32
  0
VERTEX
  8
0
  5
4CF2
 10
115.460
 20
125.479
 30
0.00000
  70
    32
  0
VERTEX
  8
0
  5
4CF3
 10
115.413
 20
125.388
 30
0.00000
  70
    32
  0
VERTEX
  8
0
  5
4CF4
 10
115.364
 20
125.298
 30
0.00000
  70
    32
  0
VERTEX
  8
0
  5
4CF5
 10
115.312
 20
125.209
 30
0.00000
  70
    32
  0
VERTEX
  8
0
  5
4CF6
 10
115.259
 20
125.122
 30
0.00000
  70
    32
  0
VERTEX
  8
0
  5
4CF7
 10
115.204
 20
125.036
 30
0.00000
  70
    32
  0
VERTEX
  8
0
  5
4CF8
 10
115.146
 20
124.951
 30
0.00000
  70
    32
  0
VERTEX
  8
0
  5
4CF9
 10
115.087
 20
124.868
 30
0.00000
  70
    32
  0
VERTEX
  8
0
  5
4CFA
 10
115.026
 20
124.787
 30
0.00000
  70
    32
  0
VERTEX
  8
0
  5
4CFB
 10
114.963
 20
124.707
 30
0.00000
  70
    32
  0
VERTEX
  8
0
  5
4CFC
 10
114.898
 20
124.629
 30
0.00000
  70
    32
  0
VERTEX
  8
0
  5
4CFD
 10
114.831
 20
124.552
 30
0.00000
  70
    32
  0
VERTEX
  8
0
  5
4CFE
 10
114.763
 20
124.478
 30
0.00000
  70
    32
  0
VERTEX
  8
0
  5
4CFF
 10
114.693
 20
124.405
 30
0.00000
  70
    32
  0
VERTEX
  8
0
  5
4D00
 10
114.621
 20
124.334
 30
0.00000
  70
    32
  0
VERTEX
  8
0
  5
4D01
 10
114.548
 20
124.265
 30
0.00000
  70
    32
  0
VERTEX
  8
0
  5
4D02
 10
114.473
 20
124.198
 30
0.00000
  70
    32
  0
VERTEX
  8
0
  5
4D03
 10
114.397
 20
124.132
 30
0.00000
  70
    32
  0
VERTEX
  8
0
  5
4D04
 10
114.319
 20
124.069
 30
0.00000
  70
    32
  0
VERTEX
  8
0
  5
4D05
 10
114.240
 20
124.008
 30
0.00000
  70
    32
  0
VERTEX
  8
0
  5
4D06
 10
114.159
 20
123.949
 30
0.00000
  70
    32
  0
VERTEX
  8
0
  5
4D07
 10
114.077
 20
123.892
 30
0.00000
  70
    32
  0
VERTEX
  8
0
  5
4D08
 10
113.994
 20
123.837
 30
0.00000
  70
    32
  0
VERTEX
  8
0
  5
4D09
 10
113.909
 20
123.785
 30
0.00000
  70
    32
  0
VERTEX
  8
0
  5
4D0A
 10
113.823
 20
123.735
 30
0.00000
  70
    32
  0
VERTEX
  8
0
  5
4D0B
 10
113.737
 20
123.687
 30
0.00000
  70
    32
  0
VERTEX
  8
0
  5
4D0C
 10
113.649
 20
123.641
 30
0.00000
  70
    32
  0
VERTEX
  8
0
  5
4D0D
 10
113.560
 20
123.597
 30
0.00000
  70
    32
  0
VERTEX
  8
0
  5
4D0E
 10
113.470
 20
123.556
 30
0.00000
  70
    32
  0
VERTEX
  8
0
  5
4D0F
 10
113.379
 20
123.518
 30
0.00000
  70
    32
  0
VERTEX
  8
0
  5
4D10
 10
113.287
 20
123.481
 30
0.00000
  70
    32
  0
VERTEX
  8
0
  5
4D11
 10
113.195
 20
123.447
 30
0.00000
  70
    32
  0
VERTEX
  8
0
  5
4D12
 10
113.101
 20
123.416
 30
0.00000
  70
    32
  0
VERTEX
  8
0
  5
4D13
 10
113.007
 20
123.387
 30
0.00000
  70
    32
  0
VERTEX
  8
0
  5
4D14
 10
112.913
 20
123.360
 30
0.00000
  70
    32
  0
VERTEX
  8
0
  5
4D15
 10
112.818
 20
123.336
 30
0.00000
  70
    32
  0
VERTEX
  8
0
  5
4D16
 10
112.722
 20
123.314
 30
0.00000
  70
    32
  0
VERTEX
  8
0
  5
4D17
 10
112.626
 20
123.295
 30
0.00000
  70
    32
  0
VERTEX
  8
0
  5
4D18
 10
112.529
 20
123.279
 30
0.00000
  70
    32
  0
VERTEX
  8
0
  5
4D19
 10
112.432
 20
123.265
 30
0.00000
  70
    32
  0
VERTEX
  8
0
  5
4D1A
 10
112.335
 20
123.253
 30
0.00000
  70
    32
  0
VERTEX
  8
0
  5
4D1B
 10
112.237
 20
123.244
 30
0.00000
  70
    32
  0
VERTEX
  8
0
  5
4D1C
 10
112.140
 20
123.238
 30
0.00000
  70
    32
  0
VERTEX
  8
0
  5
4D1D
 10
112.042
 20
123.234
 30
0.00000
  70
    32
  0
VERTEX
  8
0
  5
4D1E
 10
111.944
 20
123.233
 30
0.00000
  70
    32
  0
SEQEND
  8
0
  5
4D1F
  0
POLYLINE
  5
2B95
  8
0
 10
111.9440094076457939
 20
123.2328067786694987
 30
0.0
 66
     1
 70
     8
  0
VERTEX
  8
0
  5
4D20
 10
111.944
 20
123.233
 30
0.00000
  70
    32
  0
VERTEX
  8
0
  5
4D21
 10
111.861
 20
123.234
 30
0.00000
  70
    32
  0
VERTEX
  8
0
  5
4D22
 10
111.778
 20
123.238
 30
0.00000
  70
    32
  0
VERTEX
  8
0
  5
4D23
 10
111.696
 20
123.244
 30
0.00000
  70
    32
  0
VERTEX
  8
0
  5
4D24
 10
111.613
 20
123.253
 30
0.00000
  70
    32
  0
VERTEX
  8
0
  5
4D25
 10
111.531
 20
123.265
 30
0.00000
  70
    32
  0
VERTEX
  8
0
  5
4D26
 10
111.449
 20
123.279
 30
0.00000
  70
    32
  0
VERTEX
  8
0
  5
4D27
 10
111.367
 20
123.295
 30
0.00000
  70
    32
  0
VERTEX
  8
0
  5
4D28
 10
111.286
 20
123.314
 30
0.00000
  70
    32
  0
VERTEX
  8
0
  5
4D29
 10
111.205
 20
123.336
 30
0.00000
  70
    32
  0
VERTEX
  8
0
  5
4D2A
 10
111.124
 20
123.360
 30
0.00000
  70
    32
  0
VERTEX
  8
0
  5
4D2B
 10
111.044
 20
123.387
 30
0.00000
  70
    32
  0
VERTEX
  8
0
  5
4D2C
 10
110.965
 20
123.416
 30
0.00000
  70
    32
  0
VERTEX
  8
0
  5
4D2D
 10
110.886
 20
123.447
 30
0.00000
  70
    32
  0
VERTEX
  8
0
  5
4D2E
 10
110.808
 20
123.481
 30
0.00000
  70
    32
  0
VERTEX
  8
0
  5
4D2F
 10
110.730
 20
123.518
 30
0.00000
  70
    32
  0
VERTEX
  8
0
  5
4D30
 10
110.653
 20
123.556
 30
0.00000
  70
    32
  0
VERTEX
  8
0
  5
4D31
 10
110.577
 20
123.597
 30
0.00000
  70
    32
  0
VERTEX
  8
0
  5
4D32
 10
110.502
 20
123.641
 30
0.00000
  70
    32
  0
VERTEX
  8
0
  5
4D33
 10
110.427
 20
123.687
 30
0.00000
  70
    32
  0
VERTEX
  8
0
  5
4D34
 10
110.354
 20
123.735
 30
0.00000
  70
    32
  0
VERTEX
  8
0
  5
4D35
 10
110.281
 20
123.785
 30
0.00000
  70
    32
  0
VERTEX
  8
0
  5
4D36
 10
110.210
 20
123.837
 30
0.00000
  70
    32
  0
VERTEX
  8
0
  5
4D37
 10
110.139
 20
123.892
 30
0.00000
  70
    32
  0
VERTEX
  8
0
  5
4D38
 10
110.070
 20
123.949
 30
0.00000
  70
    32
  0
VERTEX
  8
0
  5
4D39
 10
110.002
 20
124.008
 30
0.00000
  70
    32
  0
VERTEX
  8
0
  5
4D3A
 10
109.935
 20
124.069
 30
0.00000
  70
    32
  0
VERTEX
  8
0
  5
4D3B
 10
109.869
 20
124.132
 30
0.00000
  70
    32
  0
VERTEX
  8
0
  5
4D3C
 10
109.804
 20
124.198
 30
0.00000
  70
    32
  0
VERTEX
  8
0
  5
4D3D
 10
109.741
 20
124.265
 30
0.00000
  70
    32
  0
VERTEX
  8
0
  5
4D3E
 10
109.679
 20
124.334
 30
0.00000
  70
    32
  0
VERTEX
  8
0
  5
4D3F
 10
109.618
 20
124.405
 30
0.00000
  70
    32
  0
VERTEX
  8
0
  5
4D40
 10
109.559
 20
124.478
 30
0.00000
  70
    32
  0
VERTEX
  8
0
  5
4D41
 10
109.501
 20
124.552
 30
0.00000
  70
    32
  0
VERTEX
  8
0
  5
4D42
 10
109.445
 20
124.629
 30
0.00000
  70
    32
  0
VERTEX
  8
0
  5
4D43
 10
109.390
 20
124.707
 30
0.00000
  70
    32
  0
VERTEX
  8
0
  5
4D44
 10
109.336
 20
124.787
 30
0.00000
  70
    32
  0
VERTEX
  8
0
  5
4D45
 10
109.285
 20
124.868
 30
0.00000
  70
    32
  0
VERTEX
  8
0
  5
4D46
 10
109.235
 20
124.951
 30
0.00000
  70
    32
  0
VERTEX
  8
0
  5
4D47
 10
109.186
 20
125.036
 30
0.00000
  70
    32
  0
VERTEX
  8
0
  5
4D48
 10
109.139
 20
125.122
 30
0.00000
  70
    32
  0
VERTEX
  8
0
  5
4D49
 10
109.094
 20
125.209
 30
0.00000
  70
    32
  0
VERTEX
  8
0
  5
4D4A
 10
109.051
 20
125.298
 30
0.00000
  70
    32
  0
VERTEX
  8
0
  5
4D4B
 10
109.009
 20
125.388
 30
0.00000
  70
    32
  0
VERTEX
  8
0
  5
4D4C
 10
108.969
 20
125.479
 30
0.00000
  70
    32
  0
VERTEX
  8
0
  5
4D4D
 10
108.931
 20
125.572
 30
0.00000
  70
    32
  0
VERTEX
  8
0
  5
4D4E
 10
108.895
 20
125.666
 30
0.00000
  70
    32
  0
VERTEX
  8
0
  5
4D4F
 10
108.860
 20
125.761
 30
0.00000
  70
    32
  0
VERTEX
  8
0
  5
4D50
 10
108.828
 20
125.856
 30
0.00000
  70
    32
  0
VERTEX
  8
0
  5
4D51
 10
108.797
 20
125.953
 30
0.00000
  70
    32
  0
VERTEX
  8
0
  5
4D52
 10
108.768
 20
126.051
 30
0.00000
  70
    32
  0
VERTEX
  8
0
  5
4D53
 10
108.741
 20
126.150
 30
0.00000
  70
    32
  0
VERTEX
  8
0
  5
4D54
 10
108.716
 20
126.249
 30
0.00000
  70
    32
  0
VERTEX
  8
0
  5
4D55
 10
108.693
 20
126.349
 30
0.00000
  70
    32
  0
VERTEX
  8
0
  5
4D56
 10
108.672
 20
126.450
 30
0.00000
  70
    32
  0
VERTEX
  8
0
  5
4D57
 10
108.653
 20
126.552
 30
0.00000
  70
    32
  0
VERTEX
  8
0
  5
4D58
 10
108.636
 20
126.654
 30
0.00000
  70
    32
  0
VERTEX
  8
0
  5
4D59
 10
108.620
 20
126.756
 30
0.00000
  70
    32
  0
VERTEX
  8
0
  5
4D5A
 10
108.607
 20
126.859
 30
0.00000
  70
    32
  0
VERTEX
  8
0
  5
4D5B
 10
108.596
 20
126.963
 30
0.00000
  70
    32
  0
VERTEX
  8
0
  5
4D5C
 10
108.587
 20
127.066
 30
0.00000
  70
    32
  0
VERTEX
  8
0
  5
4D5D
 10
108.580
 20
127.170
 30
0.00000
  70
    32
  0
VERTEX
  8
0
  5
4D5E
 10
108.575
 20
127.274
 30
0.00000
  70
    32
  0
VERTEX
  8
0
  5
4D5F
 10
108.572
 20
127.379
 30
0.00000
  70
    32
  0
VERTEX
  8
0
  5
4D60
 10
108.571
 20
127.483
 30
0.00000
  70
    32
  0
VERTEX
  8
0
  5
4D61
 10
108.572
 20
127.587
 30
0.00000
  70
    32
  0
VERTEX
  8
0
  5
4D62
 10
108.575
 20
127.691
 30
0.00000
  70
    32
  0
VERTEX
  8
0
  5
4D63
 10
108.580
 20
127.795
 30
0.00000
  70
    32
  0
VERTEX
  8
0
  5
4D64
 10
108.587
 20
127.899
 30
0.00000
  70
    32
  0
VERTEX
  8
0
  5
4D65
 10
108.596
 20
128.003
 30
0.00000
  70
    32
  0
VERTEX
  8
0
  5
4D66
 10
108.607
 20
128.106
 30
0.00000
  70
    32
  0
VERTEX
  8
0
  5
4D67
 10
108.620
 20
128.209
 30
0.00000
  70
    32
  0
VERTEX
  8
0
  5
4D68
 10
108.636
 20
128.312
 30
0.00000
  70
    32
  0
VERTEX
  8
0
  5
4D69
 10
108.653
 20
128.414
 30
0.00000
  70
    32
  0
VERTEX
  8
0
  5
4D6A
 10
108.672
 20
128.515
 30
0.00000
  70
    32
  0
VERTEX
  8
0
  5
4D6B
 10
108.693
 20
128.616
 30
0.00000
  70
    32
  0
VERTEX
  8
0
  5
4D6C
 10
108.716
 20
128.717
 30
0.00000
  70
    32
  0
VERTEX
  8
0
  5
4D6D
 10
108.741
 20
128.816
 30
0.00000
  70
    32
  0
VERTEX
  8
0
  5
4D6E
 10
108.768
 20
128.915
 30
0.00000
  70
    32
  0
VERTEX
  8
0
  5
4D6F
 10
108.797
 20
129.012
 30
0.00000
  70
    32
  0
VERTEX
  8
0
  5
4D70
 10
108.828
 20
129.109
 30
0.00000
  70
    32
  0
VERTEX
  8
0
  5
4D71
 10
108.860
 20
129.205
 30
0.00000
  70
    32
  0
VERTEX
  8
0
  5
4D72
 10
108.895
 20
129.300
 30
0.00000
  70
    32
  0
VERTEX
  8
0
  5
4D73
 10
108.931
 20
129.394
 30
0.00000
  70
    32
  0
VERTEX
  8
0
  5
4D74
 10
108.969
 20
129.486
 30
0.00000
  70
    32
  0
VERTEX
  8
0
  5
4D75
 10
109.009
 20
129.578
 30
0.00000
  70
    32
  0
VERTEX
  8
0
  5
4D76
 10
109.051
 20
129.668
 30
0.00000
  70
    32
  0
VERTEX
  8
0
  5
4D77
 10
109.094
 20
129.757
 30
0.00000
  70
    32
  0
VERTEX
  8
0
  5
4D78
 10
109.139
 20
129.844
 30
0.00000
  70
    32
  0
VERTEX
  8
0
  5
4D79
 10
109.186
 20
129.930
 30
0.00000
  70
    32
  0
VERTEX
  8
0
  5
4D7A
 10
109.235
 20
130.015
 30
0.00000
  70
    32
  0
VERTEX
  8
0
  5
4D7B
 10
109.285
 20
130.098
 30
0.00000
  70
    32
  0
VERTEX
  8
0
  5
4D7C
 10
109.336
 20
130.179
 30
0.00000
  70
    32
  0
VERTEX
  8
0
  5
4D7D
 10
109.390
 20
130.259
 30
0.00000
  70
    32
  0
VERTEX
  8
0
  5
4D7E
 10
109.445
 20
130.337
 30
0.00000
  70
    32
  0
VERTEX
  8
0
  5
4D7F
 10
109.501
 20
130.413
 30
0.00000
  70
    32
  0
VERTEX
  8
0
  5
4D80
 10
109.559
 20
130.488
 30
0.00000
  70
    32
  0
VERTEX
  8
0
  5
4D81
 10
109.618
 20
130.561
 30
0.00000
  70
    32
  0
VERTEX
  8
0
  5
4D82
 10
109.679
 20
130.632
 30
0.00000
  70
    32
  0
VERTEX
  8
0
  5
4D83
 10
109.741
 20
130.701
 30
0.00000
  70
    32
  0
VERTEX
  8
0
  5
4D84
 10
109.804
 20
130.768
 30
0.00000
  70
    32
  0
VERTEX
  8
0
  5
4D85
 10
109.869
 20
130.833
 30
0.00000
  70
    32
  0
VERTEX
  8
0
  5
4D86
 10
109.935
 20
130.896
 30
0.00000
  70
    32
  0
VERTEX
  8
0
  5
4D87
 10
110.002
 20
130.958
 30
0.00000
  70
    32
  0
VERTEX
  8
0
  5
4D88
 10
110.070
 20
131.017
 30
0.00000
  70
    32
  0
VERTEX
  8
0
  5
4D89
 10
110.139
 20
131.073
 30
0.00000
  70
    32
  0
VERTEX
  8
0
  5
4D8A
 10
110.210
 20
131.128
 30
0.00000
  70
    32
  0
VERTEX
  8
0
  5
4D8B
 10
110.281
 20
131.181
 30
0.00000
  70
    32
  0
VERTEX
  8
0
  5
4D8C
 10
110.354
 20
131.231
 30
0.00000
  70
    32
  0
VERTEX
  8
0
  5
4D8D
 10
110.427
 20
131.279
 30
0.00000
  70
    32
  0
VERTEX
  8
0
  5
4D8E
 10
110.502
 20
131.325
 30
0.00000
  70
    32
  0
VERTEX
  8
0
  5
4D8F
 10
110.577
 20
131.368
 30
0.00000
  70
    32
  0
VERTEX
  8
0
  5
4D90
 10
110.653
 20
131.409
 30
0.00000
  70
    32
  0
VERTEX
  8
0
  5
4D91
 10
110.730
 20
131.448
 30
0.00000
  70
    32
  0
VERTEX
  8
0
  5
4D92
 10
110.808
 20
131.484
 30
0.00000
  70
    32
  0
VERTEX
  8
0
  5
4D93
 10
110.886
 20
131.518
 30
0.00000
  70
    32
  0
VERTEX
  8
0
  5
4D94
 10
110.965
 20
131.550
 30
0.00000
  70
    32
  0
VERTEX
  8
0
  5
4D95
 10
111.044
 20
131.579
 30
0.00000
  70
    32
  0
VERTEX
  8
0
  5
4D96
 10
111.124
 20
131.605
 30
0.00000
  70
    32
  0
VERTEX
  8
0
  5
4D97
 10
111.205
 20
131.630
 30
0.00000
  70
    32
  0
VERTEX
  8
0
  5
4D98
 10
111.286
 20
131.651
 30
0.00000
  70
    32
  0
VERTEX
  8
0
  5
4D99
 10
111.367
 20
131.670
 30
0.00000
  70
    32
  0
VERTEX
  8
0
  5
4D9A
 10
111.449
 20
131.687
 30
0.00000
  70
    32
  0
VERTEX
  8
0
  5
4D9B
 10
111.531
 20
131.701
 30
0.00000
  70
    32
  0
VERTEX
  8
0
  5
4D9C
 10
111.613
 20
131.712
 30
0.00000
  70
    32
  0
VERTEX
  8
0
  5
4D9D
 10
111.696
 20
131.721
 30
0.00000
  70
    32
  0
VERTEX
  8
0
  5
4D9E
 10
111.778
 20
131.728
 30
0.00000
  70
    32
  0
VERTEX
  8
0
  5
4D9F
 10
111.861
 20
131.732
 30
0.00000
  70
    32
  0
VERTEX
  8
0
  5
4DA0
 10
111.944
 20
131.733
 30
0.00000
  70
    32
  0
SEQEND
  8
0
  5
4DA1
  0
LINE
  5
2B96
  8
0
 10
105.4440094076455949
 20
132.4828067786694987
 30
0.0
 11
104.4440094076454955
 21
131.4828067786694135
 31
0.0
  0
LINE
  5
2B97
  8
0
 10
104.4440094076457939
 20
123.4828067786694987
 30
0.0
 11
105.4440094076457939
 21
122.4828067786694987
 31
0.0
  0
POLYLINE
  5
2B98
  8
0
 10
105.8507332323805059
 20
131.4828067786695271
 30
0.0
 66
     1
 70
     8
  0
VERTEX
  8
0
  5
4DA2
 10
105.851
 20
131.483
 30
0.00000
  70
    32
  0
VERTEX
  8
0
  5
4DA3
 10
105.904
 20
131.482
 30
0.00000
  70
    32
  0
VERTEX
  8
0
  5
4DA4
 10
105.958
 20
131.478
 30
0.00000
  70
    32
  0
VERTEX
  8
0
  5
4DA5
 10
106.011
 20
131.472
 30
0.00000
  70
    32
  0
VERTEX
  8
0
  5
4DA6
 10
106.065
 20
131.464
 30
0.00000
  70
    32
  0
VERTEX
  8
0
  5
4DA7
 10
106.118
 20
131.453
 30
0.00000
  70
    32
  0
VERTEX
  8
0
  5
4DA8
 10
106.171
 20
131.440
 30
0.00000
  70
    32
  0
VERTEX
  8
0
  5
4DA9
 10
106.224
 20
131.424
 30
0.00000
  70
    32
  0
VERTEX
  8
0
  5
4DAA
 10
106.276
 20
131.406
 30
0.00000
  70
    32
  0
VERTEX
  8
0
  5
4DAB
 10
106.329
 20
131.386
 30
0.00000
  70
    32
  0
VERTEX
  8
0
  5
4DAC
 10
106.381
 20
131.363
 30
0.00000
  70
    32
  0
VERTEX
  8
0
  5
4DAD
 10
106.433
 20
131.338
 30
0.00000
  70
    32
  0
VERTEX
  8
0
  5
4DAE
 10
106.484
 20
131.311
 30
0.00000
  70
    32
  0
VERTEX
  8
0
  5
4DAF
 10
106.535
 20
131.281
 30
0.00000
  70
    32
  0
VERTEX
  8
0
  5
4DB0
 10
106.586
 20
131.249
 30
0.00000
  70
    32
  0
VERTEX
  8
0
  5
4DB1
 10
106.636
 20
131.215
 30
0.00000
  70
    32
  0
VERTEX
  8
0
  5
4DB2
 10
106.686
 20
131.178
 30
0.00000
  70
    32
  0
VERTEX
  8
0
  5
4DB3
 10
106.735
 20
131.140
 30
0.00000
  70
    32
  0
VERTEX
  8
0
  5
4DB4
 10
106.783
 20
131.099
 30
0.00000
  70
    32
  0
VERTEX
  8
0
  5
4DB5
 10
106.832
 20
131.056
 30
0.00000
  70
    32
  0
VERTEX
  8
0
  5
4DB6
 10
106.879
 20
131.010
 30
0.00000
  70
    32
  0
VERTEX
  8
0
  5
4DB7
 10
106.926
 20
130.963
 30
0.00000
  70
    32
  0
VERTEX
  8
0
  5
4DB8
 10
106.972
 20
130.914
 30
0.00000
  70
    32
  0
VERTEX
  8
0
  5
4DB9
 10
107.018
 20
130.862
 30
0.00000
  70
    32
  0
VERTEX
  8
0
  5
4DBA
 10
107.063
 20
130.809
 30
0.00000
  70
    32
  0
VERTEX
  8
0
  5
4DBB
 10
107.107
 20
130.753
 30
0.00000
  70
    32
  0
VERTEX
  8
0
  5
4DBC
 10
107.150
 20
130.696
 30
0.00000
  70
    32
  0
VERTEX
  8
0
  5
4DBD
 10
107.193
 20
130.636
 30
0.00000
  70
    32
  0
VERTEX
  8
0
  5
4DBE
 10
107.235
 20
130.575
 30
0.00000
  70
    32
  0
VERTEX
  8
0
  5
4DBF
 10
107.276
 20
130.512
 30
0.00000
  70
    32
  0
VERTEX
  8
0
  5
4DC0
 10
107.316
 20
130.447
 30
0.00000
  70
    32
  0
VERTEX
  8
0
  5
4DC1
 10
107.355
 20
130.380
 30
0.00000
  70
    32
  0
VERTEX
  8
0
  5
4DC2
 10
107.393
 20
130.311
 30
0.00000
  70
    32
  0
VERTEX
  8
0
  5
4DC3
 10
107.431
 20
130.241
 30
0.00000
  70
    32
  0
VERTEX
  8
0
  5
4DC4
 10
107.467
 20
130.169
 30
0.00000
  70
    32
  0
VERTEX
  8
0
  5
4DC5
 10
107.503
 20
130.095
 30
0.00000
  70
    32
  0
VERTEX
  8
0
  5
4DC6
 10
107.537
 20
130.020
 30
0.00000
  70
    32
  0
VERTEX
  8
0
  5
4DC7
 10
107.570
 20
129.944
 30
0.00000
  70
    32
  0
VERTEX
  8
0
  5
4DC8
 10
107.603
 20
129.866
 30
0.00000
  70
    32
  0
VERTEX
  8
0
  5
4DC9
 10
107.634
 20
129.786
 30
0.00000
  70
    32
  0
VERTEX
  8
0
  5
4DCA
 10
107.665
 20
129.705
 30
0.00000
  70
    32
  0
VERTEX
  8
0
  5
4DCB
 10
107.694
 20
129.623
 30
0.00000
  70
    32
  0
VERTEX
  8
0
  5
4DCC
 10
107.722
 20
129.539
 30
0.00000
  70
    32
  0
VERTEX
  8
0
  5
4DCD
 10
107.749
 20
129.454
 30
0.00000
  70
    32
  0
VERTEX
  8
0
  5
4DCE
 10
107.775
 20
129.368
 30
0.00000
  70
    32
  0
VERTEX
  8
0
  5
4DCF
 10
107.799
 20
129.281
 30
0.00000
  70
    32
  0
VERTEX
  8
0
  5
4DD0
 10
107.823
 20
129.193
 30
0.00000
  70
    32
  0
VERTEX
  8
0
  5
4DD1
 10
107.845
 20
129.104
 30
0.00000
  70
    32
  0
VERTEX
  8
0
  5
4DD2
 10
107.866
 20
129.014
 30
0.00000
  70
    32
  0
VERTEX
  8
0
  5
4DD3
 10
107.886
 20
128.922
 30
0.00000
  70
    32
  0
VERTEX
  8
0
  5
4DD4
 10
107.905
 20
128.830
 30
0.00000
  70
    32
  0
VERTEX
  8
0
  5
4DD5
 10
107.922
 20
128.738
 30
0.00000
  70
    32
  0
VERTEX
  8
0
  5
4DD6
 10
107.938
 20
128.644
 30
0.00000
  70
    32
  0
VERTEX
  8
0
  5
4DD7
 10
107.953
 20
128.550
 30
0.00000
  70
    32
  0
VERTEX
  8
0
  5
4DD8
 10
107.967
 20
128.455
 30
0.00000
  70
    32
  0
VERTEX
  8
0
  5
4DD9
 10
107.979
 20
128.359
 30
0.00000
  70
    32
  0
VERTEX
  8
0
  5
4DDA
 10
107.990
 20
128.263
 30
0.00000
  70
    32
  0
VERTEX
  8
0
  5
4DDB
 10
108.000
 20
128.167
 30
0.00000
  70
    32
  0
VERTEX
  8
0
  5
4DDC
 10
108.009
 20
128.070
 30
0.00000
  70
    32
  0
VERTEX
  8
0
  5
4DDD
 10
108.016
 20
127.972
 30
0.00000
  70
    32
  0
VERTEX
  8
0
  5
4DDE
 10
108.022
 20
127.875
 30
0.00000
  70
    32
  0
VERTEX
  8
0
  5
4DDF
 10
108.026
 20
127.777
 30
0.00000
  70
    32
  0
VERTEX
  8
0
  5
4DE0
 10
108.030
 20
127.679
 30
0.00000
  70
    32
  0
VERTEX
  8
0
  5
4DE1
 10
108.031
 20
127.581
 30
0.00000
  70
    32
  0
VERTEX
  8
0
  5
4DE2
 10
108.032
 20
127.483
 30
0.00000
  70
    32
  0
VERTEX
  8
0
  5
4DE3
 10
108.031
 20
127.385
 30
0.00000
  70
    32
  0
VERTEX
  8
0
  5
4DE4
 10
108.030
 20
127.287
 30
0.00000
  70
    32
  0
VERTEX
  8
0
  5
4DE5
 10
108.026
 20
127.189
 30
0.00000
  70
    32
  0
VERTEX
  8
0
  5
4DE6
 10
108.022
 20
127.091
 30
0.00000
  70
    32
  0
VERTEX
  8
0
  5
4DE7
 10
108.016
 20
126.993
 30
0.00000
  70
    32
  0
VERTEX
  8
0
  5
4DE8
 10
108.009
 20
126.896
 30
0.00000
  70
    32
  0
VERTEX
  8
0
  5
4DE9
 10
108.000
 20
126.799
 30
0.00000
  70
    32
  0
VERTEX
  8
0
  5
4DEA
 10
107.990
 20
126.702
 30
0.00000
  70
    32
  0
VERTEX
  8
0
  5
4DEB
 10
107.979
 20
126.606
 30
0.00000
  70
    32
  0
VERTEX
  8
0
  5
4DEC
 10
107.967
 20
126.511
 30
0.00000
  70
    32
  0
VERTEX
  8
0
  5
4DED
 10
107.953
 20
126.416
 30
0.00000
  70
    32
  0
VERTEX
  8
0
  5
4DEE
 10
107.938
 20
126.322
 30
0.00000
  70
    32
  0
VERTEX
  8
0
  5
4DEF
 10
107.922
 20
126.228
 30
0.00000
  70
    32
  0
VERTEX
  8
0
  5
4DF0
 10
107.905
 20
126.135
 30
0.00000
  70
    32
  0
VERTEX
  8
0
  5
4DF1
 10
107.886
 20
126.043
 30
0.00000
  70
    32
  0
VERTEX
  8
0
  5
4DF2
 10
107.866
 20
125.952
 30
0.00000
  70
    32
  0
VERTEX
  8
0
  5
4DF3
 10
107.845
 20
125.862
 30
0.00000
  70
    32
  0
VERTEX
  8
0
  5
4DF4
 10
107.823
 20
125.773
 30
0.00000
  70
    32
  0
VERTEX
  8
0
  5
4DF5
 10
107.799
 20
125.684
 30
0.00000
  70
    32
  0
VERTEX
  8
0
  5
4DF6
 10
107.775
 20
125.597
 30
0.00000
  70
    32
  0
VERTEX
  8
0
  5
4DF7
 10
107.749
 20
125.511
 30
0.00000
  70
    32
  0
VERTEX
  8
0
  5
4DF8
 10
107.722
 20
125.426
 30
0.00000
  70
    32
  0
VERTEX
  8
0
  5
4DF9
 10
107.694
 20
125.343
 30
0.00000
  70
    32
  0
VERTEX
  8
0
  5
4DFA
 10
107.665
 20
125.261
 30
0.00000
  70
    32
  0
VERTEX
  8
0
  5
4DFB
 10
107.634
 20
125.180
 30
0.00000
  70
    32
  0
VERTEX
  8
0
  5
4DFC
 10
107.603
 20
125.100
 30
0.00000
  70
    32
  0
VERTEX
  8
0
  5
4DFD
 10
107.570
 20
125.022
 30
0.00000
  70
    32
  0
VERTEX
  8
0
  5
4DFE
 10
107.537
 20
124.945
 30
0.00000
  70
    32
  0
VERTEX
  8
0
  5
4DFF
 10
107.503
 20
124.870
 30
0.00000
  70
    32
  0
VERTEX
  8
0
  5
4E00
 10
107.467
 20
124.797
 30
0.00000
  70
    32
  0
VERTEX
  8
0
  5
4E01
 10
107.431
 20
124.725
 30
0.00000
  70
    32
  0
VERTEX
  8
0
  5
4E02
 10
107.393
 20
124.654
 30
0.00000
  70
    32
  0
VERTEX
  8
0
  5
4E03
 10
107.355
 20
124.586
 30
0.00000
  70
    32
  0
VERTEX
  8
0
  5
4E04
 10
107.316
 20
124.519
 30
0.00000
  70
    32
  0
VERTEX
  8
0
  5
4E05
 10
107.276
 20
124.454
 30
0.00000
  70
    32
  0
VERTEX
  8
0
  5
4E06
 10
107.235
 20
124.391
 30
0.00000
  70
    32
  0
VERTEX
  8
0
  5
4E07
 10
107.193
 20
124.329
 30
0.00000
  70
    32
  0
VERTEX
  8
0
  5
4E08
 10
107.150
 20
124.270
 30
0.00000
  70
    32
  0
VERTEX
  8
0
  5
4E09
 10
107.107
 20
124.212
 30
0.00000
  70
    32
  0
VERTEX
  8
0
  5
4E0A
 10
107.063
 20
124.157
 30
0.00000
  70
    32
  0
VERTEX
  8
0
  5
4E0B
 10
107.018
 20
124.103
 30
0.00000
  70
    32
  0
VERTEX
  8
0
  5
4E0C
 10
106.972
 20
124.052
 30
0.00000
  70
    32
  0
VERTEX
  8
0
  5
4E0D
 10
106.926
 20
124.002
 30
0.00000
  70
    32
  0
VERTEX
  8
0
  5
4E0E
 10
106.879
 20
123.955
 30
0.00000
  70
    32
  0
VERTEX
  8
0
  5
4E0F
 10
106.832
 20
123.910
 30
0.00000
  70
    32
  0
VERTEX
  8
0
  5
4E10
 10
106.783
 20
123.867
 30
0.00000
  70
    32
  0
VERTEX
  8
0
  5
4E11
 10
106.735
 20
123.826
 30
0.00000
  70
    32
  0
VERTEX
  8
0
  5
4E12
 10
106.686
 20
123.787
 30
0.00000
  70
    32
  0
VERTEX
  8
0
  5
4E13
 10
106.636
 20
123.751
 30
0.00000
  70
    32
  0
VERTEX
  8
0
  5
4E14
 10
106.586
 20
123.717
 30
0.00000
  70
    32
  0
VERTEX
  8
0
  5
4E15
 10
106.535
 20
123.685
 30
0.00000
  70
    32
  0
VERTEX
  8
0
  5
4E16
 10
106.484
 20
123.655
 30
0.00000
  70
    32
  0
VERTEX
  8
0
  5
4E17
 10
106.433
 20
123.628
 30
0.00000
  70
    32
  0
VERTEX
  8
0
  5
4E18
 10
106.381
 20
123.603
 30
0.00000
  70
    32
  0
VERTEX
  8
0
  5
4E19
 10
106.329
 20
123.580
 30
0.00000
  70
    32
  0
VERTEX
  8
0
  5
4E1A
 10
106.276
 20
123.560
 30
0.00000
  70
    32
  0
VERTEX
  8
0
  5
4E1B
 10
106.224
 20
123.542
 30
0.00000
  70
    32
  0
VERTEX
  8
0
  5
4E1C
 10
106.171
 20
123.526
 30
0.00000
  70
    32
  0
VERTEX
  8
0
  5
4E1D
 10
106.118
 20
123.513
 30
0.00000
  70
    32
  0
VERTEX
  8
0
  5
4E1E
 10
106.065
 20
123.502
 30
0.00000
  70
    32
  0
VERTEX
  8
0
  5
4E1F
 10
106.011
 20
123.494
 30
0.00000
  70
    32
  0
VERTEX
  8
0
  5
4E20
 10
105.958
 20
123.488
 30
0.00000
  70
    32
  0
VERTEX
  8
0
  5
4E21
 10
105.904
 20
123.484
 30
0.00000
  70
    32
  0
VERTEX
  8
0
  5
4E22
 10
105.851
 20
123.483
 30
0.00000
  70
    32
  0
SEQEND
  8
0
  5
4E23
  0
LINE
  5
2B99
  8
0
 10
113.291227177933294
 20
131.4828067786694987
 30
0.0
 11
134.444009407646007
 21
131.4828067786694135
 31
0.0
  0
LINE
  5
2B9A
  8
0
 10
110.8041296147195993
 20
123.4828067786694987
 30
0.0
 11
105.8507332323805059
 21
123.4828067786694987
 31
0.0
  0
LINE
  5
2B9E
  8
0
 10
105.8507332323805059
 20
131.4828067786694987
 30
0.0
 11
110.8041296147196988
 21
131.4828067786694987
 31
0.0
  0
POLYLINE
  5
2BA5
  8
0
 10
62.3466188243370425
 20
117.4828067786693993
 30
0.0
 66
     1
 70
     8
  0
VERTEX
  8
0
  5
4E24
 10
62.3466
 20
117.483
 30
0.00000
  70
    32
  0
VERTEX
  8
0
  5
4E25
 10
62.5868
 20
117.486
 30
0.00000
  70
    32
  0
VERTEX
  8
0
  5
4E26
 10
62.8268
 20
117.495
 30
0.00000
  70
    32
  0
VERTEX
  8
0
  5
4E27
 10
63.0665
 20
117.510
 30
0.00000
  70
    32
  0
VERTEX
  8
0
  5
4E28
 10
63.3058
 20
117.531
 30
0.00000
  70
    32
  0
VERTEX
  8
0
  5
4E29
 10
63.5446
 20
117.558
 30
0.00000
  70
    32
  0
VERTEX
  8
0
  5
4E2A
 10
63.7825
 20
117.591
 30
0.00000
  70
    32
  0
VERTEX
  8
0
  5
4E2B
 10
64.0197
 20
117.630
 30
0.00000
  70
    32
  0
VERTEX
  8
0
  5
4E2C
 10
64.2558
 20
117.675
 30
0.00000
  70
    32
  0
VERTEX
  8
0
  5
4E2D
 10
64.4908
 20
117.726
 30
0.00000
  70
    32
  0
VERTEX
  8
0
  5
4E2E
 10
64.7245
 20
117.782
 30
0.00000
  70
    32
  0
VERTEX
  8
0
  5
4E2F
 10
64.9567
 20
117.845
 30
0.00000
  70
    32
  0
VERTEX
  8
0
  5
4E30
 10
65.1874
 20
117.913
 30
0.00000
  70
    32
  0
VERTEX
  8
0
  5
4E31
 10
65.4164
 20
117.988
 30
0.00000
  70
    32
  0
VERTEX
  8
0
  5
4E32
 10
65.6435
 20
118.067
 30
0.00000
  70
    32
  0
VERTEX
  8
0
  5
4E33
 10
65.8686
 20
118.153
 30
0.00000
  70
    32
  0
VERTEX
  8
0
  5
4E34
 10
66.0916
 20
118.244
 30
0.00000
  70
    32
  0
VERTEX
  8
0
  5
4E35
 10
66.3124
 20
118.341
 30
0.00000
  70
    32
  0
VERTEX
  8
0
  5
4E36
 10
66.5307
 20
118.443
 30
0.00000
  70
    32
  0
VERTEX
  8
0
  5
4E37
 10
66.7466
 20
118.551
 30
0.00000
  70
    32
  0
VERTEX
  8
0
  5
4E38
 10
66.9598
 20
118.664
 30
0.00000
  70
    32
  0
VERTEX
  8
0
  5
4E39
 10
67.1702
 20
118.782
 30
0.00000
  70
    32
  0
VERTEX
  8
0
  5
4E3A
 10
67.3777
 20
118.906
 30
0.00000
  70
    32
  0
VERTEX
  8
0
  5
4E3B
 10
67.5822
 20
119.034
 30
0.00000
  70
    32
  0
VERTEX
  8
0
  5
4E3C
 10
67.7835
 20
119.168
 30
0.00000
  70
    32
  0
VERTEX
  8
0
  5
4E3D
 10
67.9816
 20
119.307
 30
0.00000
  70
    32
  0
VERTEX
  8
0
  5
4E3E
 10
68.1762
 20
119.451
 30
0.00000
  70
    32
  0
VERTEX
  8
0
  5
4E3F
 10
68.3674
 20
119.599
 30
0.00000
  70
    32
  0
VERTEX
  8
0
  5
4E40
 10
68.5549
 20
119.753
 30
0.00000
  70
    32
  0
VERTEX
  8
0
  5
4E41
 10
68.7387
 20
119.911
 30
0.00000
  70
    32
  0
VERTEX
  8
0
  5
4E42
 10
68.9186
 20
120.073
 30
0.00000
  70
    32
  0
VERTEX
  8
0
  5
4E43
 10
69.0946
 20
120.240
 30
0.00000
  70
    32
  0
VERTEX
  8
0
  5
4E44
 10
69.2665
 20
120.412
 30
0.00000
  70
    32
  0
VERTEX
  8
0
  5
4E45
 10
69.4342
 20
120.587
 30
0.00000
  70
    32
  0
VERTEX
  8
0
  5
4E46
 10
69.5977
 20
120.767
 30
0.00000
  70
    32
  0
VERTEX
  8
0
  5
4E47
 10
69.7568
 20
120.951
 30
0.00000
  70
    32
  0
VERTEX
  8
0
  5
4E48
 10
69.9114
 20
121.139
 30
0.00000
  70
    32
  0
VERTEX
  8
0
  5
4E49
 10
70.0615
 20
121.330
 30
0.00000
  70
    32
  0
VERTEX
  8
0
  5
4E4A
 10
70.2069
 20
121.526
 30
0.00000
  70
    32
  0
VERTEX
  8
0
  5
4E4B
 10
70.3476
 20
121.725
 30
0.00000
  70
    32
  0
VERTEX
  8
0
  5
4E4C
 10
70.4835
 20
121.927
 30
0.00000
  70
    32
  0
VERTEX
  8
0
  5
4E4D
 10
70.6145
 20
122.133
 30
0.00000
  70
    32
  0
VERTEX
  8
0
  5
4E4E
 10
70.7405
 20
122.342
 30
0.00000
  70
    32
  0
VERTEX
  8
0
  5
4E4F
 10
70.8614
 20
122.554
 30
0.00000
  70
    32
  0
VERTEX
  8
0
  5
4E50
 10
70.9773
 20
122.769
 30
0.00000
  70
    32
  0
VERTEX
  8
0
  5
4E51
 10
71.0879
 20
122.987
 30
0.00000
  70
    32
  0
VERTEX
  8
0
  5
4E52
 10
71.1932
 20
123.207
 30
0.00000
  70
    32
  0
VERTEX
  8
0
  5
4E53
 10
71.2932
 20
123.430
 30
0.00000
  70
    32
  0
VERTEX
  8
0
  5
4E54
 10
71.3879
 20
123.656
 30
0.00000
  70
    32
  0
VERTEX
  8
0
  5
4E55
 10
71.4770
 20
123.884
 30
0.00000
  70
    32
  0
VERTEX
  8
0
  5
4E56
 10
71.5607
 20
124.114
 30
0.00000
  70
    32
  0
VERTEX
  8
0
  5
4E57
 10
71.6389
 20
124.346
 30
0.00000
  70
    32
  0
VERTEX
  8
0
  5
4E58
 10
71.7114
 20
124.580
 30
0.00000
  70
    32
  0
VERTEX
  8
0
  5
4E59
 10
71.7783
 20
124.816
 30
0.00000
  70
    32
  0
VERTEX
  8
0
  5
4E5A
 10
71.8395
 20
125.053
 30
0.00000
  70
    32
  0
VERTEX
  8
0
  5
4E5B
 10
71.8950
 20
125.292
 30
0.00000
  70
    32
  0
VERTEX
  8
0
  5
4E5C
 10
71.9448
 20
125.532
 30
0.00000
  70
    32
  0
VERTEX
  8
0
  5
4E5D
 10
71.9887
 20
125.773
 30
0.00000
  70
    32
  0
VERTEX
  8
0
  5
4E5E
 10
72.0269
 20
126.016
 30
0.00000
  70
    32
  0
VERTEX
  8
0
  5
4E5F
 10
72.0592
 20
126.259
 30
0.00000
  70
    32
  0
VERTEX
  8
0
  5
4E60
 10
72.0857
 20
126.503
 30
0.00000
  70
    32
  0
VERTEX
  8
0
  5
4E61
 10
72.1063
 20
126.747
 30
0.00000
  70
    32
  0
VERTEX
  8
0
  5
4E62
 10
72.1210
 20
126.992
 30
0.00000
  70
    32
  0
VERTEX
  8
0
  5
4E63
 10
72.1298
 20
127.237
 30
0.00000
  70
    32
  0
VERTEX
  8
0
  5
4E64
 10
72.1328
 20
127.483
 30
0.00000
  70
    32
  0
VERTEX
  8
0
  5
4E65
 10
72.1298
 20
127.728
 30
0.00000
  70
    32
  0
VERTEX
  8
0
  5
4E66
 10
72.1210
 20
127.973
 30
0.00000
  70
    32
  0
VERTEX
  8
0
  5
4E67
 10
72.1063
 20
128.218
 30
0.00000
  70
    32
  0
VERTEX
  8
0
  5
4E68
 10
72.0857
 20
128.463
 30
0.00000
  70
    32
  0
VERTEX
  8
0
  5
4E69
 10
72.0592
 20
128.707
 30
0.00000
  70
    32
  0
VERTEX
  8
0
  5
4E6A
 10
72.0269
 20
128.950
 30
0.00000
  70
    32
  0
VERTEX
  8
0
  5
4E6B
 10
71.9887
 20
129.192
 30
0.00000
  70
    32
  0
VERTEX
  8
0
  5
4E6C
 10
71.9448
 20
129.434
 30
0.00000
  70
    32
  0
VERTEX
  8
0
  5
4E6D
 10
71.8950
 20
129.674
 30
0.00000
  70
    32
  0
VERTEX
  8
0
  5
4E6E
 10
71.8395
 20
129.913
 30
0.00000
  70
    32
  0
VERTEX
  8
0
  5
4E6F
 10
71.7783
 20
130.150
 30
0.00000
  70
    32
  0
VERTEX
  8
0
  5
4E70
 10
71.7114
 20
130.386
 30
0.00000
  70
    32
  0
VERTEX
  8
0
  5
4E71
 10
71.6389
 20
130.620
 30
0.00000
  70
    32
  0
VERTEX
  8
0
  5
4E72
 10
71.5607
 20
130.852
 30
0.00000
  70
    32
  0
VERTEX
  8
0
  5
4E73
 10
71.4770
 20
131.082
 30
0.00000
  70
    32
  0
VERTEX
  8
0
  5
4E74
 10
71.3879
 20
131.310
 30
0.00000
  70
    32
  0
VERTEX
  8
0
  5
4E75
 10
71.2932
 20
131.535
 30
0.00000
  70
    32
  0
VERTEX
  8
0
  5
4E76
 10
71.1932
 20
131.758
 30
0.00000
  70
    32
  0
VERTEX
  8
0
  5
4E77
 10
71.0879
 20
131.979
 30
0.00000
  70
    32
  0
VERTEX
  8
0
  5
4E78
 10
70.9773
 20
132.197
 30
0.00000
  70
    32
  0
VERTEX
  8
0
  5
4E79
 10
70.8614
 20
132.412
 30
0.00000
  70
    32
  0
VERTEX
  8
0
  5
4E7A
 10
70.7405
 20
132.624
 30
0.00000
  70
    32
  0
VERTEX
  8
0
  5
4E7B
 10
70.6145
 20
132.833
 30
0.00000
  70
    32
  0
VERTEX
  8
0
  5
4E7C
 10
70.4835
 20
133.039
 30
0.00000
  70
    32
  0
VERTEX
  8
0
  5
4E7D
 10
70.3476
 20
133.241
 30
0.00000
  70
    32
  0
VERTEX
  8
0
  5
4E7E
 10
70.2069
 20
133.440
 30
0.00000
  70
    32
  0
VERTEX
  8
0
  5
4E7F
 10
70.0615
 20
133.635
 30
0.00000
  70
    32
  0
VERTEX
  8
0
  5
4E80
 10
69.9114
 20
133.827
 30
0.00000
  70
    32
  0
VERTEX
  8
0
  5
4E81
 10
69.7568
 20
134.015
 30
0.00000
  70
    32
  0
VERTEX
  8
0
  5
4E82
 10
69.5977
 20
134.198
 30
0.00000
  70
    32
  0
VERTEX
  8
0
  5
4E83
 10
69.4342
 20
134.378
 30
0.00000
  70
    32
  0
VERTEX
  8
0
  5
4E84
 10
69.2665
 20
134.554
 30
0.00000
  70
    32
  0
VERTEX
  8
0
  5
4E85
 10
69.0946
 20
134.725
 30
0.00000
  70
    32
  0
VERTEX
  8
0
  5
4E86
 10
68.9186
 20
134.892
 30
0.00000
  70
    32
  0
VERTEX
  8
0
  5
4E87
 10
68.7387
 20
135.055
 30
0.00000
  70
    32
  0
VERTEX
  8
0
  5
4E88
 10
68.5549
 20
135.213
 30
0.00000
  70
    32
  0
VERTEX
  8
0
  5
4E89
 10
68.3674
 20
135.366
 30
0.00000
  70
    32
  0
VERTEX
  8
0
  5
4E8A
 10
68.1762
 20
135.515
 30
0.00000
  70
    32
  0
VERTEX
  8
0
  5
4E8B
 10
67.9816
 20
135.659
 30
0.00000
  70
    32
  0
VERTEX
  8
0
  5
4E8C
 10
67.7835
 20
135.798
 30
0.00000
  70
    32
  0
VERTEX
  8
0
  5
4E8D
 10
67.5822
 20
135.931
 30
0.00000
  70
    32
  0
VERTEX
  8
0
  5
4E8E
 10
67.3777
 20
136.060
 30
0.00000
  70
    32
  0
VERTEX
  8
0
  5
4E8F
 10
67.1702
 20
136.184
 30
0.00000
  70
    32
  0
VERTEX
  8
0
  5
4E90
 10
66.9598
 20
136.302
 30
0.00000
  70
    32
  0
VERTEX
  8
0
  5
4E91
 10
66.7466
 20
136.415
 30
0.00000
  70
    32
  0
VERTEX
  8
0
  5
4E92
 10
66.5307
 20
136.523
 30
0.00000
  70
    32
  0
VERTEX
  8
0
  5
4E93
 10
66.3124
 20
136.625
 30
0.00000
  70
    32
  0
VERTEX
  8
0
  5
4E94
 10
66.0916
 20
136.722
 30
0.00000
  70
    32
  0
VERTEX
  8
0
  5
4E95
 10
65.8686
 20
136.813
 30
0.00000
  70
    32
  0
VERTEX
  8
0
  5
4E96
 10
65.6435
 20
136.898
 30
0.00000
  70
    32
  0
VERTEX
  8
0
  5
4E97
 10
65.4164
 20
136.978
 30
0.00000
  70
    32
  0
VERTEX
  8
0
  5
4E98
 10
65.1874
 20
137.052
 30
0.00000
  70
    32
  0
VERTEX
  8
0
  5
4E99
 10
64.9567
 20
137.121
 30
0.00000
  70
    32
  0
VERTEX
  8
0
  5
4E9A
 10
64.7245
 20
137.183
 30
0.00000
  70
    32
  0
VERTEX
  8
0
  5
4E9B
 10
64.4908
 20
137.240
 30
0.00000
  70
    32
  0
VERTEX
  8
0
  5
4E9C
 10
64.2558
 20
137.291
 30
0.00000
  70
    32
  0
VERTEX
  8
0
  5
4E9D
 10
64.0197
 20
137.336
 30
0.00000
  70
    32
  0
VERTEX
  8
0
  5
4E9E
 10
63.7825
 20
137.375
 30
0.00000
  70
    32
  0
VERTEX
  8
0
  5
4E9F
 10
63.5446
 20
137.408
 30
0.00000
  70
    32
  0
VERTEX
  8
0
  5
4EA0
 10
63.3058
 20
137.435
 30
0.00000
  70
    32
  0
VERTEX
  8
0
  5
4EA1
 10
63.0665
 20
137.456
 30
0.00000
  70
    32
  0
VERTEX
  8
0
  5
4EA2
 10
62.8268
 20
137.471
 30
0.00000
  70
    32
  0
VERTEX
  8
0
  5
4EA3
 10
62.5868
 20
137.480
 30
0.00000
  70
    32
  0
VERTEX
  8
0
  5
4EA4
 10
62.3466
 20
137.483
 30
0.00000
  70
    32
  0
SEQEND
  8
0
  5
4EA5
  0
POLYLINE
  5
2BA9
  8
0
 10
70.2058206401367784
 20
121.5242638335697478
 30
0.0
 66
     1
 70
     8
  0
VERTEX
  8
0
  5
4EA6
 10
70.2058
 20
121.524
 30
0.00000
  70
    32
  0
VERTEX
  8
0
  5
4EA7
 10
70.2724
 20
121.508
 30
0.00000
  70
    32
  0
VERTEX
  8
0
  5
4EA8
 10
70.3390
 20
121.495
 30
0.00000
  70
    32
  0
VERTEX
  8
0
  5
4EA9
 10
70.4058
 20
121.487
 30
0.00000
  70
    32
  0
VERTEX
  8
0
  5
4EAA
 10
70.4727
 20
121.483
 30
0.00000
  70
    32
  0
VERTEX
  8
0
  5
4EAB
 10
70.5396
 20
121.483
 30
0.00000
  70
    32
  0
VERTEX
  8
0
  5
4EAC
 10
70.6065
 20
121.488
 30
0.00000
  70
    32
  0
VERTEX
  8
0
  5
4EAD
 10
70.6733
 20
121.496
 30
0.00000
  70
    32
  0
VERTEX
  8
0
  5
4EAE
 10
70.7400
 20
121.509
 30
0.00000
  70
    32
  0
VERTEX
  8
0
  5
4EAF
 10
70.8065
 20
121.526
 30
0.00000
  70
    32
  0
VERTEX
  8
0
  5
4EB0
 10
70.8728
 20
121.547
 30
0.00000
  70
    32
  0
VERTEX
  8
0
  5
4EB1
 10
70.9388
 20
121.572
 30
0.00000
  70
    32
  0
VERTEX
  8
0
  5
4EB2
 10
71.0046
 20
121.601
 30
0.00000
  70
    32
  0
VERTEX
  8
0
  5
4EB3
 10
71.0700
 20
121.634
 30
0.00000
  70
    32
  0
VERTEX
  8
0
  5
4EB4
 10
71.1350
 20
121.672
 30
0.00000
  70
    32
  0
VERTEX
  8
0
  5
4EB5
 10
71.1995
 20
121.713
 30
0.00000
  70
    32
  0
VERTEX
  8
0
  5
4EB6
 10
71.2636
 20
121.759
 30
0.00000
  70
    32
  0
VERTEX
  8
0
  5
4EB7
 10
71.3271
 20
121.808
 30
0.00000
  70
    32
  0
VERTEX
  8
0
  5
4EB8
 10
71.3901
 20
121.862
 30
0.00000
  70
    32
  0
VERTEX
  8
0
  5
4EB9
 10
71.4525
 20
121.919
 30
0.00000
  70
    32
  0
VERTEX
  8
0
  5
4EBA
 10
71.5142
 20
121.980
 30
0.00000
  70
    32
  0
VERTEX
  8
0
  5
4EBB
 10
71.5752
 20
122.045
 30
0.00000
  70
    32
  0
VERTEX
  8
0
  5
4EBC
 10
71.6354
 20
122.114
 30
0.00000
  70
    32
  0
VERTEX
  8
0
  5
4EBD
 10
71.6949
 20
122.186
 30
0.00000
  70
    32
  0
VERTEX
  8
0
  5
4EBE
 10
71.7535
 20
122.263
 30
0.00000
  70
    32
  0
VERTEX
  8
0
  5
4EBF
 10
71.8113
 20
122.342
 30
0.00000
  70
    32
  0
VERTEX
  8
0
  5
4EC0
 10
71.8681
 20
122.426
 30
0.00000
  70
    32
  0
VERTEX
  8
0
  5
4EC1
 10
71.9240
 20
122.513
 30
0.00000
  70
    32
  0
VERTEX
  8
0
  5
4EC2
 10
71.9789
 20
122.603
 30
0.00000
  70
    32
  0
VERTEX
  8
0
  5
4EC3
 10
72.0328
 20
122.697
 30
0.00000
  70
    32
  0
VERTEX
  8
0
  5
4EC4
 10
72.0856
 20
122.794
 30
0.00000
  70
    32
  0
VERTEX
  8
0
  5
4EC5
 10
72.1373
 20
122.895
 30
0.00000
  70
    32
  0
VERTEX
  8
0
  5
4EC6
 10
72.1879
 20
122.998
 30
0.00000
  70
    32
  0
VERTEX
  8
0
  5
4EC7
 10
72.2373
 20
123.105
 30
0.00000
  70
    32
  0
VERTEX
  8
0
  5
4EC8
 10
72.2855
 20
123.215
 30
0.00000
  70
    32
  0
VERTEX
  8
0
  5
4EC9
 10
72.3325
 20
123.327
 30
0.00000
  70
    32
  0
VERTEX
  8
0
  5
4ECA
 10
72.3782
 20
123.443
 30
0.00000
  70
    32
  0
VERTEX
  8
0
  5
4ECB
 10
72.4226
 20
123.561
 30
0.00000
  70
    32
  0
VERTEX
  8
0
  5
4ECC
 10
72.4656
 20
123.682
 30
0.00000
  70
    32
  0
VERTEX
  8
0
  5
4ECD
 10
72.5073
 20
123.806
 30
0.00000
  70
    32
  0
VERTEX
  8
0
  5
4ECE
 10
72.5476
 20
123.933
 30
0.00000
  70
    32
  0
VERTEX
  8
0
  5
4ECF
 10
72.5865
 20
124.061
 30
0.00000
  70
    32
  0
VERTEX
  8
0
  5
4ED0
 10
72.6239
 20
124.193
 30
0.00000
  70
    32
  0
VERTEX
  8
0
  5
4ED1
 10
72.6598
 20
124.326
 30
0.00000
  70
    32
  0
VERTEX
  8
0
  5
4ED2
 10
72.6942
 20
124.462
 30
0.00000
  70
    32
  0
VERTEX
  8
0
  5
4ED3
 10
72.7272
 20
124.600
 30
0.00000
  70
    32
  0
VERTEX
  8
0
  5
4ED4
 10
72.7585
 20
124.739
 30
0.00000
  70
    32
  0
VERTEX
  8
0
  5
4ED5
 10
72.7883
 20
124.881
 30
0.00000
  70
    32
  0
VERTEX
  8
0
  5
4ED6
 10
72.8165
 20
125.025
 30
0.00000
  70
    32
  0
VERTEX
  8
0
  5
4ED7
 10
72.8431
 20
125.170
 30
0.00000
  70
    32
  0
VERTEX
  8
0
  5
4ED8
 10
72.8681
 20
125.317
 30
0.00000
  70
    32
  0
VERTEX
  8
0
  5
4ED9
 10
72.8914
 20
125.465
 30
0.00000
  70
    32
  0
VERTEX
  8
0
  5
4EDA
 10
72.9131
 20
125.615
 30
0.00000
  70
    32
  0
VERTEX
  8
0
  5
4EDB
 10
72.9331
 20
125.766
 30
0.00000
  70
    32
  0
VERTEX
  8
0
  5
4EDC
 10
72.9514
 20
125.918
 30
0.00000
  70
    32
  0
VERTEX
  8
0
  5
4EDD
 10
72.9680
 20
126.072
 30
0.00000
  70
    32
  0
VERTEX
  8
0
  5
4EDE
 10
72.9828
 20
126.226
 30
0.00000
  70
    32
  0
VERTEX
  8
0
  5
4EDF
 10
72.9960
 20
126.381
 30
0.00000
  70
    32
  0
VERTEX
  8
0
  5
4EE0
 10
73.0074
 20
126.537
 30
0.00000
  70
    32
  0
VERTEX
  8
0
  5
4EE1
 10
73.0171
 20
126.694
 30
0.00000
  70
    32
  0
VERTEX
  8
0
  5
4EE2
 10
73.0250
 20
126.851
 30
0.00000
  70
    32
  0
VERTEX
  8
0
  5
4EE3
 10
73.0312
 20
127.008
 30
0.00000
  70
    32
  0
VERTEX
  8
0
  5
4EE4
 10
73.0356
 20
127.166
 30
0.00000
  70
    32
  0
VERTEX
  8
0
  5
4EE5
 10
73.0382
 20
127.325
 30
0.00000
  70
    32
  0
VERTEX
  8
0
  5
4EE6
 10
73.0391
 20
127.483
 30
0.00000
  70
    32
  0
VERTEX
  8
0
  5
4EE7
 10
73.0382
 20
127.641
 30
0.00000
  70
    32
  0
VERTEX
  8
0
  5
4EE8
 10
73.0356
 20
127.799
 30
0.00000
  70
    32
  0
VERTEX
  8
0
  5
4EE9
 10
73.0312
 20
127.957
 30
0.00000
  70
    32
  0
VERTEX
  8
0
  5
4EEA
 10
73.0250
 20
128.115
 30
0.00000
  70
    32
  0
VERTEX
  8
0
  5
4EEB
 10
73.0171
 20
128.272
 30
0.00000
  70
    32
  0
VERTEX
  8
0
  5
4EEC
 10
73.0074
 20
128.429
 30
0.00000
  70
    32
  0
VERTEX
  8
0
  5
4EED
 10
72.9960
 20
128.585
 30
0.00000
  70
    32
  0
VERTEX
  8
0
  5
4EEE
 10
72.9828
 20
128.740
 30
0.00000
  70
    32
  0
VERTEX
  8
0
  5
4EEF
 10
72.9680
 20
128.894
 30
0.00000
  70
    32
  0
VERTEX
  8
0
  5
4EF0
 10
72.9514
 20
129.047
 30
0.00000
  70
    32
  0
VERTEX
  8
0
  5
4EF1
 10
72.9331
 20
129.200
 30
0.00000
  70
    32
  0
VERTEX
  8
0
  5
4EF2
 10
72.9131
 20
129.351
 30
0.00000
  70
    32
  0
VERTEX
  8
0
  5
4EF3
 10
72.8914
 20
129.500
 30
0.00000
  70
    32
  0
VERTEX
  8
0
  5
4EF4
 10
72.8681
 20
129.649
 30
0.00000
  70
    32
  0
VERTEX
  8
0
  5
4EF5
 10
72.8431
 20
129.796
 30
0.00000
  70
    32
  0
VERTEX
  8
0
  5
4EF6
 10
72.8165
 20
129.941
 30
0.00000
  70
    32
  0
VERTEX
  8
0
  5
4EF7
 10
72.7883
 20
130.084
 30
0.00000
  70
    32
  0
VERTEX
  8
0
  5
4EF8
 10
72.7585
 20
130.226
 30
0.00000
  70
    32
  0
VERTEX
  8
0
  5
4EF9
 10
72.7272
 20
130.366
 30
0.00000
  70
    32
  0
VERTEX
  8
0
  5
4EFA
 10
72.6942
 20
130.504
 30
0.00000
  70
    32
  0
VERTEX
  8
0
  5
4EFB
 10
72.6598
 20
130.639
 30
0.00000
  70
    32
  0
VERTEX
  8
0
  5
4EFC
 10
72.6239
 20
130.773
 30
0.00000
  70
    32
  0
VERTEX
  8
0
  5
4EFD
 10
72.5865
 20
130.904
 30
0.00000
  70
    32
  0
VERTEX
  8
0
  5
4EFE
 10
72.5476
 20
131.033
 30
0.00000
  70
    32
  0
VERTEX
  8
0
  5
4EFF
 10
72.5073
 20
131.159
 30
0.00000
  70
    32
  0
VERTEX
  8
0
  5
4F00
 10
72.4656
 20
131.283
 30
0.00000
  70
    32
  0
VERTEX
  8
0
  5
4F01
 10
72.4226
 20
131.404
 30
0.00000
  70
    32
  0
VERTEX
  8
0
  5
4F02
 10
72.3782
 20
131.523
 30
0.00000
  70
    32
  0
VERTEX
  8
0
  5
4F03
 10
72.3325
 20
131.638
 30
0.00000
  70
    32
  0
VERTEX
  8
0
  5
4F04
 10
72.2855
 20
131.751
 30
0.00000
  70
    32
  0
VERTEX
  8
0
  5
4F05
 10
72.2373
 20
131.861
 30
0.00000
  70
    32
  0
VERTEX
  8
0
  5
4F06
 10
72.1879
 20
131.967
 30
0.00000
  70
    32
  0
VERTEX
  8
0
  5
4F07
 10
72.1373
 20
132.071
 30
0.00000
  70
    32
  0
VERTEX
  8
0
  5
4F08
 10
72.0856
 20
132.171
 30
0.00000
  70
    32
  0
VERTEX
  8
0
  5
4F09
 10
72.0328
 20
132.269
 30
0.00000
  70
    32
  0
VERTEX
  8
0
  5
4F0A
 10
71.9789
 20
132.362
 30
0.00000
  70
    32
  0
VERTEX
  8
0
  5
4F0B
 10
71.9240
 20
132.453
 30
0.00000
  70
    32
  0
VERTEX
  8
0
  5
4F0C
 10
71.8681
 20
132.540
 30
0.00000
  70
    32
  0
VERTEX
  8
0
  5
4F0D
 10
71.8113
 20
132.623
 30
0.00000
  70
    32
  0
VERTEX
  8
0
  5
4F0E
 10
71.7535
 20
132.703
 30
0.00000
  70
    32
  0
VERTEX
  8
0
  5
4F0F
 10
71.6949
 20
132.779
 30
0.00000
  70
    32
  0
VERTEX
  8
0
  5
4F10
 10
71.6354
 20
132.852
 30
0.00000
  70
    32
  0
VERTEX
  8
0
  5
4F11
 10
71.5752
 20
132.921
 30
0.00000
  70
    32
  0
VERTEX
  8
0
  5
4F12
 10
71.5142
 20
132.986
 30
0.00000
  70
    32
  0
VERTEX
  8
0
  5
4F13
 10
71.4525
 20
133.047
 30
0.00000
  70
    32
  0
VERTEX
  8
0
  5
4F14
 10
71.3901
 20
133.104
 30
0.00000
  70
    32
  0
VERTEX
  8
0
  5
4F15
 10
71.3271
 20
133.157
 30
0.00000
  70
    32
  0
VERTEX
  8
0
  5
4F16
 10
71.2636
 20
133.207
 30
0.00000
  70
    32
  0
VERTEX
  8
0
  5
4F17
 10
71.1995
 20
133.252
 30
0.00000
  70
    32
  0
VERTEX
  8
0
  5
4F18
 10
71.1350
 20
133.294
 30
0.00000
  70
    32
  0
VERTEX
  8
0
  5
4F19
 10
71.0700
 20
133.331
 30
0.00000
  70
    32
  0
VERTEX
  8
0
  5
4F1A
 10
71.0046
 20
133.364
 30
0.00000
  70
    32
  0
VERTEX
  8
0
  5
4F1B
 10
70.9388
 20
133.394
 30
0.00000
  70
    32
  0
VERTEX
  8
0
  5
4F1C
 10
70.8728
 20
133.419
 30
0.00000
  70
    32
  0
VERTEX
  8
0
  5
4F1D
 10
70.8065
 20
133.440
 30
0.00000
  70
    32
  0
VERTEX
  8
0
  5
4F1E
 10
70.7400
 20
133.457
 30
0.00000
  70
    32
  0
VERTEX
  8
0
  5
4F1F
 10
70.6733
 20
133.469
 30
0.00000
  70
    32
  0
VERTEX
  8
0
  5
4F20
 10
70.6065
 20
133.478
 30
0.00000
  70
    32
  0
VERTEX
  8
0
  5
4F21
 10
70.5396
 20
133.482
 30
0.00000
  70
    32
  0
VERTEX
  8
0
  5
4F22
 10
70.4727
 20
133.482
 30
0.00000
  70
    32
  0
VERTEX
  8
0
  5
4F23
 10
70.4058
 20
133.478
 30
0.00000
  70
    32
  0
VERTEX
  8
0
  5
4F24
 10
70.3390
 20
133.470
 30
0.00000
  70
    32
  0
VERTEX
  8
0
  5
4F25
 10
70.2724
 20
133.458
 30
0.00000
  70
    32
  0
VERTEX
  8
0
  5
4F26
 10
70.2058
 20
133.441
 30
0.00000
  70
    32
  0
SEQEND
  8
0
  5
4F27
  0
LINE
  5
2BAE
  8
1
 10
184.5383483758579928
 20
127.4828067786693993
 30
0.0
 11
226.1632988655221936
 21
127.4828067786693993
 31
0.0
  0
LINE
  5
2E3A
  8
1
 10
144.444009407646007
 20
105.9828065793662972
 30
0.0
 11
144.4440094076458934
 21
124.9827979709369004
 31
0.0
  0
LINE
  5
2EF6
  8
0
 10
211.6632988655223073
 20
122.4828067786693993
 30
0.0
 11
240.6632988655223073
 21
122.4828067786693993
 31
0.0
  0
LINE
  5
2F85
  8
0
 10
303.8609432801742969
 20
110.2827994065007999
 30
0.0
 11
304.0609429404278217
 21
110.4827994014484034
 31
0.0
  0
LINE
  5
363F
  8
0
 10
446.5162627958966937
 20
116.1828066743612027
 30
0.0
 11
446.5437647219379187
 21
116.4828066743611998
 31
0.0
  0
ARC
  5
3640
  8
0
 10
444.8937647219378277
 20
116.4828066743611998
 30
0.0
 40
1.6499999999999699
 50
169.5243183036068046
 51
190.4756816963908932
  0
LINE
  5
3641
  8
0
 10
446.5437647219379187
 20
116.4828066743611998
 30
0.0
 11
446.5162627958966937
 21
116.7828066743612965
 31
0.0
  0
ARC
  5
3644
  8
0
 10
445.0055335630427749
 20
116.4828066743611998
 30
0.0
 40
2.352656429196986
 50
92.7230045724929539
 51
267.2769954275070745
  0
ARC
  5
3645
  8
0
 10
444.774983506363526
 20
116.4828066743611998
 30
0.0
 40
2.352999995149446
 50
272.8935640277284733
 51
87.1064359722714556
  0
ARC
  5
3646
  8
0
 10
444.8937647219378277
 20
116.4828066743611998
 30
0.0
 40
2.000000000000052
 50
188.6269265586767006
 51
351.3730734413232994
  0
LINE
  5
3647
  8
0
 10
442.9163927286094236
 20
116.1828066743612027
 30
0.0
 11
446.8711367152662888
 21
116.1828066743612027
 31
0.0
  0
ARC
  5
3648
  8
0
 10
444.8937647219378277
 20
116.4828066743611998
 30
0.0
 40
2.0000000000000608
 50
8.6269265586812125
 51
171.3730734413188088
  0
LINE
  5
3649
  8
0
 10
442.9163927286094236
 20
116.7828066743612965
 30
0.0
 11
446.8711367152662888
 21
116.7828066743612965
 31
0.0
  0
LINE
  5
36A7
  8
0
 10
121.0623000718921958
 20
116.1608822639582996
 30
0.0
 11
121.094009407645899
 21
116.4828066743612993
 31
0.0
  0
ARC
  5
36A8
  8
0
 10
119.4440094076457939
 20
116.4828066743612993
 30
0.0
 40
1.649999999999997
 50
168.7491014520900023
 51
189.7004648448703108
  0
LINE
  5
36A9
  8
0
 10
121.094009407645899
 20
116.4828066743612993
 30
0.0
 11
121.0704178760937992
 21
116.7608273458240973
 31
0.0
  0
ARC
  5
36AA
  8
0
 10
119.5728314069107938
 20
116.4828066743612993
 30
0.0
 40
2.353528225344788
 50
93.1376923028004455
 51
266.862307697199526
  0
ARC
  5
36AB
  8
0
 10
119.3174877605169968
 20
116.4828066743612993
 30
0.0
 40
2.3534034348560309
 50
273.0817720543674909
 51
86.9182279456324949
  0
ARC
  5
36AE
  8
0
 10
119.4440094076457939
 20
116.4828066743612993
 30
0.0
 40
1.999999999999996
 50
187.8517097071593867
 51
350.597856589801097
  0
LINE
  5
36AF
  8
0
 10
117.4627595015172972
 20
116.2095873312213001
 30
0.0
 11
121.4171415095726019
 21
116.1560809356354014
 31
0.0
  0
ARC
  5
36B0
  8
0
 10
119.4440094076457939
 20
116.4828066743612993
 30
0.0
 40
2.0000000000000031
 50
7.8517097071594986
 51
170.5978565898010118
  0
LINE
  5
36B1
  8
0
 10
117.4708773057190001
 20
116.8095324130870978
 30
0.0
 11
121.4252593137743048
 21
116.7560260175012985
 31
0.0
  0
TEXT
  5
38DB
  8
0
 62
     3
 10
0.0
 20
0.0
 30
0.0
 40
10.0
  1
QLSW150L
  7
STANDARD1
  0
LINE
  5
3F32
  8
0
 10
230.6711296976756955
 20
184.4728084273338027
 30
0.0
 11
238.4752883070362088
 21
205.9145586557388867
 31
0.0
  0
LINE
  5
3F33
  8
0
 10
221.6554680333686065
 20
184.4728084273338027
 30
0.0
 11
230.6711296976756955
 21
184.4728084273338027
 31
0.0
  0
LINE
  5
3F34
  8
0
 10
213.8513094240082069
 20
205.9145586557388867
 30
0.0
 11
221.6554680333686065
 21
184.4728084273338027
 31
0.0
  0
LINE
  5
3F35
  8
0
 10
240.2586881497157094
 20
209.3525061376095096
 30
0.0
 11
231.0212334112478061
 21
183.9728074140548983
 31
0.0
  0
LINE
  5
3F36
  8
0
 10
231.0212334112478061
 20
183.9728074140548983
 30
0.0
 11
230.6711296976756955
 21
184.4728084273338027
 31
0.0
  0
LINE
  5
3F37
  8
0
 10
221.6554680333686065
 20
184.4728084273338027
 30
0.0
 11
221.3053643197966096
 21
183.9728074140548983
 31
0.0
  0
LINE
  5
3F38
  8
0
 10
221.3053643197966096
 20
183.9728074140548983
 30
0.0
 11
212.0679095813287063
 21
209.3525061376095096
 31
0.0
  0
LINE
  5
3F39
  8
0
 10
231.0212334112478061
 20
183.9728074140548983
 30
0.0
 11
230.4752781481695081
 21
182.4728080995083133
 31
0.0
  0
LINE
  5
3F3A
  8
0
 10
230.4752781481695081
 20
182.4728080995083133
 30
0.0
 11
221.8513195828747939
 21
182.4728080995083133
 31
0.0
  0
LINE
  5
3F3B
  8
0
 10
221.8513195828747939
 20
182.4728080995083133
 30
0.0
 11
221.3053643197966096
 21
183.9728074140548983
 31
0.0
  0
LINE
  5
40EE
  8
0
 10
104.9440094896022941
 20
122.4827979709369004
 30
0.0
 11
104.4440094076458934
 21
121.982800682948195
 31
0.0
  0
LINE
  5
40EF
  8
0
 10
104.4440094076458934
 20
110.9828007425528966
 30
0.0
 11
104.9440094896022941
 21
110.482799729273907
 31
0.0
  0
LINE
  5
40F0
  8
0
 10
104.4440094076458934
 20
114.0146878566009008
 30
0.0
 11
104.4440094076458934
 21
110.9828007425528966
 31
0.0
  0
LINE
  5
40F1
  8
0
 10
104.4440094076458934
 20
121.982800682948195
 30
0.0
 11
104.4440094076458934
 21
118.9698529447775996
 31
0.0
  0
LINE
  5
40F2
  8
0
 10
104.6440090678994039
 20
110.482799729273907
 30
0.0
 11
127.1892955221597958
 21
110.482799729273907
 31
0.0
  0
LINE
  5
40F3
  8
0
 10
104.9440094896022941
 20
122.4827979709369004
 30
0.0
 11
124.4033013165359023
 21
122.4827979709369004
 31
0.0
  0
LINE
  5
40F4
  8
0
 10
124.4033013165359023
 20
122.4827979709369004
 30
0.0
 11
124.574311233348098
 21
121.982800682948195
 31
0.0
  0
LINE
  5
40F5
  8
0
 10
124.574311233348098
 20
121.982800682948195
 30
0.0
 11
104.4440094076458934
 21
121.982800682948195
 31
0.0
  0
LINE
  5
40F6
  8
0
 10
104.4440094076458934
 20
110.9828007425528966
 30
0.0
 11
124.574311233348098
 21
110.9828007425528966
 31
0.0
  0
LINE
  5
40F7
  8
0
 10
124.574311233348098
 20
110.9828007425528966
 30
0.0
 11
124.4033013165359023
 21
110.482799729273907
 31
0.0
  0
ARC
  5
40F8
  8
0
 10
86.3358764611376728
 20
116.5738380958080995
 30
0.0
 40
18.2925569172509697
 50
351.9578721835894726
 51
354.3812943893997272
  0
POLYLINE
  5
40F9
  8
0
 66
     1
 10
0.0
 20
0.0
 30
0.0
 70
   128
  0
VERTEX
  5
44C5
  8
0
 10
104.4458245553438047
 20
118.9698529447775996
 30
0.0
  0
VERTEX
  5
44C6
  8
0
 10
104.444226405805793
 20
118.9812746848326981
 30
0.0
  0
VERTEX
  5
44C7
  8
0
 10
104.4645096801583009
 20
118.8351017441017063
 30
0.0
  0
VERTEX
  5
44C8
  8
0
 10
104.5099423893157962
 20
118.4705224837524042
 30
0.0
  0
VERTEX
  5
44C9
  8
0
 10
104.5660582997267056
 20
117.8998601640922033
 30
0.0
  0
VERTEX
  5
44CA
  8
0
 10
104.611582278496499
 20
117.1469491924507054
 30
0.0
  0
VERTEX
  5
44CB
  8
0
 10
104.6232694454853061
 20
116.282450875208994
 30
0.0
  0
VERTEX
  5
44CC
  8
0
 10
104.591604477948394
 20
115.4208582844000972
 30
0.0
  0
VERTEX
  5
44CD
  8
0
 10
104.5405475117627958
 20
114.7828538920146002
 30
0.0
  0
SEQEND
  5
44CE
  8
0
  0
LINE
  5
40FA
  8
0
 10
124.574311233348098
 20
110.9828007425528966
 30
0.0
 11
124.574311233348098
 21
121.982800682948195
 31
0.0
  0
LINE
  5
40FB
  8
0
 10
124.574311233348098
 20
110.9828007425528966
 30
0.0
 11
137.4440082975094128
 21
110.9828007425528966
 31
0.0
  0
ARC
  5
40FC
  8
0
 10
137.0440090723697892
 20
110.0827989830788027
 30
0.0
 40
0.4000000000000199
 50
0.0
 51
90.0
  0
LINE
  5
40FD
  8
0
 10
137.0440089770023064
 20
110.482799729273907
 30
0.0
 11
127.1892955221597958
 21
110.482799729273907
 31
0.0
  0
LINE
  5
40FE
  8
0
 10
149.4540089436237054
 20
122.4827979709369004
 30
0.0
 11
149.954009956902695
 21
121.982800682948195
 31
0.0
  0
LINE
  5
40FF
  8
0
 10
149.954009956902695
 20
121.982800682948195
 30
0.0
 11
124.574311233348098
 21
121.982800682948195
 31
0.0
  0
LINE
  5
4100
  8
0
 10
124.4033013165359023
 20
122.4827979709369004
 30
0.0
 11
149.4540089436237054
 21
122.4827979709369004
 31
0.0
  0
LINE
  5
4101
  8
0
 10
151.4540092714493085
 20
120.4827976431113967
 30
0.0
 11
149.954009956902695
 21
121.982800682948195
 31
0.0
  0
LINE
  5
4102
  8
0
 10
151.4540092714493085
 20
108.9828004147272935
 30
0.0
 11
151.4540092714493085
 21
120.4827976431113967
 31
0.0
  0
LINE
  5
4103
  8
0
 10
137.4440082975094128
 20
108.9828004147272935
 30
0.0
 11
151.4540092714493085
 21
108.9828004147272935
 31
0.0
  0
LINE
  5
4104
  8
0
 10
137.4440082975094128
 20
110.9828007425528966
 30
0.0
 11
137.4440082975094128
 21
108.9828004147272935
 31
0.0
  0
LINE
  5
4105
  8
0
 10
150.9540082581702904
 20
108.4827994014484034
 30
0.0
 11
151.4540092714493085
 21
108.9828004147272935
 31
0.0
  0
LINE
  5
4106
  8
0
 10
150.9540082581702904
 20
108.4827994014484034
 30
0.0
 11
137.9440093107884024
 21
108.4827994014484034
 31
0.0
  0
LINE
  5
4107
  8
0
 10
137.4440082975094128
 20
108.9828004147272935
 30
0.0
 11
137.9440093107884024
 21
108.4827994014484034
 31
0.0
  0
LINE
  5
41C6
  8
0
 10
211.1632992007984058
 20
114.1328069932461062
 30
0.0
 11
211.1632992007984058
 21
110.9828095502853955
 31
0.0
  0
LINE
  5
41C7
  8
0
 10
211.1632992007984058
 20
121.9828094906807934
 30
0.0
 11
211.1632992007984058
 21
118.8328083224296989
 31
0.0
  0
LINE
  5
41C8
  8
0
 10
241.1632985302460952
 20
110.9828095502853955
 30
0.0
 11
241.1632985302460952
 21
121.9828094906807934
 31
0.0
  0
LINE
  5
41C9
  8
0
 10
241.1632985302460952
 20
121.9828094906807934
 30
0.0
 11
240.6632984482897086
 21
122.4828067786693993
 31
0.0
  0
LINE
  5
41CA
  8
0
 10
211.6632992827547923
 20
122.4828067786693993
 30
0.0
 11
211.1632992007984058
 21
121.9828094906807934
 31
0.0
  0
LINE
  5
41CB
  8
0
 10
211.1632992007984058
 20
110.9828095502853955
 30
0.0
 11
211.6632992827547923
 21
110.4828085370065054
 31
0.0
  0
LINE
  5
41CC
  8
0
 10
240.6632984482897086
 20
110.4828085370065054
 30
0.0
 11
241.1632985302460952
 21
110.9828095502853955
 31
0.0
  0
LINE
  5
41CD
  8
0
 10
221.3053643197966949
 20
121.9828094906807934
 30
0.0
 11
212.0679095813287063
 21
121.9828094906807934
 31
0.0
  0
LINE
  5
41CE
  8
0
 10
221.8513195828749076
 20
120.4828064508438956
 30
0.0
 11
221.3053643197966949
 21
121.9828094906807934
 31
0.0
  0
LINE
  5
41CF
  8
0
 10
221.8513195828749076
 20
108.9828092224599061
 30
0.0
 11
221.8513195828749076
 21
120.4828064508438956
 31
0.0
  0
LINE
  5
41D0
  8
0
 10
216.7520961218727962
 20
108.9828092224599061
 30
0.0
 11
221.8513195828749076
 21
108.9828092224599061
 31
0.0
  0
LINE
  5
41D1
  8
0
 10
216.7520961218727962
 20
110.9828095502853955
 30
0.0
 11
216.7520961218727962
 21
108.9828092224599061
 31
0.0
  0
LINE
  5
41D2
  8
0
 10
212.0679095813287063
 20
110.9828095502853955
 30
0.0
 11
216.7520961218727962
 21
110.9828095502853955
 31
0.0
  0
LINE
  5
41D3
  8
0
 10
212.0679095813287063
 20
110.9828095502853955
 30
0.0
 11
212.0679095813287063
 21
121.9828094906807934
 31
0.0
  0
LINE
  5
41D4
  8
0
 10
222.2014232964469045
 20
108.4828082091809023
 30
0.0
 11
221.8513195828749076
 21
108.9828092224599061
 31
0.0
  0
LINE
  5
41D5
  8
0
 10
222.2014232964469045
 20
108.4828082091809023
 30
0.0
 11
217.4661709421528997
 21
108.4828082091809023
 31
0.0
  0
LINE
  5
41D6
  8
0
 10
216.7520961218727962
 20
108.9828092224599061
 30
0.0
 11
217.4661709421528997
 21
108.4828082091809023
 31
0.0
  0
LINE
  5
41D7
  8
0
 10
230.4752781481695934
 20
120.4828064508438956
 30
0.0
 11
221.8513195828749076
 21
120.4828064508438956
 31
0.0
  0
LINE
  5
41D8
  8
0
 10
230.4752781481695934
 20
108.9828092224599061
 30
0.0
 11
230.4752781481695934
 21
120.4828064508438956
 31
0.0
  0
LINE
  5
41D9
  8
0
 10
221.8513195828749076
 20
108.9828092224599061
 30
0.0
 11
230.4752781481695934
 21
108.9828092224599061
 31
0.0
  0
LINE
  5
41DA
  8
0
 10
230.1251744345975965
 20
108.4828082091809023
 30
0.0
 11
222.2014232964469045
 21
108.4828082091809023
 31
0.0
  0
LINE
  5
41DB
  8
0
 10
230.1251744345975965
 20
108.4828082091809023
 30
0.0
 11
230.4752781481695934
 21
108.9828092224599061
 31
0.0
  0
LINE
  5
41DC
  8
0
 10
231.0212334112478061
 20
121.9828094906807934
 30
0.0
 11
230.6711296976758092
 21
122.4828067786693993
 31
0.0
  0
LINE
  5
41DD
  8
0
 10
231.0212334112478061
 20
121.9828094906807934
 30
0.0
 11
230.4752781481695934
 21
120.4828064508438956
 31
0.0
  0
LINE
  5
41DE
  8
0
 10
221.6554680333686917
 20
122.4828067786693993
 30
0.0
 11
221.3053643197966949
 21
121.9828094906807934
 31
0.0
  0
LINE
  5
41DF
  8
0
 10
230.4752781481695934
 20
108.9828092224599061
 30
0.0
 11
235.5745016091717048
 21
108.9828092224599061
 31
0.0
  0
LINE
  5
41E0
  8
0
 10
235.5745016091717048
 20
108.9828092224599061
 30
0.0
 11
234.8604267888916866
 21
108.4828082091809023
 31
0.0
  0
LINE
  5
41E1
  8
0
 10
234.8604267888916866
 20
108.4828082091809023
 30
0.0
 11
230.1251744345975965
 21
108.4828082091809023
 31
0.0
  0
LINE
  5
41E2
  8
0
 10
240.2586881497157947
 20
121.9828094906807934
 30
0.0
 11
231.0212334112478061
 21
121.9828094906807934
 31
0.0
  0
LINE
  5
41E3
  8
0
 10
240.2586881497157947
 20
110.9828095502853955
 30
0.0
 11
240.2586881497157947
 21
121.9828094906807934
 31
0.0
  0
LINE
  5
41E4
  8
0
 10
235.5745016091717048
 20
110.9828095502853955
 30
0.0
 11
240.2586881497157947
 21
110.9828095502853955
 31
0.0
  0
LINE
  5
41E5
  8
0
 10
235.5745016091717048
 20
108.9828092224599061
 30
0.0
 11
235.5745016091717048
 21
110.9828095502853955
 31
0.0
  0
LINE
  5
41E6
  8
0
 10
212.5377562322867959
 20
122.4828067786693993
 30
0.0
 11
212.0679095813287063
 21
121.9828094906807934
 31
0.0
  0
LINE
  5
41E7
  8
0
 10
239.788841498757705
 20
122.4828067786693993
 30
0.0
 11
240.2586881497157947
 21
121.9828094906807934
 31
0.0
  0
LINE
  5
41E8
  8
0
 10
212.0679095813287063
 20
110.9828095502853955
 30
0.0
 11
212.5377562322867959
 21
110.4828085370065054
 31
0.0
  0
LINE
  5
41E9
  8
0
 10
240.2586881497157947
 20
110.9828095502853955
 30
0.0
 11
239.788841498757705
 21
110.4828085370065054
 31
0.0
  0
LINE
  5
41EA
  8
0
 10
212.0679095813287063
 20
121.9828094906807934
 30
0.0
 11
211.1632992007984058
 21
121.9828094906807934
 31
0.0
  0
LINE
  5
41EB
  8
0
 10
241.1632985302460952
 20
121.9828094906807934
 30
0.0
 11
240.2586881497157947
 21
121.9828094906807934
 31
0.0
  0
LINE
  5
41EC
  8
0
 10
240.2586881497157947
 20
110.9828095502853955
 30
0.0
 11
241.1632985302460952
 21
110.9828095502853955
 31
0.0
  0
LINE
  5
41ED
  8
0
 10
211.1632992007984058
 20
110.9828095502853955
 30
0.0
 11
212.0679095813287063
 21
110.9828095502853955
 31
0.0
  0
ARC
  5
41EE
  8
0
 10
193.9428538930939965
 20
116.4828076578378955
 30
0.0
 40
17.3800529262490606
 50
352.2290912313929994
 51
7.7709087686069127
  0
LINE
  5
426B
  8
0
 10
333.8609429448982269
 20
118.9698538596073973
 30
0.0
 11
333.8609429448982269
 21
121.9828015977780069
 31
0.0
  0
LINE
  5
426C
  8
0
 10
333.8609429448982269
 20
110.9828016573826943
 30
0.0
 11
333.8609429448982269
 21
114.0146887714306985
 31
0.0
  0
LINE
  5
426D
  8
0
 10
333.3609428629417835
 20
110.4828006441037047
 30
0.0
 11
333.8609429448982269
 21
110.9828016573826943
 31
0.0
  0
LINE
  5
426E
  8
0
 10
333.8609429448982269
 20
121.9828015977780069
 30
0.0
 11
333.3609428629417835
 21
122.482798885766698
 31
0.0
  0
LINE
  5
4282
  8
0
 10
311.115656830384296
 20
110.4828006441037047
 30
0.0
 11
333.6609432846445884
 21
110.4828006441037047
 31
0.0
  0
POLYLINE
  5
4291
  8
0
 66
     1
 10
0.0
 20
0.0
 30
0.0
 70
   128
  0
VERTEX
  5
44CF
  8
0
 10
333.8564176485081134
 20
114.0146887714306985
 30
0.0
  0
VERTEX
  5
44D0
  8
0
 10
333.8574374467273174
 20
114.0074579829613981
 30
0.0
  0
VERTEX
  5
44D1
  8
0
 10
333.8274116069217143
 20
114.2292170638481963
 30
0.0
  0
VERTEX
  5
44D2
  8
0
 10
333.7764878198643146
 20
114.6639249140660013
 30
0.0
  0
VERTEX
  5
44D3
  8
0
 10
333.7212184816737022
 20
115.3001448923985066
 30
0.0
  0
VERTEX
  5
44D4
  8
0
 10
333.6847609281679183
 20
116.1010748559873065
 30
0.0
  0
VERTEX
  5
44D5
  8
0
 10
333.6876778304715003
 20
116.9785371834675942
 30
0.0
  0
VERTEX
  5
44D6
  8
0
 10
333.7318206578631816
 20
117.8109831029812966
 30
0.0
  0
VERTEX
  5
44D7
  8
0
 10
333.795596696450275
 20
118.4756419474523028
 30
0.0
  0
VERTEX
  5
44D8
  8
0
 10
333.8457866013188777
 20
118.8744491750638019
 30
0.0
  0
VERTEX
  5
44D9
  8
0
 10
333.8591277972001876
 20
118.9698538596073973
 30
0.0
  0
SEQEND
  5
44DA
  8
0
  0
LINE
  5
4292
  8
0
 10
333.8609429448982269
 20
121.9828015977780069
 30
0.0
 11
313.7306411191959796
 21
121.9828015977780069
 31
0.0
  0
LINE
  5
4293
  8
0
 10
313.7306411191959796
 20
110.9828016573826943
 30
0.0
 11
333.8609429448982269
 21
110.9828016573826943
 31
0.0
  0
LINE
  5
4294
  8
0
 10
313.7306411191959796
 20
110.9828016573826943
 30
0.0
 11
313.7306411191959796
 21
121.9828015977780069
 31
0.0
  0
LINE
  5
4295
  8
0
 10
313.7306411191959796
 20
110.9828016573826943
 30
0.0
 11
313.9016510360082179
 21
110.4828006441037047
 31
0.0
  0
LINE
  5
4296
  8
0
 10
313.9016510360082179
 20
122.482798885766698
 30
0.0
 11
333.3609428629417835
 21
122.482798885766698
 31
0.0
  0
LINE
  5
4297
  8
0
 10
313.9016510360082179
 20
122.482798885766698
 30
0.0
 11
313.7306411191959796
 21
121.9828015977780069
 31
0.0
  0
LINE
  5
4298
  8
0
 10
300.860944055034679
 20
110.9828016573826943
 30
0.0
 11
313.7306411191959796
 21
110.9828016573826943
 31
0.0
  0
ARC
  5
4299
  8
0
 10
301.2609432801742742
 20
110.0827998979086004
 30
0.0
 40
0.4000000000000199
 50
90.0
 51
180.0
  0
LINE
  5
429A
  8
0
 10
311.115656830384296
 20
110.4828006441037047
 30
0.0
 11
301.2609433755416717
 21
110.4828006441037047
 31
0.0
  0
LINE
  5
429B
  8
0
 10
313.7306411191959796
 20
121.9828015977780069
 30
0.0
 11
288.3509423956414253
 21
121.9828015977780069
 31
0.0
  0
LINE
  5
429C
  8
0
 10
288.3509423956414253
 20
121.9828015977780069
 30
0.0
 11
288.8509434089202728
 21
122.482798885766698
 31
0.0
  0
LINE
  5
429D
  8
0
 10
288.8509434089202728
 20
122.482798885766698
 30
0.0
 11
313.9016510360082179
 21
122.482798885766698
 31
0.0
  0
LINE
  5
429E
  8
0
 10
286.8509430810947833
 20
108.9828013295571054
 30
0.0
 11
300.860944055034679
 21
108.9828013295571054
 31
0.0
  0
LINE
  5
429F
  8
0
 10
286.8509430810947833
 20
108.9828013295571054
 30
0.0
 11
286.8509430810947833
 21
120.4827985579410949
 31
0.0
  0
LINE
  5
42A0
  8
0
 10
288.3509423956414253
 20
121.9828015977780069
 30
0.0
 11
286.8509430810947833
 21
120.4827985579410949
 31
0.0
  0
LINE
  5
42A1
  8
0
 10
300.860944055034679
 20
108.9828013295571054
 30
0.0
 11
300.860944055034679
 21
110.9828016573826943
 31
0.0
  0
LINE
  5
42A2
  8
0
 10
300.3609430417557178
 20
108.4828003162782011
 30
0.0
 11
287.3509440943736877
 21
108.4828003162782011
 31
0.0
  0
LINE
  5
42A3
  8
0
 10
287.3509440943736877
 20
108.4828003162782011
 30
0.0
 11
286.8509430810947833
 21
108.9828013295571054
 31
0.0
  0
LINE
  5
42A4
  8
0
 10
300.860944055034679
 20
108.9828013295571054
 30
0.0
 11
300.3609430417557178
 21
108.4828003162782011
 31
0.0
  0
LINE
  5
4316
  8
0
 10
429.8937650572140114
 20
110.9828076876402037
 30
0.0
 11
430.393765139170398
 21
110.4828066743611998
 31
0.0
  0
LINE
  5
4317
  8
0
 10
459.393764304705428
 20
110.4828066743611998
 30
0.0
 11
459.8937643866618146
 21
110.9828076876402037
 31
0.0
  0
LINE
  5
4318
  8
0
 10
429.8937650572140114
 20
121.982807628035502
 30
0.0
 11
429.8937650572140114
 21
110.9828076876402037
 31
0.0
  0
LINE
  5
4319
  8
0
 10
459.8937643866618146
 20
118.8328064597845071
 30
0.0
 11
459.8937643866618146
 21
121.982807628035502
 31
0.0
  0
LINE
  5
431A
  8
0
 10
459.8937643866618146
 20
110.9828076876402037
 30
0.0
 11
459.8937643866618146
 21
114.1328051306009002
 31
0.0
  0
LINE
  5
431B
  8
0
 10
459.8937643866618146
 20
121.982807628035502
 30
0.0
 11
459.393764304705428
 21
122.4828049160241932
 31
0.0
  0
LINE
  5
431C
  8
0
 10
430.393765139170398
 20
122.4828049160241932
 30
0.0
 11
429.8937650572140114
 21
121.982807628035502
 31
0.0
  0
LINE
  5
434D
  8
0
 10
429.8937650572140114
 20
110.9828076876402037
 30
0.0
 11
459.8937643866618146
 21
110.9828076876402037
 31
0.0
  0
LINE
  5
434F
  8
0
 10
459.8937643866618146
 20
121.982807628035502
 30
0.0
 11
429.8937650572140114
 21
121.982807628035502
 31
0.0
  0
ARC
  5
4350
  8
0
 10
477.1220306279282113
 20
116.4828057951927036
 30
0.0
 40
17.3878020693686608
 50
172.2325758354012066
 51
187.7674241646002997
  0
LINE
  5
4351
  8
0
 10
430.393765139170398
 20
122.4828049160241932
 30
0.0
 11
459.393764304705428
 21
122.4828049160241932
 31
0.0
  0
POLYLINE
  5
43C7
  8
0
 66
     1
 10
0.0
 20
0.0
 30
0.0
 70
   128
  0
VERTEX
  5
44DB
  8
0
 10
114.9554833650952048
 20
127.4828086413146053
 30
0.0
  0
VERTEX
  5
44DC
  8
0
 10
114.9151231043402959
 20
128.0006202675104987
 30
0.0
  0
VERTEX
  5
44DD
  8
0
 10
114.7953391887610053
 20
128.5017947472335038
 30
0.0
  0
VERTEX
  5
44DE
  8
0
 10
114.5999812402194067
 20
128.9702164746524033
 30
0.0
  0
VERTEX
  5
44DF
  8
0
 10
114.3353287011747028
 20
129.3908278263807858
 30
0.0
  0
VERTEX
  5
44E0
  8
0
 10
114.0098878063623999
 20
129.7501171745063004
 30
0.0
  0
VERTEX
  5
44E1
  8
0
 10
113.6341182396178056
 20
130.0365323938131894
 30
0.0
  0
VERTEX
  5
44E2
  8
0
 10
113.2200978577500052
 20
130.2408720172645076
 30
0.0
  0
VERTEX
  5
44E3
  8
0
 10
112.7811329320436045
 20
130.3565609074832139
 30
0.0
  0
VERTEX
  5
44E4
  8
0
 10
112.3313329995040988
 20
130.3798886753322108
 30
0.0
  0
VERTEX
  5
44E5
  8
0
 10
111.8851540491346981
 20
130.3100990868807969
 30
0.0
  0
VERTEX
  5
44E6
  8
0
 10
111.4569379829232929
 20
130.1494384921790015
 30
0.0
  0
VERTEX
  5
44E7
  8
0
 10
111.0604460232322026
 20
129.9030701435804929
 30
0.0
  0
VERTEX
  5
44E8
  8
0
 10
110.7084237851564978
 20
129.5789102829695878
 30
0.0
  0
VERTEX
  5
44E9
  8
0
 10
110.4121849753324938
 20
129.1873859978915107
 30
0.0
  0
VERTEX
  5
44EA
  8
0
 10
110.1812505044405981
 20
128.7410701431037126
 30
0.0
  0
VERTEX
  5
44EB
  8
0
 10
110.0230420820777937
 20
128.2543125368358119
 30
0.0
  0
VERTEX
  5
44EC
  8
0
 10
109.9426465921466018
 20
127.7427593983413061
 30
0.0
  0
VERTEX
  5
44ED
  8
0
 10
109.9426465921466018
 20
127.2228541589976061
 30
0.0
  0
VERTEX
  5
44EE
  8
0
 10
110.0230420820777937
 20
126.7113010205031003
 30
0.0
  0
VERTEX
  5
44EF
  8
0
 10
110.1812505044405981
 20
126.2245434142351996
 30
0.0
  0
VERTEX
  5
44F0
  8
0
 10
110.4121849753324938
 20
125.7782312847377
 30
0.0
  0
VERTEX
  5
44F1
  8
0
 10
110.7084237851564978
 20
125.386703274369296
 30
0.0
  0
VERTEX
  5
44F2
  8
0
 10
111.0604460232322026
 20
125.0625434137584051
 30
0.0
  0
VERTEX
  5
44F3
  8
0
 10
111.4569379829232929
 20
124.8161750651598965
 30
0.0
  0
VERTEX
  5
44F4
  8
0
 10
111.8851540491346981
 20
124.6555144704581011
 30
0.0
  0
VERTEX
  5
44F5
  8
0
 10
112.3313329995040988
 20
124.5857286072969998
 30
0.0
  0
VERTEX
  5
44F6
  8
0
 10
112.7811329320436045
 20
124.6090526498556983
 30
0.0
  0
VERTEX
  5
44F7
  8
0
 10
113.2200978577500052
 20
124.7247415400744046
 30
0.0
  0
VERTEX
  5
44F8
  8
0
 10
113.6341182396178056
 20
124.9290811635256944
 30
0.0
  0
VERTEX
  5
44F9
  8
0
 10
114.0098878063623999
 20
125.2154963828325975
 30
0.0
  0
VERTEX
  5
44FA
  8
0
 10
114.3353287011747028
 20
125.5747857309580979
 30
0.0
  0
VERTEX
  5
44FB
  8
0
 10
114.5999812402194067
 20
125.9954008079767931
 30
0.0
  0
VERTEX
  5
44FC
  8
0
 10
114.7953391887610053
 20
126.4638188101053942
 30
0.0
  0
VERTEX
  5
44FD
  8
0
 10
114.9151231043402959
 20
126.9649932898283993
 30
0.0
  0
VERTEX
  5
44FE
  8
0
 10
114.9554833650952048
 20
127.4828086413146053
 30
0.0
  0
SEQEND
  5
44FF
  8
0
  0
LINE
  5
43E7
  8
3
 10
211.8711051040972109
 20
249.7466098163748995
 30
0.0
 11
211.7174508285798993
 21
240.8479362992929964
 31
0.0
  0
LINE
  5
43E8
  8
3
 10
208.3365047346541985
 20
248.0983985955861897
 30
0.0
 11
215.2520511980227127
 21
242.4961475200817063
 31
0.0
  0
ENDSEC
  0
EOF
