  0
SECTION
  2
HEADER
  9
$ACADVER
  1
AC1009
  9
$INSBASE
 10
0.0
 20
0.0
 30
0.0
  9
$EXTMIN
 10
0.0
 20
-2.960436562073669
 30
0.0
  9
$EXTMAX
 10
364.42246710156621
 20
324.62983800319807
 30
0.0
  9
$LIMMIN
 10
0.0
 20
0.0
  9
$LIMMAX
 10
0.0
 20
0.0
  9
$ORTHOMODE
 70
     1
  9
$REGENMODE
 70
     1
  9
$FILLMODE
 70
     1
  9
$QTEXTMODE
 70
     0
  9
$MIRRTEXT
 70
     0
  9
$DRAGMODE
 70
     2
  9
$LTSCALE
 40
1.0
  9
$OSMODE
 70
    37
  9
$ATTMODE
 70
     1
  9
$TEXTSIZE
 40
0.0
  9
$TRACEWID
 40
0.05
  9
$TEXTSTYLE
  7
STANDARD
  9
$CLAYER
  8
0
  9
$CELTYPE
  6
BYLAYER
  9
$CECOLOR
 62
   256
  9
$DIMSCALE
 40
1.0
  9
$DIMASZ
 40
6.0
  9
$DIMEXO
 40
1.0
  9
$DIMDLI
 40
0.38
  9
$DIMRND
 40
0.0
  9
$DIMDLE
 40
1.0
  9
$DIMEXE
 40
0.18
  9
$DIMTP
 40
0.0
  9
$DIMTM
 40
0.0
  9
$DIMTXT
 40
3.5
  9
$DIMCEN
 40
0.09
  9
$DIMTSZ
 40
0.0
  9
$DIMTOL
 70
     0
  9
$DIMLIM
 70
     0
  9
$DIMTIH
 70
     1
  9
$DIMTOH
 70
     1
  9
$DIMSE1
 70
     0
  9
$DIMSE2
 70
     0
  9
$DIMTAD
 70
     1
  9
$DIMZIN
 70
     0
  9
$DIMBLK
  1

  9
$DIMASO
 70
     1
  9
$DIMSHO
 70
     1
  9
$DIMPOST
  1

  9
$DIMAPOST
  1

  9
$DIMALT
 70
     0
  9
$DIMALTD
 70
     2
  9
$DIMALTF
 40
0.0394
  9
$DIMLFAC
 40
2.0
  9
$DIMTOFL
 70
     0
  9
$DIMTVP
 40
0.0
  9
$DIMTIX
 70
     0
  9
$DIMSOXD
 70
     0
  9
$DIMSAH
 70
     0
  9
$DIMBLK1
  1

  9
$DIMBLK2
  1

  9
$DIMSTYLE
  2
STANDARD
  9
$DIMCLRD
 70
     0
  9
$DIMCLRE
 70
     0
  9
$DIMCLRT
 70
     0
  9
$DIMTFAC
 40
1.0
  9
$DIMGAP
 40
1.0
  9
$LUNITS
 70
     2
  9
$LUPREC
 70
     2
  9
$SKETCHINC
 40
0.1
  9
$FILLETRAD
 40
0.0
  9
$AUNITS
 70
     0
  9
$AUPREC
 70
     2
  9
$MENU
  1
acad
  9
$ELEVATION
 40
0.0
  9
$PELEVATION
 40
0.0
  9
$THICKNESS
 40
0.0
  9
$LIMCHECK
 70
     0
  9
$BLIPMODE
 70
     0
  9
$CHAMFERA
 40
0.0
  9
$CHAMFERB
 40
0.0
  9
$SKPOLY
 70
     0
  9
$TDCREATE
 40
2444972.375
  9
$TDUPDATE
 40
2456840.49621015
  9
$TDINDWG
 40
0.0652596644
  9
$TDUSRTIMER
 40
0.0652596644
  9
$USRTIMER
 70
     1
  9
$ANGBASE
 50
0.0
  9
$ANGDIR
 70
     0
  9
$PDMODE
 70
     0
  9
$PDSIZE
 40
-1.0
  9
$PLINEWID
 40
0.0
  9
$COORDS
 70
     1
  9
$SPLFRAME
 70
     0
  9
$SPLINETYPE
 70
     6
  9
$SPLINESEGS
 70
     8
  9
$ATTDIA
 70
     0
  9
$ATTREQ
 70
     1
  9
$HANDLING
 70
     1
  9
$HANDSEED
  5
1B5E
  9
$SURFTAB1
 70
     6
  9
$SURFTAB2
 70
     6
  9
$SURFTYPE
 70
     6
  9
$SURFU
 70
     6
  9
$SURFV
 70
     6
  9
$UCSNAME
  2

  9
$UCSORG
 10
0.0
 20
0.0
 30
0.0
  9
$UCSXDIR
 10
1.0
 20
0.0
 30
0.0
  9
$UCSYDIR
 10
0.0
 20
1.0
 30
0.0
  9
$PUCSNAME
  2

  9
$PUCSORG
 10
0.0
 20
0.0
 30
0.0
  9
$PUCSXDIR
 10
1.0
 20
0.0
 30
0.0
  9
$PUCSYDIR
 10
0.0
 20
1.0
 30
0.0
  9
$USERI1
 70
     0
  9
$USERI2
 70
     1
  9
$USERI3
 70
     0
  9
$USERI4
 70
     0
  9
$USERI5
 70
     0
  9
$USERR1
 40
0.0
  9
$USERR2
 40
0.0
  9
$USERR3
 40
0.0
  9
$USERR4
 40
0.0
  9
$USERR5
 40
0.0
  9
$WORLDVIEW
 70
     1
  9
$SHADEDGE
 70
     3
  9
$SHADEDIF
 70
    70
  9
$TILEMODE
 70
     1
  9
$MAXACTVP
 70
    16
  9
$PLIMCHECK
 70
     0
  9
$PEXTMIN
 10
1.0000000000000000E+020
 20
1.0000000000000000E+020
 30
1.0000000000000000E+020
  9
$PEXTMAX
 10
-1.0000000000000000E+020
 20
-1.0000000000000000E+020
 30
-1.0000000000000000E+020
  9
$PLIMMIN
 10
0.0
 20
0.0
  9
$PLIMMAX
 10
12.0
 20
9.0
  9
$UNITMODE
 70
     0
  9
$VISRETAIN
 70
     0
  9
$PLINEGEN
 70
     1
  9
$PSLTSCALE
 70
     1
  0
ENDSEC
  0
SECTION
  2
TABLES
  0
TABLE
  2
VPORT
 70
     1
  0
VPORT
  2
*ACTIVE
 70
     0
 10
0.0
 20
0.0
 11
1.0
 21
1.0
 12
298.91209589353429
 22
160.83748607430999
 13
0.0
 23
0.0
 14
1.0
 24
1.0
 15
0.0
 25
0.0
 16
0.0
 26
0.0
 36
1.0
 17
0.0
 27
0.0
 37
0.0
 40
330.49046095406339
 41
2.6019575856443709
 42
50.0
 43
0.0
 44
0.0
 50
0.0
 51
0.0
 71
     0
 72
  2000
 73
     1
 74
     0
 75
     0
 76
     0
 77
     0
 78
     0
  0
ENDTAB
  0
TABLE
  2
LTYPE
 70
     3
  0
LTYPE
  2
CONTINUOUS
 70
     0
  3
Solid Line
 72
    65
 73
     0
 40
0.0
  0
LTYPE
  2
CENTERX2
 70
     0
  3
Center (2x) ________  __  ________  __  _____
 72
    65
 73
     4
 40
20.32
 49
12.699999999999999
 49
-2.54
 49
2.54
 49
-2.54
  0
LTYPE
  2
PHANTOM2
 70
     0
  3
___ _ _ ___ _ _ ___ _ _ ___ _ _
 72
    65
 73
     6
 40
1.25
 49
0.625
 49
-0.125
 49
0.125
 49
-0.125
 49
0.125
 49
-0.125
  0
ENDTAB
  0
TABLE
  2
LAYER
 70
     4
  0
LAYER
  2
0
 70
     0
 62
     7
  6
CONTINUOUS
  0
LAYER
  2
DEFPOINTS
 70
     0
 62
     7
  6
CONTINUOUS
  0
LAYER
  2
1
 70
     0
 62
     1
  6
CENTERX2
  0
LAYER
  2
3
 70
     0
 62
     3
  6
CONTINUOUS
  0
ENDTAB
  0
TABLE
  2
STYLE
 70
     2
  0
STYLE
  2
STANDARD
 70
     0
 40
0.0
 41
1.0
 50
0.0
 71
     0
 42
0.0
  3
txt
  4
bigfont
  0
STYLE
  2
STANDARD1
 70
     0
 40
0.0
 41
1.0
 50
0.0
 71
     0
 42
3.0
  3
txt
  4

  0
ENDTAB
  0
TABLE
  2
VIEW
 70
     0
  0
ENDTAB
  0
TABLE
  2
UCS
 70
     0
  0
ENDTAB
  0
TABLE
  2
APPID
 70
    29
  0
APPID
  2
ACAD
 70
     0
  0
APPID
  2
DCO15
 70
     0
  0
APPID
  2
GENIUS_GENOREF_13
 70
     0
  0
APPID
  2
GENIUS_GENOENT_13
 70
     0
  0
APPID
  2
GENIUS_GENBH_13
 70
     0
  0
APPID
  2
GENIUS_GENOBJ_13
 70
     0
  0
APPID
  2
GENIUS_GENODEF_13
 70
     0
  0
APPID
  2
GENIUS_GENOLIS_13
 70
     0
  0
APPID
  2
GENIUS_GENOBJ-NBEHI-BHF_13
 70
     0
  0
APPID
  2
GENIUS_GENOBJ-NBEHI-BHB_13
 70
     0
  0
APPID
  2
GENIUS_GENOBJ-F-PART_13
 70
     0
  0
APPID
  2
GENIUS_GEFSTDP_13
 70
     0
  0
APPID
  2
GENIUS_GENOBJ-N-RSSYM_13
 70
     0
  0
APPID
  2
GENIUS_GENSYMENT_13
 70
     0
  0
APPID
  2
GENIUS_GENOBJ-N-TIT_13
 70
     0
  0
APPID
  2
GENIUS_GENTITLE_13
 70
     0
  0
APPID
  2
GENIUS_GENZVEED_13
 70
     0
  0
APPID
  2
GENIUS_GENOBJ-N-LEADER_13
 70
     0
  0
APPID
  2
GENIUS_GENOBJ-N-FIL_13
 70
     0
  0
APPID
  2
GENIUS_GENOBJ-N-SEC_13
 70
     0
  0
APPID
  2
GENIUS_GENOBJ-N-CRS_13
 70
     0
  0
APPID
  2
GENIUS_GENOBJ-N-ZOO_13
 70
     0
  0
APPID
  2
GENIUS_GENZOO_13
 70
     0
  0
APPID
  2
GENIUS_GENOBJ-F-TOL_13
 70
     0
  0
APPID
  2
GENIUS_GENFIL_13
 70
     0
  0
APPID
  2
GENIUS_GENOBJ-N-CHA_13
 70
     0
  0
APPID
  2
ACAD_MLEADERVER
 70
     0
  0
APPID
  2
ACAD_NAV_VCDISPLAY
 70
     0
  0
APPID
  2
ACAD_EXEMPT_FROM_CAD_STANDARDS
 70
     0
  0
ENDTAB
  0
TABLE
  2
DIMSTYLE
 70
     1
  0
DIMSTYLE
  2
STANDARD
 70
     0
  3

  4

  5

  6

  7

 40
1.0
 41
0.18
 42
0.0625
 43
0.38
 44
0.18
 45
0.0
 46
0.0
 47
0.0
 48
0.0
140
0.18
141
0.09
142
0.0
143
25.399999999999999
144
1.0
145
0.0
146
1.0
147
0.09
 71
     0
 72
     0
 73
     1
 74
     1
 75
     0
 76
     0
 77
     0
 78
     0
170
     0
171
     2
172
     0
173
     0
174
     0
175
     0
176
     0
177
     0
178
     0
  0
ENDTAB
  0
ENDSEC
  0
SECTION
  2
BLOCKS
  0
BLOCK
  8
0
  2
$MODEL_SPACE
 70
     0
 10
0.0
 20
0.0
 30
0.0
  3
$MODEL_SPACE
  1

  0
ENDBLK
  5
E
  8
0
  0
BLOCK
 67
     1
  8
0
  2
$PAPER_SPACE
 70
     0
 10
0.0
 20
0.0
 30
0.0
  3
$PAPER_SPACE
  1

  0
ENDBLK
  5
10
 67
     1
  8
0
  0
ENDSEC
  0
SECTION
  2
ENTITIES
  0
TEXT
  5
A62
  8
0
 62
     3
 10
0.0
 20
0.0
 30
0.0
 40
10.0
  1
QLPD200NR
  7
STANDARD1
  0
LINE
  5
1033
  8
0
 10
234.42246389908709
 20
193.63007007388069
 30
0.0
 11
234.2224642388336
 21
193.83007159677931
 31
0.0
  0
LINE
  5
1034
  8
0
 10
184.62246281428261
 20
193.83007159677931
 30
0.0
 11
184.422463154029
 21
193.63007007388069
 31
0.0
  0
LINE
  5
1036
  8
0
 10
234.42246389908709
 20
175.03007093665801
 30
0.0
 11
234.42246389908709
 21
193.63007007388069
 31
0.0
  0
LINE
  5
1037
  8
0
 10
184.422463154029
 20
193.63007007388069
 30
0.0
 11
184.422463154029
 21
175.03007093665789
 31
0.0
  0
LINE
  5
1038
  8
0
 10
184.422463154029
 20
175.03007093665789
 30
0.0
 11
184.62246281428261
 21
174.83007081074311
 31
0.0
  0
LINE
  5
1039
  8
0
 10
234.2224642388336
 20
174.83007081074311
 30
0.0
 11
234.42246389908709
 21
175.03007093665789
 31
0.0
  0
LINE
  5
103A
  8
0
 10
234.42246389908709
 20
174.6300706848283
 30
0.0
 11
234.2224642388336
 21
174.83007081074311
 31
0.0
  0
LINE
  5
103B
  8
0
 10
184.62246281428261
 20
174.83007081074311
 30
0.0
 11
184.422463154029
 21
174.6300706848283
 31
0.0
  0
LINE
  5
103C
  8
0
 10
184.422463154029
 20
173.33007079770459
 30
0.0
 11
184.92246416730799
 21
172.83007071574821
 31
0.0
  0
LINE
  5
103D
  8
0
 10
233.92246288580819
 20
172.83007071574821
 30
0.0
 11
234.42246389908709
 21
173.33007079770459
 31
0.0
  0
LINE
  5
103E
  8
0
 10
234.42246389908709
 20
173.33007079770459
 30
0.0
 11
234.42246389908709
 21
174.6300706848283
 31
0.0
  0
LINE
  5
103F
  8
0
 10
184.422463154029
 20
174.6300706848283
 30
0.0
 11
184.422463154029
 21
173.33007079770459
 31
0.0
  0
LINE
  5
1040
  8
0
 10
232.92246272189541
 20
193.83007159677931
 30
0.0
 11
232.92246272189541
 21
195.08038847994499
 31
0.0
  0
LINE
  5
1041
  8
0
 10
185.92246433122079
 20
204.8300696745296
 30
0.0
 11
185.92246433122079
 21
193.83007159677931
 31
0.0
  0
ARC
  5
1042
  8
0
 10
187.92246352655809
 20
204.83007070469949
 30
0.0
 40
2.0
 50
90.0
 51
180.0
  0
ARC
  5
1043
  8
0
 10
230.92246352655809
 20
204.83007070469949
 30
0.0
 40
2.0
 50
21.859245863578671
 51
90.0
  0
LINE
  5
1044
  8
0
 10
226.42246445043011
 20
170.62983894476341
 30
0.0
 11
226.42246445043011
 21
172.83007071574821
 31
0.0
  0
LINE
  5
1045
  8
0
 10
192.4224626026861
 20
172.83007071574821
 30
0.0
 11
192.4224626026861
 21
170.62983894476341
 31
0.0
  0
LINE
  5
1046
  8
0
 10
192.4224626026861
 20
170.62983894476341
 30
0.0
 11
193.42246276659881
 21
169.6298388972659
 31
0.0
  0
LINE
  5
1047
  8
0
 10
225.42246428651731
 20
169.6298388972659
 30
0.0
 11
226.42246445043011
 21
170.62983894476341
 31
0.0
  0
LINE
  5
1048
  8
0
 10
218.4224631391279
 20
206.83007000235509
 30
0.0
 11
218.4224631391279
 21
209.12984071520759
 31
0.0
  0
LINE
  5
1049
  8
0
 10
200.42246391398831
 20
209.12984071520759
 30
0.0
 11
200.42246391398831
 21
206.83007000235509
 31
0.0
  0
LINE
  5
104A
  8
0
 10
218.4224631391279
 20
209.12984071520759
 30
0.0
 11
217.92246398849409
 21
209.62983800319631
 31
0.0
  0
LINE
  5
104B
  8
0
 10
200.92246306462209
 20
209.62983800319631
 30
0.0
 11
200.42246391398831
 21
209.12984071520759
 31
0.0
  0
LINE
  5
1065
  8
0
 10
184.62246281428261
 20
193.83007159677931
 30
0.0
 11
234.22246423883371
 21
193.83007159677919
 31
0.0
  0
LINE
  5
1066
  8
0
 10
234.42246389908721
 20
193.6300700738808
 30
0.0
 11
184.422463154029
 21
193.63007007388069
 31
0.0
  0
LINE
  5
1069
  8
0
 10
184.422463154029
 20
175.03007093665789
 30
0.0
 11
234.42246389908721
 21
175.03007093665789
 31
0.0
  0
LINE
  5
106B
  8
0
 10
234.2224642388336
 20
174.83007081074311
 30
0.0
 11
222.05633481366559
 21
174.83007081074311
 31
0.0
  0
LINE
  5
106C
  8
0
 10
234.42246389908701
 20
174.6300706848283
 30
0.0
 11
184.422463154029
 21
174.6300706848283
 31
0.0
  0
LINE
  5
106E
  8
0
 10
184.6224628142827
 20
174.83007081074311
 30
0.0
 11
234.2224642388336
 21
174.83007081074311
 31
0.0
  0
LINE
  5
1070
  8
0
 10
233.92246288580819
 20
172.83007071574821
 30
0.0
 11
184.92246416730799
 21
172.83007071574821
 31
0.0
  0
LINE
  5
1071
  8
0
 10
184.422463154029
 20
173.33007079770459
 30
0.0
 11
234.42246389908709
 21
173.33007079770459
 31
0.0
  0
LINE
  5
1072
  8
0
 10
232.76636001987379
 20
204.8300696745296
 30
0.0
 11
230.86121770455321
 21
204.8300696745296
 31
0.0
  0
POLYLINE
  5
1073
  8
0
 66
     1
 10
0.0
 20
0.0
 30
0.0
 70
   128
  0
VERTEX
  5
13B0
  8
0
 10
232.76636001987379
 20
204.8300696745296
 30
0.0
  0
VERTEX
  5
13B1
  8
0
 10
232.64015463514249
 20
204.12133319524719
 30
0.0
  0
VERTEX
  5
13B2
  8
0
 10
232.451226537656
 20
202.70419551280929
 30
0.0
  0
VERTEX
  5
13B3
  8
0
 10
232.3385253302566
 20
201.0071320667644
 30
0.0
  0
VERTEX
  5
13B4
  8
0
 10
232.3531899355165
 20
199.26671369222589
 30
0.0
  0
VERTEX
  5
13B5
  8
0
 10
232.4829082689993
 20
197.6661166384597
 30
0.0
  0
VERTEX
  5
13B6
  8
0
 10
232.6742466293089
 20
196.33534049836589
 30
0.0
  0
VERTEX
  5
13B7
  8
0
 10
232.8469827525131
 20
195.4289866819758
 30
0.0
  0
VERTEX
  5
13B8
  8
0
 10
232.92199706060811
 20
195.0821584298987
 30
0.0
  0
VERTEX
  5
13B9
  8
0
 10
232.9224627218953
 20
195.08038847994541
 30
0.0
  0
SEQEND
  5
13BA
  8
0
  0
POLYLINE
  5
1075
  8
0
 66
     1
 10
0.0
 20
0.0
 30
0.0
 70
   128
  0
VERTEX
  5
13BB
  8
0
 10
232.77866617272511
 20
205.57472615278451
 30
0.0
  0
VERTEX
  5
13BC
  8
0
 10
232.7784988783113
 20
205.56882081774671
 30
0.0
  0
VERTEX
  5
13BD
  8
0
 10
232.80486089510839
 20
205.16450016049339
 30
0.0
  0
VERTEX
  5
13BE
  8
0
 10
232.76636001987379
 20
204.8300696745296
 30
0.0
  0
SEQEND
  5
13BF
  8
0
  0
LINE
  5
1077
  8
0
 10
187.92078740695121
 20
206.8300700023552
 30
0.0
 11
230.92246425671499
 21
206.83007000235509
 31
0.0
  0
LINE
  5
107E
  8
0
 10
192.4224626026861
 20
170.62983894476341
 30
0.0
 11
226.42246445043011
 21
170.62983894476341
 31
0.0
  0
LINE
  5
1081
  8
0
 10
225.42246428651731
 20
169.62983889726581
 30
0.0
 11
193.42246276659861
 21
169.62983889726601
 31
0.0
  0
LINE
  5
1083
  8
0
 10
218.4224631391279
 20
209.12984071520759
 30
0.0
 11
200.42246391398831
 21
209.12984071520759
 31
0.0
  0
LINE
  5
1084
  8
0
 10
200.92246306462209
 20
209.6298380031962
 30
0.0
 11
217.92246398849409
 21
209.62983800319631
 31
0.0
  0
LINE
  5
1086
  8
0
 10
228.1584288050569
 20
204.8300696745296
 30
0.0
 11
185.92246433122079
 21
204.8300696745296
 31
0.0
  0
LINE
  5
1088
  8
0
 10
364.42246710156621
 20
175.03007093665789
 30
0.0
 11
364.42246710156621
 21
193.63007007388069
 31
0.0
  0
LINE
  5
1089
  8
0
 10
314.4224663565081
 20
193.63007007388069
 30
0.0
 11
314.4224663565081
 21
175.03007093665789
 31
0.0
  0
LINE
  5
108A
  8
0
 10
364.42246710156621
 20
193.63007007388069
 30
0.0
 11
364.22246744131269
 21
193.83007159677931
 31
0.0
  0
LINE
  5
108B
  8
0
 10
314.62246601676168
 20
193.83007159677931
 30
0.0
 11
314.4224663565081
 21
193.63007007388069
 31
0.0
  0
LINE
  5
108C
  8
0
 10
314.4224663565081
 20
175.03007093665789
 30
0.0
 11
314.62246601676168
 21
174.83007081074311
 31
0.0
  0
LINE
  5
108D
  8
0
 10
364.22246744131269
 20
174.83007081074311
 30
0.0
 11
364.42246710156621
 21
175.03007093665789
 31
0.0
  0
LINE
  5
108E
  8
0
 10
364.42246710156621
 20
173.33007079770459
 30
0.0
 11
364.42246710156621
 21
174.6300706848283
 31
0.0
  0
LINE
  5
108F
  8
0
 10
314.4224663565081
 20
174.6300706848283
 30
0.0
 11
314.4224663565081
 21
173.33007079770459
 31
0.0
  0
LINE
  5
1090
  8
0
 10
314.4224663565081
 20
173.33007079770459
 30
0.0
 11
314.92246736978711
 21
172.83007071574821
 31
0.0
  0
LINE
  5
1091
  8
0
 10
363.92246608828719
 20
172.83007071574821
 30
0.0
 11
364.42246710156621
 21
173.33007079770459
 31
0.0
  0
LINE
  5
1092
  8
0
 10
364.42246710156621
 20
174.6300706848283
 30
0.0
 11
364.22246744131269
 21
174.83007081074311
 31
0.0
  0
LINE
  5
1093
  8
0
 10
314.62246601676168
 20
174.83007081074311
 30
0.0
 11
314.4224663565081
 21
174.6300706848283
 31
0.0
  0
ARC
  5
1094
  8
0
 10
317.92246672903718
 20
204.83007070469949
 30
0.0
 40
2.0
 50
90.0
 51
180.0
  0
ARC
  5
1095
  8
0
 10
360.92246672903718
 20
204.83007070469949
 30
0.0
 40
2.0
 50
0.0
 51
90.0
  0
LINE
  5
1096
  8
0
 10
362.92246592437448
 20
193.83007159677931
 30
0.0
 11
362.92246592437448
 21
204.8300696745296
 31
0.0
  0
LINE
  5
1097
  8
0
 10
315.92246753369989
 20
204.8300696745296
 30
0.0
 11
315.92246753369989
 21
193.83007159677931
 31
0.0
  0
LINE
  5
1098
  8
0
 10
322.42246580516519
 20
170.62983894476341
 30
0.0
 11
323.4224659690779
 21
169.6298388972659
 31
0.0
  0
LINE
  5
1099
  8
0
 10
355.4224674889964
 20
169.6298388972659
 30
0.0
 11
356.42246765290918
 21
170.62983894476341
 31
0.0
  0
LINE
  5
109A
  8
0
 10
356.42246765290918
 20
170.62983894476341
 30
0.0
 11
356.42246765290918
 21
172.83007071574821
 31
0.0
  0
LINE
  5
109B
  8
0
 10
322.42246580516519
 20
172.83007071574821
 30
0.0
 11
322.42246580516519
 21
170.62983894476341
 31
0.0
  0
LINE
  5
10A2
  8
0
 10
337.92276217808552
 20
187.33007146266891
 30
0.0
 11
337.92276217808552
 21
185.83007028547709
 31
0.0
  0
LINE
  5
10A3
  8
0
 10
345.85261999835791
 20
185.83007028547709
 30
0.0
 11
345.85261999835791
 21
182.8300707250614
 31
0.0
  0
LINE
  5
10A4
  8
0
 10
345.85261999835791
 20
182.8300707250614
 30
0.0
 11
337.92276217808552
 21
182.8300707250614
 31
0.0
  0
LINE
  5
10A5
  8
0
 10
337.92276217808552
 20
182.8300707250614
 30
0.0
 11
337.92276217808552
 21
181.33007047919219
 31
0.0
  0
LINE
  5
10A6
  8
0
 10
345.85261999835791
 20
185.83007028547709
 30
0.0
 11
337.92276217808552
 21
185.83007028547709
 31
0.0
  0
LINE
  5
10A7
  8
0
 10
332.24386678283628
 20
188.0800711199422
 30
0.0
 11
332.24386678283628
 21
180.58007082191889
 31
0.0
  0
LINE
  5
10A8
  8
0
 10
346.60106667523797
 20
188.0800711199422
 30
0.0
 11
332.24386678283628
 21
188.0800711199422
 31
0.0
  0
LINE
  5
10AA
  8
0
 10
346.60106667523797
 20
188.0800711199422
 30
0.0
 11
346.60106667523797
 21
180.58007082191889
 31
0.0
  0
LINE
  5
10AB
  8
0
 10
346.60106667523797
 20
180.58007082191889
 30
0.0
 11
332.24386678283628
 21
180.58007082191889
 31
0.0
  0
LINE
  5
10B1
  8
0
 10
364.42246710156621
 20
193.63007007388069
 30
0.0
 11
314.4224663565081
 21
193.63007007388069
 31
0.0
  0
LINE
  5
10B3
  8
0
 10
314.4224663565081
 20
175.03007093665781
 30
0.0
 11
364.42246710156621
 21
175.03007093665789
 31
0.0
  0
LINE
  5
10B6
  8
0
 10
314.62246601676179
 20
193.83007159677939
 30
0.0
 11
364.22246744131269
 21
193.83007159677931
 31
0.0
  0
LINE
  5
10BA
  8
0
 10
314.4224663565081
 20
173.33007079770459
 30
0.0
 11
364.42246710156621
 21
173.33007079770459
 31
0.0
  0
LINE
  5
10BB
  8
0
 10
364.42246710156621
 20
174.6300706848283
 30
0.0
 11
314.4224663565081
 21
174.6300706848283
 31
0.0
  0
LINE
  5
10BC
  8
0
 10
363.92246608828719
 20
172.83007071574821
 30
0.0
 11
314.92246736978711
 21
172.83007071574821
 31
0.0
  0
LINE
  5
10BD
  8
0
 10
314.62246601676168
 20
174.83007081074311
 30
0.0
 11
364.22246744131269
 21
174.83007081074311
 31
0.0
  0
LINE
  5
10C1
  8
0
 10
317.92079060934901
 20
206.83007000235509
 30
0.0
 11
360.92246745919408
 21
206.83007000235509
 31
0.0
  0
LINE
  5
10CE
  8
0
 10
355.4224674889964
 20
169.62983889726581
 30
0.0
 11
323.42246596907819
 21
169.62983889726601
 31
0.0
  0
LINE
  5
10D0
  8
0
 10
322.42246580516519
 20
170.62983894476341
 30
0.0
 11
356.42246765290918
 21
170.62983894476341
 31
0.0
  0
LINE
  5
10D5
  8
0
 10
362.92246592437442
 20
204.83006967452951
 30
0.0
 11
353.36137539619028
 21
204.83006967452951
 31
0.0
  0
LINE
  5
10DA
  8
0
 10
54.422463154028939
 20
175.03007093665789
 30
0.0
 11
54.622462814282471
 21
174.83007081074311
 31
0.0
  0
LINE
  5
10DB
  8
0
 10
104.2224642388335
 20
174.83007081074311
 30
0.0
 11
104.42246389908701
 21
175.03007093665789
 31
0.0
  0
LINE
  5
10DC
  8
0
 10
104.42246389908701
 20
193.63007007388069
 30
0.0
 11
104.2224642388335
 21
193.83007159677931
 31
0.0
  0
LINE
  5
10DD
  8
0
 10
54.622462814282471
 20
193.83007159677931
 30
0.0
 11
54.422463154028939
 21
193.63007007388069
 31
0.0
  0
LINE
  5
10DE
  8
0
 10
104.42246389908701
 20
175.03007093665789
 30
0.0
 11
104.42246389908701
 21
193.63007007388069
 31
0.0
  0
LINE
  5
10DF
  8
0
 10
54.422463154028939
 20
193.63007007388069
 30
0.0
 11
54.422463154028939
 21
175.03007093665789
 31
0.0
  0
LINE
  5
10E0
  8
0
 10
104.42246389908701
 20
173.33007079770459
 30
0.0
 11
104.42246389908701
 21
174.6300706848283
 31
0.0
  0
LINE
  5
10E1
  8
0
 10
54.422463154028939
 20
174.6300706848283
 30
0.0
 11
54.422463154028939
 21
173.33007079770459
 31
0.0
  0
LINE
  5
10E2
  8
0
 10
54.422463154028939
 20
173.33007079770459
 30
0.0
 11
54.922464167307901
 21
172.83007071574821
 31
0.0
  0
LINE
  5
10E3
  8
0
 10
103.922462885808
 20
172.83007071574821
 30
0.0
 11
104.42246389908701
 21
173.33007079770459
 31
0.0
  0
LINE
  5
10E4
  8
0
 10
104.42246389908701
 20
174.6300706848283
 30
0.0
 11
104.2224642388335
 21
174.83007081074311
 31
0.0
  0
LINE
  5
10E5
  8
0
 10
54.622462814282471
 20
174.83007081074311
 30
0.0
 11
54.422463154028939
 21
174.6300706848283
 31
0.0
  0
LINE
  5
10E6
  8
0
 10
102.9224627218952
 20
193.83007159677931
 30
0.0
 11
102.9224627218952
 21
204.8300696745296
 31
0.0
  0
LINE
  5
10E7
  8
0
 10
55.922464331220681
 20
204.8300696745296
 30
0.0
 11
55.922464331220681
 21
193.83007159677931
 31
0.0
  0
ARC
  5
10E8
  8
0
 10
57.922463526557983
 20
204.83007070469949
 30
0.0
 40
2.0
 50
90.0
 51
180.0
  0
ARC
  5
10E9
  8
0
 10
100.922463526558
 20
204.83007070469949
 30
0.0
 40
2.0
 50
0.0
 51
90.0
  0
LINE
  5
10EA
  8
0
 10
96.422464450429985
 20
170.62983894476341
 30
0.0
 11
96.422464450429985
 21
172.83007071574821
 31
0.0
  0
LINE
  5
10EB
  8
0
 10
62.422462602685982
 20
172.83007071574821
 30
0.0
 11
62.422462602685982
 21
170.62983894476341
 31
0.0
  0
LINE
  5
10EC
  8
0
 10
62.422462602685982
 20
170.62983894476341
 30
0.0
 11
63.422462766598748
 21
169.6298388972659
 31
0.0
  0
LINE
  5
10ED
  8
0
 10
95.422464286517197
 20
169.6298388972659
 30
0.0
 11
96.422464450429985
 21
170.62983894476341
 31
0.0
  0
LINE
  5
10EE
  8
0
 10
88.422463139127785
 20
206.83007000235509
 30
0.0
 11
88.422463139127785
 21
209.12984071520759
 31
0.0
  0
LINE
  5
10EF
  8
0
 10
70.422463913988153
 20
209.12984071520759
 30
0.0
 11
70.422463913988153
 21
206.83007000235509
 31
0.0
  0
LINE
  5
10F0
  8
0
 10
88.422463139127785
 20
209.12984071520759
 30
0.0
 11
87.922463988493973
 21
209.62983800319631
 31
0.0
  0
LINE
  5
10F1
  8
0
 10
70.922463064621979
 20
209.62983800319631
 30
0.0
 11
70.422463913988153
 21
209.12984071520759
 31
0.0
  0
LINE
  5
10F2
  8
0
 10
54.422463154028939
 20
175.03007093665789
 30
0.0
 11
104.42246389908701
 21
175.03007093665789
 31
0.0
  0
LINE
  5
10F4
  8
0
 10
54.622462814282471
 20
193.83007159677931
 30
0.0
 11
104.2224642388335
 21
193.83007159677931
 31
0.0
  0
LINE
  5
10F5
  8
0
 10
104.42246389908701
 20
193.63007007388069
 30
0.0
 11
54.422463154028939
 21
193.63007007388069
 31
0.0
  0
LINE
  5
10F6
  8
0
 10
54.422463154028939
 20
173.33007079770459
 30
0.0
 11
104.42246389908701
 21
173.33007079770459
 31
0.0
  0
LINE
  5
10F7
  8
0
 10
104.42246389908701
 20
174.6300706848283
 30
0.0
 11
54.422463154028939
 21
174.6300706848283
 31
0.0
  0
LINE
  5
10F8
  8
0
 10
103.922462885808
 20
172.83007071574821
 30
0.0
 11
54.922464167307901
 21
172.83007071574821
 31
0.0
  0
LINE
  5
10F9
  8
0
 10
54.622462814282471
 20
174.83007081074311
 30
0.0
 11
104.2224642388335
 21
174.83007081074311
 31
0.0
  0
LINE
  5
10FA
  8
0
 10
57.922462796401071
 20
206.83007000235509
 30
0.0
 11
100.9224642567148
 21
206.83007000235509
 31
0.0
  0
LINE
  5
10FB
  8
0
 10
62.422462602685982
 20
170.62983894476341
 30
0.0
 11
96.422464450429985
 21
170.62983894476341
 31
0.0
  0
LINE
  5
10FC
  8
0
 10
95.422464286517311
 20
169.6298388972659
 30
0.0
 11
63.422462766598748
 21
169.62983889726581
 31
0.0
  0
LINE
  5
10FF
  8
0
 10
88.422463139127785
 20
209.12984071520759
 30
0.0
 11
70.422463913988153
 21
209.12984071520759
 31
0.0
  0
LINE
  5
1100
  8
0
 10
70.922463064621979
 20
209.62983800319631
 30
0.0
 11
87.922463988493973
 21
209.62983800319631
 31
0.0
  0
LINE
  5
1101
  8
0
 10
102.9224627218952
 20
204.8300696745296
 30
0.0
 11
55.922464331220681
 21
204.8300696745296
 31
0.0
  0
ARC
  5
1102
  8
0
 10
216.52311497500841
 20
294.62983800319779
 30
0.0
 40
3.995000000000005
 50
152.62146067563691
 51
207.37853932436309
  0
ARC
  5
1124
  8
0
 10
209.42246352655809
 20
294.62983800319779
 30
0.0
 40
25.000000000000149
 50
300.62588818492742
 51
348.46304096718188
  0
CIRCLE
  5
1133
  8
0
 10
209.42246352655809
 20
294.62983800319802
 30
0.0
 40
9.0
  0
CIRCLE
  5
1135
  8
0
 10
209.42246352655809
 20
294.62983800319779
 30
0.0
 40
6.25
  0
CIRCLE
  5
1137
  8
0
 10
209.42246352655809
 20
294.62983800319802
 30
0.0
 40
4.0
  0
ARC
  5
1138
  8
0
 10
216.52311497500841
 20
84.629832317193291
 30
0.0
 40
3.9950000000000112
 50
152.62146067563691
 51
207.37853932436309
  0
CIRCLE
  5
1160
  8
0
 10
209.42246352655809
 20
84.629832317193333
 30
0.0
 40
25.0
  0
CIRCLE
  5
1166
  8
0
 10
209.42246352655809
 20
84.629832317193291
 30
0.0
 40
17.000000000000011
  0
CIRCLE
  5
116E
  8
0
 10
218.26129829138989
 20
75.790997552361546
 30
0.0
 40
2.5
  0
CIRCLE
  5
116F
  8
0
 10
200.5836287617262
 20
75.790997552361375
 30
0.0
 40
2.5000000000000142
  0
CIRCLE
  5
1170
  8
0
 10
209.42246352655809
 20
84.629832317193291
 30
0.0
 40
6.0
  0
CIRCLE
  5
1173
  8
0
 10
200.5836287617262
 20
93.468667082025107
 30
0.0
 40
2.5
  0
CIRCLE
  5
1174
  8
0
 10
218.26129829138989
 20
93.468667082025149
 30
0.0
 40
2.5
  0
CIRCLE
  5
1175
  8
0
 10
209.42246352655809
 20
84.629832317193234
 30
0.0
 40
4.2500000000000142
  0
CIRCLE
  5
1176
  8
0
 10
209.42246352655809
 20
84.629832317193177
 30
0.0
 40
4.0
  0
LINE
  5
1188
  8
1
 10
79.42246352655809
 20
214.62983800319631
 30
0.0
 11
79.42246352655809
 21
164.63007070469951
 31
0.0
  0
CIRCLE
  5
118F
  8
3
 10
200.5836287617262
 20
93.468667082025107
 30
0.0
 40
3.0
  0
CIRCLE
  5
1190
  8
3
 10
200.5836287617262
 20
75.790997552361375
 30
0.0
 40
3.0
  0
CIRCLE
  5
1191
  8
3
 10
218.26129829138989
 20
75.790997552361546
 30
0.0
 40
3.0
  0
CIRCLE
  5
1192
  8
3
 10
218.26129829138989
 20
93.468667082025149
 30
0.0
 40
3.0
  0
CIRCLE
  5
1193
  8
0
 10
209.42246352655809
 20
84.629832317193177
 30
0.0
 40
16.0
  0
ARC
  5
1194
  8
0
 10
205.8779782220669
 20
78.490603683133259
 30
0.0
 40
3.9950000000000001
 50
32.439727165599088
 51
87.560272834402824
  0
ARC
  5
1195
  8
0
 10
205.8779782220669
 20
90.769060951253138
 30
0.0
 40
3.9949999999999992
 50
272.43972716559722
 51
327.56027283440091
  0
LINE
  5
1196
  8
1
 10
196.6945414652003
 20
71.901910255835162
 30
0.0
 11
204.4727160582523
 21
79.680084848887361
 31
0.0
  0
LINE
  5
1197
  8
1
 10
222.15038558791611
 20
71.901910255835162
 30
0.0
 11
214.3722109948641
 21
79.680084848887361
 31
0.0
  0
LINE
  5
1198
  8
1
 10
222.15038558791611
 20
97.357754378551135
 30
0.0
 11
214.3722109948641
 21
89.579579785498879
 31
0.0
  0
LINE
  5
1199
  8
1
 10
196.6945414652003
 20
97.357754378551135
 30
0.0
 11
204.4727160582523
 21
89.579579785498879
 31
0.0
  0
LINE
  5
119A
  8
1
 10
209.42246352655809
 20
54.629829114714937
 30
0.0
 11
209.42246352655809
 21
114.6298355196713
 31
0.0
  0
LINE
  5
119B
  8
1
 10
179.42246032407991
 20
84.629832317193106
 30
0.0
 11
239.42246352655809
 21
84.629832317193106
 31
0.0
  0
CIRCLE
  5
119C
  8
1
 10
209.42246352655809
 20
84.629832317193106
 30
0.0
 40
12.5
  0
LINE
  5
119D
  8
1
 10
179.42246352655809
 20
294.62983800319779
 30
0.0
 11
239.42246352655809
 21
294.62983800319802
 31
0.0
  0
LINE
  5
119E
  8
1
 10
209.42246352655809
 20
264.6298380031979
 30
0.0
 11
209.42246352655809
 21
324.62983800319807
 31
0.0
  0
ARC
  5
119F
  8
0
 10
205.8779782220669
 20
300.76906663725799
 30
0.0
 40
3.9949999999999992
 50
272.43972716559722
 51
327.56027283440091
  0
ARC
  5
11A0
  8
0
 10
205.8779782220669
 20
288.49060936913793
 30
0.0
 40
3.9949999999999868
 50
32.439727165599088
 51
87.560272834402824
  0
CIRCLE
  5
11A2
  8
0
 10
209.42246352655809
 20
294.62983800319802
 30
0.0
 40
23.5
  0
LINE
  5
11A3
  8
1
 10
221.63724567432189
 20
200.3298373781054
 30
0.0
 11
237.3442321530523
 21
200.3298373781054
 31
0.0
  0
LINE
  5
11A4
  8
1
 10
209.42246352655809
 20
214.6298380031979
 30
0.0
 11
209.42246352655809
 21
164.6298355196713
 31
0.0
  0
LINE
  5
11A5
  8
1
 10
339.42246352655809
 20
214.62983800319631
 30
0.0
 11
339.42246352655809
 21
164.63007070469931
 31
0.0
  0
LINE
  5
11A6
  8
1
 10
320.92162352394769
 20
200.33007070469921
 30
0.0
 11
357.9233099341248
 21
200.33007070469949
 31
0.0
  0
POLYLINE
  5
11B0
  8
0
 10
227.72921663270145
 20
197.95250278407127
 30
0.0
 66
     1
 70
     8
  0
VERTEX
  8
0
  5
13C0
 10
227.729
 20
197.953
 30
0.000000
  70
    32
  0
VERTEX
  8
0
  5
13C1
 10
227.763
 20
197.936
 30
0.000000
  70
    32
  0
VERTEX
  8
0
  5
13C2
 10
227.798
 20
197.921
 30
0.000000
  70
    32
  0
VERTEX
  8
0
  5
13C3
 10
227.832
 20
197.908
 30
0.000000
  70
    32
  0
VERTEX
  8
0
  5
13C4
 10
227.867
 20
197.897
 30
0.000000
  70
    32
  0
VERTEX
  8
0
  5
13C5
 10
227.902
 20
197.888
 30
0.000000
  70
    32
  0
VERTEX
  8
0
  5
13C6
 10
227.937
 20
197.881
 30
0.000000
  70
    32
  0
VERTEX
  8
0
  5
13C7
 10
227.972
 20
197.876
 30
0.000000
  70
    32
  0
VERTEX
  8
0
  5
13C8
 10
228.007
 20
197.873
 30
0.000000
  70
    32
  0
VERTEX
  8
0
  5
13C9
 10
228.042
 20
197.872
 30
0.000000
  70
    32
  0
VERTEX
  8
0
  5
13CA
 10
228.077
 20
197.873
 30
0.000000
  70
    32
  0
VERTEX
  8
0
  5
13CB
 10
228.112
 20
197.876
 30
0.000000
  70
    32
  0
VERTEX
  8
0
  5
13CC
 10
228.147
 20
197.881
 30
0.000000
  70
    32
  0
VERTEX
  8
0
  5
13CD
 10
228.182
 20
197.888
 30
0.000000
  70
    32
  0
VERTEX
  8
0
  5
13CE
 10
228.217
 20
197.897
 30
0.000000
  70
    32
  0
VERTEX
  8
0
  5
13CF
 10
228.251
 20
197.907
 30
0.000000
  70
    32
  0
VERTEX
  8
0
  5
13D0
 10
228.286
 20
197.920
 30
0.000000
  70
    32
  0
VERTEX
  8
0
  5
13D1
 10
228.320
 20
197.935
 30
0.000000
  70
    32
  0
VERTEX
  8
0
  5
13D2
 10
228.354
 20
197.952
 30
0.000000
  70
    32
  0
VERTEX
  8
0
  5
13D3
 10
228.388
 20
197.971
 30
0.000000
  70
    32
  0
VERTEX
  8
0
  5
13D4
 10
228.422
 20
197.992
 30
0.000000
  70
    32
  0
VERTEX
  8
0
  5
13D5
 10
228.455
 20
198.014
 30
0.000000
  70
    32
  0
VERTEX
  8
0
  5
13D6
 10
228.488
 20
198.039
 30
0.000000
  70
    32
  0
VERTEX
  8
0
  5
13D7
 10
228.520
 20
198.065
 30
0.000000
  70
    32
  0
VERTEX
  8
0
  5
13D8
 10
228.552
 20
198.094
 30
0.000000
  70
    32
  0
VERTEX
  8
0
  5
13D9
 10
228.584
 20
198.124
 30
0.000000
  70
    32
  0
VERTEX
  8
0
  5
13DA
 10
228.616
 20
198.156
 30
0.000000
  70
    32
  0
VERTEX
  8
0
  5
13DB
 10
228.646
 20
198.189
 30
0.000000
  70
    32
  0
VERTEX
  8
0
  5
13DC
 10
228.677
 20
198.225
 30
0.000000
  70
    32
  0
VERTEX
  8
0
  5
13DD
 10
228.706
 20
198.262
 30
0.000000
  70
    32
  0
VERTEX
  8
0
  5
13DE
 10
228.736
 20
198.300
 30
0.000000
  70
    32
  0
VERTEX
  8
0
  5
13DF
 10
228.764
 20
198.341
 30
0.000000
  70
    32
  0
VERTEX
  8
0
  5
13E0
 10
228.793
 20
198.383
 30
0.000000
  70
    32
  0
VERTEX
  8
0
  5
13E1
 10
228.820
 20
198.427
 30
0.000000
  70
    32
  0
VERTEX
  8
0
  5
13E2
 10
228.847
 20
198.472
 30
0.000000
  70
    32
  0
VERTEX
  8
0
  5
13E3
 10
228.873
 20
198.519
 30
0.000000
  70
    32
  0
VERTEX
  8
0
  5
13E4
 10
228.899
 20
198.567
 30
0.000000
  70
    32
  0
VERTEX
  8
0
  5
13E5
 10
228.923
 20
198.616
 30
0.000000
  70
    32
  0
VERTEX
  8
0
  5
13E6
 10
228.948
 20
198.668
 30
0.000000
  70
    32
  0
VERTEX
  8
0
  5
13E7
 10
228.971
 20
198.720
 30
0.000000
  70
    32
  0
VERTEX
  8
0
  5
13E8
 10
228.994
 20
198.774
 30
0.000000
  70
    32
  0
VERTEX
  8
0
  5
13E9
 10
229.015
 20
198.829
 30
0.000000
  70
    32
  0
VERTEX
  8
0
  5
13EA
 10
229.036
 20
198.885
 30
0.000000
  70
    32
  0
VERTEX
  8
0
  5
13EB
 10
229.057
 20
198.942
 30
0.000000
  70
    32
  0
VERTEX
  8
0
  5
13EC
 10
229.076
 20
199.001
 30
0.000000
  70
    32
  0
VERTEX
  8
0
  5
13ED
 10
229.095
 20
199.060
 30
0.000000
  70
    32
  0
VERTEX
  8
0
  5
13EE
 10
229.112
 20
199.121
 30
0.000000
  70
    32
  0
VERTEX
  8
0
  5
13EF
 10
229.129
 20
199.183
 30
0.000000
  70
    32
  0
VERTEX
  8
0
  5
13F0
 10
229.145
 20
199.245
 30
0.000000
  70
    32
  0
VERTEX
  8
0
  5
13F1
 10
229.160
 20
199.309
 30
0.000000
  70
    32
  0
VERTEX
  8
0
  5
13F2
 10
229.174
 20
199.373
 30
0.000000
  70
    32
  0
VERTEX
  8
0
  5
13F3
 10
229.187
 20
199.438
 30
0.000000
  70
    32
  0
VERTEX
  8
0
  5
13F4
 10
229.200
 20
199.504
 30
0.000000
  70
    32
  0
VERTEX
  8
0
  5
13F5
 10
229.211
 20
199.570
 30
0.000000
  70
    32
  0
VERTEX
  8
0
  5
13F6
 10
229.221
 20
199.637
 30
0.000000
  70
    32
  0
VERTEX
  8
0
  5
13F7
 10
229.231
 20
199.705
 30
0.000000
  70
    32
  0
VERTEX
  8
0
  5
13F8
 10
229.239
 20
199.773
 30
0.000000
  70
    32
  0
VERTEX
  8
0
  5
13F9
 10
229.247
 20
199.842
 30
0.000000
  70
    32
  0
VERTEX
  8
0
  5
13FA
 10
229.253
 20
199.911
 30
0.000000
  70
    32
  0
VERTEX
  8
0
  5
13FB
 10
229.259
 20
199.980
 30
0.000000
  70
    32
  0
VERTEX
  8
0
  5
13FC
 10
229.263
 20
200.050
 30
0.000000
  70
    32
  0
VERTEX
  8
0
  5
13FD
 10
229.267
 20
200.120
 30
0.000000
  70
    32
  0
VERTEX
  8
0
  5
13FE
 10
229.269
 20
200.190
 30
0.000000
  70
    32
  0
VERTEX
  8
0
  5
13FF
 10
229.271
 20
200.260
 30
0.000000
  70
    32
  0
VERTEX
  8
0
  5
1400
 10
229.271
 20
200.330
 30
0.000000
  70
    32
  0
VERTEX
  8
0
  5
1401
 10
229.271
 20
200.400
 30
0.000000
  70
    32
  0
VERTEX
  8
0
  5
1402
 10
229.269
 20
200.470
 30
0.000000
  70
    32
  0
VERTEX
  8
0
  5
1403
 10
229.267
 20
200.540
 30
0.000000
  70
    32
  0
VERTEX
  8
0
  5
1404
 10
229.263
 20
200.610
 30
0.000000
  70
    32
  0
VERTEX
  8
0
  5
1405
 10
229.259
 20
200.680
 30
0.000000
  70
    32
  0
VERTEX
  8
0
  5
1406
 10
229.253
 20
200.749
 30
0.000000
  70
    32
  0
VERTEX
  8
0
  5
1407
 10
229.247
 20
200.818
 30
0.000000
  70
    32
  0
VERTEX
  8
0
  5
1408
 10
229.239
 20
200.887
 30
0.000000
  70
    32
  0
VERTEX
  8
0
  5
1409
 10
229.231
 20
200.955
 30
0.000000
  70
    32
  0
VERTEX
  8
0
  5
140A
 10
229.221
 20
201.023
 30
0.000000
  70
    32
  0
VERTEX
  8
0
  5
140B
 10
229.211
 20
201.090
 30
0.000000
  70
    32
  0
VERTEX
  8
0
  5
140C
 10
229.200
 20
201.156
 30
0.000000
  70
    32
  0
VERTEX
  8
0
  5
140D
 10
229.187
 20
201.222
 30
0.000000
  70
    32
  0
VERTEX
  8
0
  5
140E
 10
229.174
 20
201.287
 30
0.000000
  70
    32
  0
VERTEX
  8
0
  5
140F
 10
229.160
 20
201.352
 30
0.000000
  70
    32
  0
VERTEX
  8
0
  5
1410
 10
229.145
 20
201.415
 30
0.000000
  70
    32
  0
VERTEX
  8
0
  5
1411
 10
229.129
 20
201.478
 30
0.000000
  70
    32
  0
VERTEX
  8
0
  5
1412
 10
229.112
 20
201.539
 30
0.000000
  70
    32
  0
VERTEX
  8
0
  5
1413
 10
229.095
 20
201.600
 30
0.000000
  70
    32
  0
VERTEX
  8
0
  5
1414
 10
229.076
 20
201.659
 30
0.000000
  70
    32
  0
VERTEX
  8
0
  5
1415
 10
229.057
 20
201.718
 30
0.000000
  70
    32
  0
VERTEX
  8
0
  5
1416
 10
229.036
 20
201.775
 30
0.000000
  70
    32
  0
VERTEX
  8
0
  5
1417
 10
229.015
 20
201.832
 30
0.000000
  70
    32
  0
VERTEX
  8
0
  5
1418
 10
228.994
 20
201.887
 30
0.000000
  70
    32
  0
VERTEX
  8
0
  5
1419
 10
228.971
 20
201.940
 30
0.000000
  70
    32
  0
VERTEX
  8
0
  5
141A
 10
228.948
 20
201.993
 30
0.000000
  70
    32
  0
VERTEX
  8
0
  5
141B
 10
228.923
 20
202.044
 30
0.000000
  70
    32
  0
VERTEX
  8
0
  5
141C
 10
228.899
 20
202.093
 30
0.000000
  70
    32
  0
VERTEX
  8
0
  5
141D
 10
228.873
 20
202.142
 30
0.000000
  70
    32
  0
VERTEX
  8
0
  5
141E
 10
228.847
 20
202.188
 30
0.000000
  70
    32
  0
VERTEX
  8
0
  5
141F
 10
228.820
 20
202.233
 30
0.000000
  70
    32
  0
VERTEX
  8
0
  5
1420
 10
228.793
 20
202.277
 30
0.000000
  70
    32
  0
VERTEX
  8
0
  5
1421
 10
228.764
 20
202.319
 30
0.000000
  70
    32
  0
VERTEX
  8
0
  5
1422
 10
228.736
 20
202.360
 30
0.000000
  70
    32
  0
VERTEX
  8
0
  5
1423
 10
228.706
 20
202.398
 30
0.000000
  70
    32
  0
VERTEX
  8
0
  5
1424
 10
228.677
 20
202.436
 30
0.000000
  70
    32
  0
VERTEX
  8
0
  5
1425
 10
228.646
 20
202.471
 30
0.000000
  70
    32
  0
VERTEX
  8
0
  5
1426
 10
228.616
 20
202.505
 30
0.000000
  70
    32
  0
VERTEX
  8
0
  5
1427
 10
228.584
 20
202.536
 30
0.000000
  70
    32
  0
VERTEX
  8
0
  5
1428
 10
228.552
 20
202.567
 30
0.000000
  70
    32
  0
VERTEX
  8
0
  5
1429
 10
228.520
 20
202.595
 30
0.000000
  70
    32
  0
VERTEX
  8
0
  5
142A
 10
228.488
 20
202.621
 30
0.000000
  70
    32
  0
VERTEX
  8
0
  5
142B
 10
228.455
 20
202.646
 30
0.000000
  70
    32
  0
VERTEX
  8
0
  5
142C
 10
228.422
 20
202.668
 30
0.000000
  70
    32
  0
VERTEX
  8
0
  5
142D
 10
228.388
 20
202.689
 30
0.000000
  70
    32
  0
VERTEX
  8
0
  5
142E
 10
228.354
 20
202.708
 30
0.000000
  70
    32
  0
VERTEX
  8
0
  5
142F
 10
228.320
 20
202.725
 30
0.000000
  70
    32
  0
VERTEX
  8
0
  5
1430
 10
228.286
 20
202.740
 30
0.000000
  70
    32
  0
VERTEX
  8
0
  5
1431
 10
228.251
 20
202.753
 30
0.000000
  70
    32
  0
VERTEX
  8
0
  5
1432
 10
228.217
 20
202.764
 30
0.000000
  70
    32
  0
VERTEX
  8
0
  5
1433
 10
228.182
 20
202.773
 30
0.000000
  70
    32
  0
VERTEX
  8
0
  5
1434
 10
228.147
 20
202.780
 30
0.000000
  70
    32
  0
VERTEX
  8
0
  5
1435
 10
228.112
 20
202.785
 30
0.000000
  70
    32
  0
VERTEX
  8
0
  5
1436
 10
228.077
 20
202.788
 30
0.000000
  70
    32
  0
VERTEX
  8
0
  5
1437
 10
228.042
 20
202.789
 30
0.000000
  70
    32
  0
VERTEX
  8
0
  5
1438
 10
228.007
 20
202.788
 30
0.000000
  70
    32
  0
VERTEX
  8
0
  5
1439
 10
227.972
 20
202.785
 30
0.000000
  70
    32
  0
VERTEX
  8
0
  5
143A
 10
227.937
 20
202.780
 30
0.000000
  70
    32
  0
VERTEX
  8
0
  5
143B
 10
227.902
 20
202.772
 30
0.000000
  70
    32
  0
VERTEX
  8
0
  5
143C
 10
227.867
 20
202.763
 30
0.000000
  70
    32
  0
VERTEX
  8
0
  5
143D
 10
227.832
 20
202.752
 30
0.000000
  70
    32
  0
VERTEX
  8
0
  5
143E
 10
227.798
 20
202.739
 30
0.000000
  70
    32
  0
VERTEX
  8
0
  5
143F
 10
227.763
 20
202.725
 30
0.000000
  70
    32
  0
VERTEX
  8
0
  5
1440
 10
227.729
 20
202.708
 30
0.000000
  70
    32
  0
SEQEND
  8
0
  5
1441
  0
POLYLINE
  5
11B1
  8
3
 10
228.90805152144296
 20
203.33006942971619
 30
0.0
 66
     1
 70
     8
  0
VERTEX
  8
3
  5
1442
 10
228.908
 20
203.330
 30
0.000000
  70
    32
  0
VERTEX
  8
3
  5
1443
 10
228.861
 20
203.329
 30
0.000000
  70
    32
  0
VERTEX
  8
3
  5
1444
 10
228.813
 20
203.326
 30
0.000000
  70
    32
  0
VERTEX
  8
3
  5
1445
 10
228.766
 20
203.322
 30
0.000000
  70
    32
  0
VERTEX
  8
3
  5
1446
 10
228.719
 20
203.316
 30
0.000000
  70
    32
  0
VERTEX
  8
3
  5
1447
 10
228.671
 20
203.308
 30
0.000000
  70
    32
  0
VERTEX
  8
3
  5
1448
 10
228.624
 20
203.298
 30
0.000000
  70
    32
  0
VERTEX
  8
3
  5
1449
 10
228.578
 20
203.286
 30
0.000000
  70
    32
  0
VERTEX
  8
3
  5
144A
 10
228.531
 20
203.272
 30
0.000000
  70
    32
  0
VERTEX
  8
3
  5
144B
 10
228.485
 20
203.257
 30
0.000000
  70
    32
  0
VERTEX
  8
3
  5
144C
 10
228.438
 20
203.240
 30
0.000000
  70
    32
  0
VERTEX
  8
3
  5
144D
 10
228.392
 20
203.221
 30
0.000000
  70
    32
  0
VERTEX
  8
3
  5
144E
 10
228.347
 20
203.201
 30
0.000000
  70
    32
  0
VERTEX
  8
3
  5
144F
 10
228.302
 20
203.179
 30
0.000000
  70
    32
  0
VERTEX
  8
3
  5
1450
 10
228.257
 20
203.155
 30
0.000000
  70
    32
  0
VERTEX
  8
3
  5
1451
 10
228.212
 20
203.129
 30
0.000000
  70
    32
  0
VERTEX
  8
3
  5
1452
 10
228.168
 20
203.102
 30
0.000000
  70
    32
  0
VERTEX
  8
3
  5
1453
 10
228.125
 20
203.073
 30
0.000000
  70
    32
  0
VERTEX
  8
3
  5
1454
 10
228.082
 20
203.042
 30
0.000000
  70
    32
  0
VERTEX
  8
3
  5
1455
 10
228.039
 20
203.010
 30
0.000000
  70
    32
  0
VERTEX
  8
3
  5
1456
 10
227.997
 20
202.976
 30
0.000000
  70
    32
  0
VERTEX
  8
3
  5
1457
 10
227.955
 20
202.940
 30
0.000000
  70
    32
  0
VERTEX
  8
3
  5
1458
 10
227.914
 20
202.903
 30
0.000000
  70
    32
  0
VERTEX
  8
3
  5
1459
 10
227.874
 20
202.865
 30
0.000000
  70
    32
  0
VERTEX
  8
3
  5
145A
 10
227.834
 20
202.824
 30
0.000000
  70
    32
  0
VERTEX
  8
3
  5
145B
 10
227.795
 20
202.783
 30
0.000000
  70
    32
  0
VERTEX
  8
3
  5
145C
 10
227.757
 20
202.740
 30
0.000000
  70
    32
  0
VERTEX
  8
3
  5
145D
 10
227.719
 20
202.695
 30
0.000000
  70
    32
  0
VERTEX
  8
3
  5
145E
 10
227.682
 20
202.649
 30
0.000000
  70
    32
  0
VERTEX
  8
3
  5
145F
 10
227.645
 20
202.602
 30
0.000000
  70
    32
  0
VERTEX
  8
3
  5
1460
 10
227.610
 20
202.553
 30
0.000000
  70
    32
  0
VERTEX
  8
3
  5
1461
 10
227.575
 20
202.503
 30
0.000000
  70
    32
  0
VERTEX
  8
3
  5
1462
 10
227.541
 20
202.451
 30
0.000000
  70
    32
  0
VERTEX
  8
3
  5
1463
 10
227.508
 20
202.399
 30
0.000000
  70
    32
  0
VERTEX
  8
3
  5
1464
 10
227.476
 20
202.345
 30
0.000000
  70
    32
  0
VERTEX
  8
3
  5
1465
 10
227.444
 20
202.290
 30
0.000000
  70
    32
  0
VERTEX
  8
3
  5
1466
 10
227.414
 20
202.233
 30
0.000000
  70
    32
  0
VERTEX
  8
3
  5
1467
 10
227.384
 20
202.176
 30
0.000000
  70
    32
  0
VERTEX
  8
3
  5
1468
 10
227.355
 20
202.117
 30
0.000000
  70
    32
  0
VERTEX
  8
3
  5
1469
 10
227.328
 20
202.057
 30
0.000000
  70
    32
  0
VERTEX
  8
3
  5
146A
 10
227.301
 20
201.997
 30
0.000000
  70
    32
  0
VERTEX
  8
3
  5
146B
 10
227.275
 20
201.935
 30
0.000000
  70
    32
  0
VERTEX
  8
3
  5
146C
 10
227.250
 20
201.872
 30
0.000000
  70
    32
  0
VERTEX
  8
3
  5
146D
 10
227.226
 20
201.809
 30
0.000000
  70
    32
  0
VERTEX
  8
3
  5
146E
 10
227.203
 20
201.744
 30
0.000000
  70
    32
  0
VERTEX
  8
3
  5
146F
 10
227.181
 20
201.679
 30
0.000000
  70
    32
  0
VERTEX
  8
3
  5
1470
 10
227.161
 20
201.613
 30
0.000000
  70
    32
  0
VERTEX
  8
3
  5
1471
 10
227.141
 20
201.546
 30
0.000000
  70
    32
  0
VERTEX
  8
3
  5
1472
 10
227.122
 20
201.478
 30
0.000000
  70
    32
  0
VERTEX
  8
3
  5
1473
 10
227.105
 20
201.410
 30
0.000000
  70
    32
  0
VERTEX
  8
3
  5
1474
 10
227.088
 20
201.341
 30
0.000000
  70
    32
  0
VERTEX
  8
3
  5
1475
 10
227.073
 20
201.271
 30
0.000000
  70
    32
  0
VERTEX
  8
3
  5
1476
 10
227.058
 20
201.201
 30
0.000000
  70
    32
  0
VERTEX
  8
3
  5
1477
 10
227.045
 20
201.130
 30
0.000000
  70
    32
  0
VERTEX
  8
3
  5
1478
 10
227.033
 20
201.059
 30
0.000000
  70
    32
  0
VERTEX
  8
3
  5
1479
 10
227.022
 20
200.987
 30
0.000000
  70
    32
  0
VERTEX
  8
3
  5
147A
 10
227.012
 20
200.915
 30
0.000000
  70
    32
  0
VERTEX
  8
3
  5
147B
 10
227.003
 20
200.843
 30
0.000000
  70
    32
  0
VERTEX
  8
3
  5
147C
 10
226.996
 20
200.770
 30
0.000000
  70
    32
  0
VERTEX
  8
3
  5
147D
 10
226.990
 20
200.697
 30
0.000000
  70
    32
  0
VERTEX
  8
3
  5
147E
 10
226.984
 20
200.624
 30
0.000000
  70
    32
  0
VERTEX
  8
3
  5
147F
 10
226.980
 20
200.551
 30
0.000000
  70
    32
  0
VERTEX
  8
3
  5
1480
 10
226.977
 20
200.477
 30
0.000000
  70
    32
  0
VERTEX
  8
3
  5
1481
 10
226.976
 20
200.404
 30
0.000000
  70
    32
  0
VERTEX
  8
3
  5
1482
 10
226.975
 20
200.330
 30
0.000000
  70
    32
  0
VERTEX
  8
3
  5
1483
 10
226.976
 20
200.256
 30
0.000000
  70
    32
  0
VERTEX
  8
3
  5
1484
 10
226.977
 20
200.183
 30
0.000000
  70
    32
  0
VERTEX
  8
3
  5
1485
 10
226.980
 20
200.109
 30
0.000000
  70
    32
  0
VERTEX
  8
3
  5
1486
 10
226.984
 20
200.036
 30
0.000000
  70
    32
  0
VERTEX
  8
3
  5
1487
 10
226.990
 20
199.963
 30
0.000000
  70
    32
  0
VERTEX
  8
3
  5
1488
 10
226.996
 20
199.890
 30
0.000000
  70
    32
  0
VERTEX
  8
3
  5
1489
 10
227.003
 20
199.817
 30
0.000000
  70
    32
  0
VERTEX
  8
3
  5
148A
 10
227.012
 20
199.745
 30
0.000000
  70
    32
  0
VERTEX
  8
3
  5
148B
 10
227.022
 20
199.673
 30
0.000000
  70
    32
  0
VERTEX
  8
3
  5
148C
 10
227.033
 20
199.601
 30
0.000000
  70
    32
  0
VERTEX
  8
3
  5
148D
 10
227.045
 20
199.530
 30
0.000000
  70
    32
  0
VERTEX
  8
3
  5
148E
 10
227.058
 20
199.459
 30
0.000000
  70
    32
  0
VERTEX
  8
3
  5
148F
 10
227.073
 20
199.389
 30
0.000000
  70
    32
  0
VERTEX
  8
3
  5
1490
 10
227.088
 20
199.319
 30
0.000000
  70
    32
  0
VERTEX
  8
3
  5
1491
 10
227.105
 20
199.250
 30
0.000000
  70
    32
  0
VERTEX
  8
3
  5
1492
 10
227.122
 20
199.182
 30
0.000000
  70
    32
  0
VERTEX
  8
3
  5
1493
 10
227.141
 20
199.114
 30
0.000000
  70
    32
  0
VERTEX
  8
3
  5
1494
 10
227.161
 20
199.047
 30
0.000000
  70
    32
  0
VERTEX
  8
3
  5
1495
 10
227.181
 20
198.981
 30
0.000000
  70
    32
  0
VERTEX
  8
3
  5
1496
 10
227.203
 20
198.916
 30
0.000000
  70
    32
  0
VERTEX
  8
3
  5
1497
 10
227.226
 20
198.851
 30
0.000000
  70
    32
  0
VERTEX
  8
3
  5
1498
 10
227.250
 20
198.788
 30
0.000000
  70
    32
  0
VERTEX
  8
3
  5
1499
 10
227.275
 20
198.725
 30
0.000000
  70
    32
  0
VERTEX
  8
3
  5
149A
 10
227.301
 20
198.663
 30
0.000000
  70
    32
  0
VERTEX
  8
3
  5
149B
 10
227.328
 20
198.603
 30
0.000000
  70
    32
  0
VERTEX
  8
3
  5
149C
 10
227.355
 20
198.543
 30
0.000000
  70
    32
  0
VERTEX
  8
3
  5
149D
 10
227.384
 20
198.484
 30
0.000000
  70
    32
  0
VERTEX
  8
3
  5
149E
 10
227.414
 20
198.427
 30
0.000000
  70
    32
  0
VERTEX
  8
3
  5
149F
 10
227.444
 20
198.371
 30
0.000000
  70
    32
  0
VERTEX
  8
3
  5
14A0
 10
227.476
 20
198.315
 30
0.000000
  70
    32
  0
VERTEX
  8
3
  5
14A1
 10
227.508
 20
198.261
 30
0.000000
  70
    32
  0
VERTEX
  8
3
  5
14A2
 10
227.541
 20
198.209
 30
0.000000
  70
    32
  0
VERTEX
  8
3
  5
14A3
 10
227.575
 20
198.157
 30
0.000000
  70
    32
  0
VERTEX
  8
3
  5
14A4
 10
227.610
 20
198.107
 30
0.000000
  70
    32
  0
VERTEX
  8
3
  5
14A5
 10
227.645
 20
198.058
 30
0.000000
  70
    32
  0
VERTEX
  8
3
  5
14A6
 10
227.682
 20
198.011
 30
0.000000
  70
    32
  0
VERTEX
  8
3
  5
14A7
 10
227.719
 20
197.965
 30
0.000000
  70
    32
  0
VERTEX
  8
3
  5
14A8
 10
227.757
 20
197.920
 30
0.000000
  70
    32
  0
VERTEX
  8
3
  5
14A9
 10
227.795
 20
197.877
 30
0.000000
  70
    32
  0
VERTEX
  8
3
  5
14AA
 10
227.834
 20
197.836
 30
0.000000
  70
    32
  0
VERTEX
  8
3
  5
14AB
 10
227.874
 20
197.796
 30
0.000000
  70
    32
  0
VERTEX
  8
3
  5
14AC
 10
227.914
 20
197.757
 30
0.000000
  70
    32
  0
VERTEX
  8
3
  5
14AD
 10
227.955
 20
197.720
 30
0.000000
  70
    32
  0
VERTEX
  8
3
  5
14AE
 10
227.997
 20
197.684
 30
0.000000
  70
    32
  0
VERTEX
  8
3
  5
14AF
 10
228.039
 20
197.650
 30
0.000000
  70
    32
  0
VERTEX
  8
3
  5
14B0
 10
228.082
 20
197.618
 30
0.000000
  70
    32
  0
VERTEX
  8
3
  5
14B1
 10
228.125
 20
197.587
 30
0.000000
  70
    32
  0
VERTEX
  8
3
  5
14B2
 10
228.168
 20
197.558
 30
0.000000
  70
    32
  0
VERTEX
  8
3
  5
14B3
 10
228.212
 20
197.531
 30
0.000000
  70
    32
  0
VERTEX
  8
3
  5
14B4
 10
228.257
 20
197.505
 30
0.000000
  70
    32
  0
VERTEX
  8
3
  5
14B5
 10
228.302
 20
197.481
 30
0.000000
  70
    32
  0
VERTEX
  8
3
  5
14B6
 10
228.347
 20
197.459
 30
0.000000
  70
    32
  0
VERTEX
  8
3
  5
14B7
 10
228.392
 20
197.439
 30
0.000000
  70
    32
  0
VERTEX
  8
3
  5
14B8
 10
228.438
 20
197.420
 30
0.000000
  70
    32
  0
VERTEX
  8
3
  5
14B9
 10
228.485
 20
197.403
 30
0.000000
  70
    32
  0
VERTEX
  8
3
  5
14BA
 10
228.531
 20
197.388
 30
0.000000
  70
    32
  0
VERTEX
  8
3
  5
14BB
 10
228.578
 20
197.374
 30
0.000000
  70
    32
  0
VERTEX
  8
3
  5
14BC
 10
228.624
 20
197.363
 30
0.000000
  70
    32
  0
VERTEX
  8
3
  5
14BD
 10
228.671
 20
197.353
 30
0.000000
  70
    32
  0
VERTEX
  8
3
  5
14BE
 10
228.719
 20
197.345
 30
0.000000
  70
    32
  0
VERTEX
  8
3
  5
14BF
 10
228.766
 20
197.338
 30
0.000000
  70
    32
  0
VERTEX
  8
3
  5
14C0
 10
228.813
 20
197.334
 30
0.000000
  70
    32
  0
VERTEX
  8
3
  5
14C1
 10
228.861
 20
197.331
 30
0.000000
  70
    32
  0
VERTEX
  8
3
  5
14C2
 10
228.908
 20
197.330
 30
0.000000
  70
    32
  0
SEQEND
  8
3
  5
14C3
  0
POLYLINE
  5
11B2
  8
3
 10
228.90805152144284
 20
197.33006942971619
 30
0.0
 66
     1
 70
     8
  0
VERTEX
  8
3
  5
14C4
 10
228.908
 20
197.330
 30
0.000000
  70
    32
  0
VERTEX
  8
3
  5
14C5
 10
228.934
 20
197.331
 30
0.000000
  70
    32
  0
VERTEX
  8
3
  5
14C6
 10
228.960
 20
197.334
 30
0.000000
  70
    32
  0
VERTEX
  8
3
  5
14C7
 10
228.987
 20
197.338
 30
0.000000
  70
    32
  0
VERTEX
  8
3
  5
14C8
 10
229.013
 20
197.345
 30
0.000000
  70
    32
  0
VERTEX
  8
3
  5
14C9
 10
229.039
 20
197.353
 30
0.000000
  70
    32
  0
VERTEX
  8
3
  5
14CA
 10
229.065
 20
197.363
 30
0.000000
  70
    32
  0
VERTEX
  8
3
  5
14CB
 10
229.090
 20
197.374
 30
0.000000
  70
    32
  0
VERTEX
  8
3
  5
14CC
 10
229.116
 20
197.388
 30
0.000000
  70
    32
  0
VERTEX
  8
3
  5
14CD
 10
229.142
 20
197.403
 30
0.000000
  70
    32
  0
VERTEX
  8
3
  5
14CE
 10
229.167
 20
197.420
 30
0.000000
  70
    32
  0
VERTEX
  8
3
  5
14CF
 10
229.193
 20
197.439
 30
0.000000
  70
    32
  0
VERTEX
  8
3
  5
14D0
 10
229.218
 20
197.459
 30
0.000000
  70
    32
  0
VERTEX
  8
3
  5
14D1
 10
229.243
 20
197.481
 30
0.000000
  70
    32
  0
VERTEX
  8
3
  5
14D2
 10
229.268
 20
197.505
 30
0.000000
  70
    32
  0
VERTEX
  8
3
  5
14D3
 10
229.292
 20
197.531
 30
0.000000
  70
    32
  0
VERTEX
  8
3
  5
14D4
 10
229.316
 20
197.558
 30
0.000000
  70
    32
  0
VERTEX
  8
3
  5
14D5
 10
229.340
 20
197.587
 30
0.000000
  70
    32
  0
VERTEX
  8
3
  5
14D6
 10
229.364
 20
197.618
 30
0.000000
  70
    32
  0
VERTEX
  8
3
  5
14D7
 10
229.388
 20
197.650
 30
0.000000
  70
    32
  0
VERTEX
  8
3
  5
14D8
 10
229.411
 20
197.684
 30
0.000000
  70
    32
  0
VERTEX
  8
3
  5
14D9
 10
229.434
 20
197.720
 30
0.000000
  70
    32
  0
VERTEX
  8
3
  5
14DA
 10
229.457
 20
197.757
 30
0.000000
  70
    32
  0
VERTEX
  8
3
  5
14DB
 10
229.479
 20
197.796
 30
0.000000
  70
    32
  0
VERTEX
  8
3
  5
14DC
 10
229.501
 20
197.836
 30
0.000000
  70
    32
  0
VERTEX
  8
3
  5
14DD
 10
229.522
 20
197.877
 30
0.000000
  70
    32
  0
VERTEX
  8
3
  5
14DE
 10
229.544
 20
197.920
 30
0.000000
  70
    32
  0
VERTEX
  8
3
  5
14DF
 10
229.564
 20
197.965
 30
0.000000
  70
    32
  0
VERTEX
  8
3
  5
14E0
 10
229.585
 20
198.011
 30
0.000000
  70
    32
  0
VERTEX
  8
3
  5
14E1
 10
229.605
 20
198.058
 30
0.000000
  70
    32
  0
VERTEX
  8
3
  5
14E2
 10
229.625
 20
198.107
 30
0.000000
  70
    32
  0
VERTEX
  8
3
  5
14E3
 10
229.644
 20
198.157
 30
0.000000
  70
    32
  0
VERTEX
  8
3
  5
14E4
 10
229.663
 20
198.209
 30
0.000000
  70
    32
  0
VERTEX
  8
3
  5
14E5
 10
229.681
 20
198.261
 30
0.000000
  70
    32
  0
VERTEX
  8
3
  5
14E6
 10
229.699
 20
198.315
 30
0.000000
  70
    32
  0
VERTEX
  8
3
  5
14E7
 10
229.716
 20
198.371
 30
0.000000
  70
    32
  0
VERTEX
  8
3
  5
14E8
 10
229.733
 20
198.427
 30
0.000000
  70
    32
  0
VERTEX
  8
3
  5
14E9
 10
229.749
 20
198.484
 30
0.000000
  70
    32
  0
VERTEX
  8
3
  5
14EA
 10
229.765
 20
198.543
 30
0.000000
  70
    32
  0
VERTEX
  8
3
  5
14EB
 10
229.780
 20
198.603
 30
0.000000
  70
    32
  0
VERTEX
  8
3
  5
14EC
 10
229.795
 20
198.663
 30
0.000000
  70
    32
  0
VERTEX
  8
3
  5
14ED
 10
229.809
 20
198.725
 30
0.000000
  70
    32
  0
VERTEX
  8
3
  5
14EE
 10
229.823
 20
198.788
 30
0.000000
  70
    32
  0
VERTEX
  8
3
  5
14EF
 10
229.836
 20
198.851
 30
0.000000
  70
    32
  0
VERTEX
  8
3
  5
14F0
 10
229.849
 20
198.916
 30
0.000000
  70
    32
  0
VERTEX
  8
3
  5
14F1
 10
229.861
 20
198.981
 30
0.000000
  70
    32
  0
VERTEX
  8
3
  5
14F2
 10
229.873
 20
199.047
 30
0.000000
  70
    32
  0
VERTEX
  8
3
  5
14F3
 10
229.884
 20
199.114
 30
0.000000
  70
    32
  0
VERTEX
  8
3
  5
14F4
 10
229.894
 20
199.182
 30
0.000000
  70
    32
  0
VERTEX
  8
3
  5
14F5
 10
229.904
 20
199.250
 30
0.000000
  70
    32
  0
VERTEX
  8
3
  5
14F6
 10
229.913
 20
199.319
 30
0.000000
  70
    32
  0
VERTEX
  8
3
  5
14F7
 10
229.921
 20
199.389
 30
0.000000
  70
    32
  0
VERTEX
  8
3
  5
14F8
 10
229.929
 20
199.459
 30
0.000000
  70
    32
  0
VERTEX
  8
3
  5
14F9
 10
229.936
 20
199.530
 30
0.000000
  70
    32
  0
VERTEX
  8
3
  5
14FA
 10
229.943
 20
199.601
 30
0.000000
  70
    32
  0
VERTEX
  8
3
  5
14FB
 10
229.949
 20
199.673
 30
0.000000
  70
    32
  0
VERTEX
  8
3
  5
14FC
 10
229.955
 20
199.745
 30
0.000000
  70
    32
  0
VERTEX
  8
3
  5
14FD
 10
229.959
 20
199.817
 30
0.000000
  70
    32
  0
VERTEX
  8
3
  5
14FE
 10
229.963
 20
199.890
 30
0.000000
  70
    32
  0
VERTEX
  8
3
  5
14FF
 10
229.967
 20
199.963
 30
0.000000
  70
    32
  0
VERTEX
  8
3
  5
1500
 10
229.970
 20
200.036
 30
0.000000
  70
    32
  0
VERTEX
  8
3
  5
1501
 10
229.972
 20
200.109
 30
0.000000
  70
    32
  0
VERTEX
  8
3
  5
1502
 10
229.974
 20
200.183
 30
0.000000
  70
    32
  0
VERTEX
  8
3
  5
1503
 10
229.975
 20
200.256
 30
0.000000
  70
    32
  0
VERTEX
  8
3
  5
1504
 10
229.975
 20
200.330
 30
0.000000
  70
    32
  0
VERTEX
  8
3
  5
1505
 10
229.975
 20
200.404
 30
0.000000
  70
    32
  0
VERTEX
  8
3
  5
1506
 10
229.974
 20
200.477
 30
0.000000
  70
    32
  0
VERTEX
  8
3
  5
1507
 10
229.972
 20
200.551
 30
0.000000
  70
    32
  0
VERTEX
  8
3
  5
1508
 10
229.970
 20
200.624
 30
0.000000
  70
    32
  0
VERTEX
  8
3
  5
1509
 10
229.967
 20
200.697
 30
0.000000
  70
    32
  0
VERTEX
  8
3
  5
150A
 10
229.963
 20
200.770
 30
0.000000
  70
    32
  0
VERTEX
  8
3
  5
150B
 10
229.959
 20
200.843
 30
0.000000
  70
    32
  0
VERTEX
  8
3
  5
150C
 10
229.955
 20
200.915
 30
0.000000
  70
    32
  0
VERTEX
  8
3
  5
150D
 10
229.949
 20
200.987
 30
0.000000
  70
    32
  0
VERTEX
  8
3
  5
150E
 10
229.943
 20
201.059
 30
0.000000
  70
    32
  0
VERTEX
  8
3
  5
150F
 10
229.936
 20
201.130
 30
0.000000
  70
    32
  0
VERTEX
  8
3
  5
1510
 10
229.929
 20
201.201
 30
0.000000
  70
    32
  0
VERTEX
  8
3
  5
1511
 10
229.921
 20
201.271
 30
0.000000
  70
    32
  0
VERTEX
  8
3
  5
1512
 10
229.913
 20
201.341
 30
0.000000
  70
    32
  0
VERTEX
  8
3
  5
1513
 10
229.904
 20
201.410
 30
0.000000
  70
    32
  0
VERTEX
  8
3
  5
1514
 10
229.894
 20
201.478
 30
0.000000
  70
    32
  0
VERTEX
  8
3
  5
1515
 10
229.884
 20
201.546
 30
0.000000
  70
    32
  0
VERTEX
  8
3
  5
1516
 10
229.873
 20
201.613
 30
0.000000
  70
    32
  0
VERTEX
  8
3
  5
1517
 10
229.861
 20
201.679
 30
0.000000
  70
    32
  0
VERTEX
  8
3
  5
1518
 10
229.849
 20
201.744
 30
0.000000
  70
    32
  0
VERTEX
  8
3
  5
1519
 10
229.836
 20
201.809
 30
0.000000
  70
    32
  0
VERTEX
  8
3
  5
151A
 10
229.823
 20
201.872
 30
0.000000
  70
    32
  0
VERTEX
  8
3
  5
151B
 10
229.809
 20
201.935
 30
0.000000
  70
    32
  0
VERTEX
  8
3
  5
151C
 10
229.795
 20
201.997
 30
0.000000
  70
    32
  0
VERTEX
  8
3
  5
151D
 10
229.780
 20
202.057
 30
0.000000
  70
    32
  0
VERTEX
  8
3
  5
151E
 10
229.765
 20
202.117
 30
0.000000
  70
    32
  0
VERTEX
  8
3
  5
151F
 10
229.749
 20
202.176
 30
0.000000
  70
    32
  0
VERTEX
  8
3
  5
1520
 10
229.733
 20
202.233
 30
0.000000
  70
    32
  0
VERTEX
  8
3
  5
1521
 10
229.716
 20
202.290
 30
0.000000
  70
    32
  0
VERTEX
  8
3
  5
1522
 10
229.699
 20
202.345
 30
0.000000
  70
    32
  0
VERTEX
  8
3
  5
1523
 10
229.681
 20
202.399
 30
0.000000
  70
    32
  0
VERTEX
  8
3
  5
1524
 10
229.663
 20
202.451
 30
0.000000
  70
    32
  0
VERTEX
  8
3
  5
1525
 10
229.644
 20
202.503
 30
0.000000
  70
    32
  0
VERTEX
  8
3
  5
1526
 10
229.625
 20
202.553
 30
0.000000
  70
    32
  0
VERTEX
  8
3
  5
1527
 10
229.605
 20
202.602
 30
0.000000
  70
    32
  0
VERTEX
  8
3
  5
1528
 10
229.585
 20
202.649
 30
0.000000
  70
    32
  0
VERTEX
  8
3
  5
1529
 10
229.564
 20
202.695
 30
0.000000
  70
    32
  0
VERTEX
  8
3
  5
152A
 10
229.544
 20
202.740
 30
0.000000
  70
    32
  0
VERTEX
  8
3
  5
152B
 10
229.522
 20
202.783
 30
0.000000
  70
    32
  0
VERTEX
  8
3
  5
152C
 10
229.501
 20
202.824
 30
0.000000
  70
    32
  0
VERTEX
  8
3
  5
152D
 10
229.479
 20
202.865
 30
0.000000
  70
    32
  0
VERTEX
  8
3
  5
152E
 10
229.457
 20
202.903
 30
0.000000
  70
    32
  0
VERTEX
  8
3
  5
152F
 10
229.434
 20
202.940
 30
0.000000
  70
    32
  0
VERTEX
  8
3
  5
1530
 10
229.411
 20
202.976
 30
0.000000
  70
    32
  0
VERTEX
  8
3
  5
1531
 10
229.388
 20
203.010
 30
0.000000
  70
    32
  0
VERTEX
  8
3
  5
1532
 10
229.364
 20
203.042
 30
0.000000
  70
    32
  0
VERTEX
  8
3
  5
1533
 10
229.340
 20
203.073
 30
0.000000
  70
    32
  0
VERTEX
  8
3
  5
1534
 10
229.316
 20
203.102
 30
0.000000
  70
    32
  0
VERTEX
  8
3
  5
1535
 10
229.292
 20
203.129
 30
0.000000
  70
    32
  0
VERTEX
  8
3
  5
1536
 10
229.268
 20
203.155
 30
0.000000
  70
    32
  0
VERTEX
  8
3
  5
1537
 10
229.243
 20
203.179
 30
0.000000
  70
    32
  0
VERTEX
  8
3
  5
1538
 10
229.218
 20
203.201
 30
0.000000
  70
    32
  0
VERTEX
  8
3
  5
1539
 10
229.193
 20
203.221
 30
0.000000
  70
    32
  0
VERTEX
  8
3
  5
153A
 10
229.167
 20
203.240
 30
0.000000
  70
    32
  0
VERTEX
  8
3
  5
153B
 10
229.142
 20
203.257
 30
0.000000
  70
    32
  0
VERTEX
  8
3
  5
153C
 10
229.116
 20
203.272
 30
0.000000
  70
    32
  0
VERTEX
  8
3
  5
153D
 10
229.090
 20
203.286
 30
0.000000
  70
    32
  0
VERTEX
  8
3
  5
153E
 10
229.065
 20
203.298
 30
0.000000
  70
    32
  0
VERTEX
  8
3
  5
153F
 10
229.039
 20
203.308
 30
0.000000
  70
    32
  0
VERTEX
  8
3
  5
1540
 10
229.013
 20
203.316
 30
0.000000
  70
    32
  0
VERTEX
  8
3
  5
1541
 10
228.987
 20
203.322
 30
0.000000
  70
    32
  0
VERTEX
  8
3
  5
1542
 10
228.960
 20
203.326
 30
0.000000
  70
    32
  0
VERTEX
  8
3
  5
1543
 10
228.934
 20
203.329
 30
0.000000
  70
    32
  0
VERTEX
  8
3
  5
1544
 10
228.908
 20
203.330
 30
0.000000
  70
    32
  0
SEQEND
  8
3
  5
1545
  0
POLYLINE
  5
11B3
  8
0
 10
229.77407651650191
 20
195.08006942971619
 30
0.0
 66
     1
 70
     8
  0
VERTEX
  8
0
  5
1546
 10
229.774
 20
195.080
 30
0.000000
  70
    32
  0
VERTEX
  8
0
  5
1547
 10
229.826
 20
195.082
 30
0.000000
  70
    32
  0
VERTEX
  8
0
  5
1548
 10
229.878
 20
195.086
 30
0.000000
  70
    32
  0
VERTEX
  8
0
  5
1549
 10
229.929
 20
195.094
 30
0.000000
  70
    32
  0
VERTEX
  8
0
  5
154A
 10
229.981
 20
195.105
 30
0.000000
  70
    32
  0
VERTEX
  8
0
  5
154B
 10
230.032
 20
195.120
 30
0.000000
  70
    32
  0
VERTEX
  8
0
  5
154C
 10
230.084
 20
195.137
 30
0.000000
  70
    32
  0
VERTEX
  8
0
  5
154D
 10
230.135
 20
195.157
 30
0.000000
  70
    32
  0
VERTEX
  8
0
  5
154E
 10
230.186
 20
195.181
 30
0.000000
  70
    32
  0
VERTEX
  8
0
  5
154F
 10
230.237
 20
195.208
 30
0.000000
  70
    32
  0
VERTEX
  8
0
  5
1550
 10
230.287
 20
195.237
 30
0.000000
  70
    32
  0
VERTEX
  8
0
  5
1551
 10
230.337
 20
195.270
 30
0.000000
  70
    32
  0
VERTEX
  8
0
  5
1552
 10
230.387
 20
195.306
 30
0.000000
  70
    32
  0
VERTEX
  8
0
  5
1553
 10
230.436
 20
195.345
 30
0.000000
  70
    32
  0
VERTEX
  8
0
  5
1554
 10
230.485
 20
195.387
 30
0.000000
  70
    32
  0
VERTEX
  8
0
  5
1555
 10
230.534
 20
195.432
 30
0.000000
  70
    32
  0
VERTEX
  8
0
  5
1556
 10
230.582
 20
195.480
 30
0.000000
  70
    32
  0
VERTEX
  8
0
  5
1557
 10
230.629
 20
195.530
 30
0.000000
  70
    32
  0
VERTEX
  8
0
  5
1558
 10
230.676
 20
195.584
 30
0.000000
  70
    32
  0
VERTEX
  8
0
  5
1559
 10
230.723
 20
195.641
 30
0.000000
  70
    32
  0
VERTEX
  8
0
  5
155A
 10
230.769
 20
195.700
 30
0.000000
  70
    32
  0
VERTEX
  8
0
  5
155B
 10
230.814
 20
195.762
 30
0.000000
  70
    32
  0
VERTEX
  8
0
  5
155C
 10
230.859
 20
195.827
 30
0.000000
  70
    32
  0
VERTEX
  8
0
  5
155D
 10
230.903
 20
195.895
 30
0.000000
  70
    32
  0
VERTEX
  8
0
  5
155E
 10
230.947
 20
195.965
 30
0.000000
  70
    32
  0
VERTEX
  8
0
  5
155F
 10
230.989
 20
196.038
 30
0.000000
  70
    32
  0
VERTEX
  8
0
  5
1560
 10
231.031
 20
196.113
 30
0.000000
  70
    32
  0
VERTEX
  8
0
  5
1561
 10
231.073
 20
196.191
 30
0.000000
  70
    32
  0
VERTEX
  8
0
  5
1562
 10
231.113
 20
196.272
 30
0.000000
  70
    32
  0
VERTEX
  8
0
  5
1563
 10
231.153
 20
196.355
 30
0.000000
  70
    32
  0
VERTEX
  8
0
  5
1564
 10
231.191
 20
196.440
 30
0.000000
  70
    32
  0
VERTEX
  8
0
  5
1565
 10
231.229
 20
196.528
 30
0.000000
  70
    32
  0
VERTEX
  8
0
  5
1566
 10
231.267
 20
196.618
 30
0.000000
  70
    32
  0
VERTEX
  8
0
  5
1567
 10
231.303
 20
196.710
 30
0.000000
  70
    32
  0
VERTEX
  8
0
  5
1568
 10
231.338
 20
196.804
 30
0.000000
  70
    32
  0
VERTEX
  8
0
  5
1569
 10
231.372
 20
196.901
 30
0.000000
  70
    32
  0
VERTEX
  8
0
  5
156A
 10
231.406
 20
197.000
 30
0.000000
  70
    32
  0
VERTEX
  8
0
  5
156B
 10
231.438
 20
197.100
 30
0.000000
  70
    32
  0
VERTEX
  8
0
  5
156C
 10
231.469
 20
197.203
 30
0.000000
  70
    32
  0
VERTEX
  8
0
  5
156D
 10
231.500
 20
197.307
 30
0.000000
  70
    32
  0
VERTEX
  8
0
  5
156E
 10
231.529
 20
197.413
 30
0.000000
  70
    32
  0
VERTEX
  8
0
  5
156F
 10
231.557
 20
197.521
 30
0.000000
  70
    32
  0
VERTEX
  8
0
  5
1570
 10
231.584
 20
197.631
 30
0.000000
  70
    32
  0
VERTEX
  8
0
  5
1571
 10
231.611
 20
197.742
 30
0.000000
  70
    32
  0
VERTEX
  8
0
  5
1572
 10
231.635
 20
197.855
 30
0.000000
  70
    32
  0
VERTEX
  8
0
  5
1573
 10
231.659
 20
197.970
 30
0.000000
  70
    32
  0
VERTEX
  8
0
  5
1574
 10
231.682
 20
198.085
 30
0.000000
  70
    32
  0
VERTEX
  8
0
  5
1575
 10
231.704
 20
198.203
 30
0.000000
  70
    32
  0
VERTEX
  8
0
  5
1576
 10
231.724
 20
198.321
 30
0.000000
  70
    32
  0
VERTEX
  8
0
  5
1577
 10
231.743
 20
198.441
 30
0.000000
  70
    32
  0
VERTEX
  8
0
  5
1578
 10
231.761
 20
198.561
 30
0.000000
  70
    32
  0
VERTEX
  8
0
  5
1579
 10
231.778
 20
198.683
 30
0.000000
  70
    32
  0
VERTEX
  8
0
  5
157A
 10
231.794
 20
198.806
 30
0.000000
  70
    32
  0
VERTEX
  8
0
  5
157B
 10
231.808
 20
198.930
 30
0.000000
  70
    32
  0
VERTEX
  8
0
  5
157C
 10
231.821
 20
199.054
 30
0.000000
  70
    32
  0
VERTEX
  8
0
  5
157D
 10
231.833
 20
199.180
 30
0.000000
  70
    32
  0
VERTEX
  8
0
  5
157E
 10
231.844
 20
199.306
 30
0.000000
  70
    32
  0
VERTEX
  8
0
  5
157F
 10
231.854
 20
199.433
 30
0.000000
  70
    32
  0
VERTEX
  8
0
  5
1580
 10
231.862
 20
199.560
 30
0.000000
  70
    32
  0
VERTEX
  8
0
  5
1581
 10
231.869
 20
199.687
 30
0.000000
  70
    32
  0
VERTEX
  8
0
  5
1582
 10
231.875
 20
199.815
 30
0.000000
  70
    32
  0
VERTEX
  8
0
  5
1583
 10
231.879
 20
199.944
 30
0.000000
  70
    32
  0
VERTEX
  8
0
  5
1584
 10
231.882
 20
200.072
 30
0.000000
  70
    32
  0
VERTEX
  8
0
  5
1585
 10
231.884
 20
200.201
 30
0.000000
  70
    32
  0
VERTEX
  8
0
  5
1586
 10
231.885
 20
200.330
 30
0.000000
  70
    32
  0
VERTEX
  8
0
  5
1587
 10
231.884
 20
200.459
 30
0.000000
  70
    32
  0
VERTEX
  8
0
  5
1588
 10
231.882
 20
200.588
 30
0.000000
  70
    32
  0
VERTEX
  8
0
  5
1589
 10
231.879
 20
200.716
 30
0.000000
  70
    32
  0
VERTEX
  8
0
  5
158A
 10
231.875
 20
200.845
 30
0.000000
  70
    32
  0
VERTEX
  8
0
  5
158B
 10
231.869
 20
200.973
 30
0.000000
  70
    32
  0
VERTEX
  8
0
  5
158C
 10
231.862
 20
201.100
 30
0.000000
  70
    32
  0
VERTEX
  8
0
  5
158D
 10
231.854
 20
201.228
 30
0.000000
  70
    32
  0
VERTEX
  8
0
  5
158E
 10
231.844
 20
201.354
 30
0.000000
  70
    32
  0
VERTEX
  8
0
  5
158F
 10
231.833
 20
201.480
 30
0.000000
  70
    32
  0
VERTEX
  8
0
  5
1590
 10
231.821
 20
201.606
 30
0.000000
  70
    32
  0
VERTEX
  8
0
  5
1591
 10
231.808
 20
201.730
 30
0.000000
  70
    32
  0
VERTEX
  8
0
  5
1592
 10
231.794
 20
201.854
 30
0.000000
  70
    32
  0
VERTEX
  8
0
  5
1593
 10
231.778
 20
201.977
 30
0.000000
  70
    32
  0
VERTEX
  8
0
  5
1594
 10
231.761
 20
202.099
 30
0.000000
  70
    32
  0
VERTEX
  8
0
  5
1595
 10
231.743
 20
202.220
 30
0.000000
  70
    32
  0
VERTEX
  8
0
  5
1596
 10
231.724
 20
202.339
 30
0.000000
  70
    32
  0
VERTEX
  8
0
  5
1597
 10
231.704
 20
202.458
 30
0.000000
  70
    32
  0
VERTEX
  8
0
  5
1598
 10
231.682
 20
202.575
 30
0.000000
  70
    32
  0
VERTEX
  8
0
  5
1599
 10
231.659
 20
202.691
 30
0.000000
  70
    32
  0
VERTEX
  8
0
  5
159A
 10
231.635
 20
202.805
 30
0.000000
  70
    32
  0
VERTEX
  8
0
  5
159B
 10
231.611
 20
202.918
 30
0.000000
  70
    32
  0
VERTEX
  8
0
  5
159C
 10
231.584
 20
203.029
 30
0.000000
  70
    32
  0
VERTEX
  8
0
  5
159D
 10
231.557
 20
203.139
 30
0.000000
  70
    32
  0
VERTEX
  8
0
  5
159E
 10
231.529
 20
203.247
 30
0.000000
  70
    32
  0
VERTEX
  8
0
  5
159F
 10
231.500
 20
203.353
 30
0.000000
  70
    32
  0
VERTEX
  8
0
  5
15A0
 10
231.469
 20
203.457
 30
0.000000
  70
    32
  0
VERTEX
  8
0
  5
15A1
 10
231.438
 20
203.560
 30
0.000000
  70
    32
  0
VERTEX
  8
0
  5
15A2
 10
231.406
 20
203.661
 30
0.000000
  70
    32
  0
VERTEX
  8
0
  5
15A3
 10
231.372
 20
203.759
 30
0.000000
  70
    32
  0
VERTEX
  8
0
  5
15A4
 10
231.338
 20
203.856
 30
0.000000
  70
    32
  0
VERTEX
  8
0
  5
15A5
 10
231.303
 20
203.950
 30
0.000000
  70
    32
  0
VERTEX
  8
0
  5
15A6
 10
231.267
 20
204.042
 30
0.000000
  70
    32
  0
VERTEX
  8
0
  5
15A7
 10
231.229
 20
204.132
 30
0.000000
  70
    32
  0
VERTEX
  8
0
  5
15A8
 10
231.191
 20
204.220
 30
0.000000
  70
    32
  0
VERTEX
  8
0
  5
15A9
 10
231.153
 20
204.305
 30
0.000000
  70
    32
  0
VERTEX
  8
0
  5
15AA
 10
231.113
 20
204.388
 30
0.000000
  70
    32
  0
VERTEX
  8
0
  5
15AB
 10
231.073
 20
204.469
 30
0.000000
  70
    32
  0
VERTEX
  8
0
  5
15AC
 10
231.031
 20
204.547
 30
0.000000
  70
    32
  0
VERTEX
  8
0
  5
15AD
 10
230.989
 20
204.622
 30
0.000000
  70
    32
  0
VERTEX
  8
0
  5
15AE
 10
230.947
 20
204.695
 30
0.000000
  70
    32
  0
VERTEX
  8
0
  5
15AF
 10
230.903
 20
204.766
 30
0.000000
  70
    32
  0
VERTEX
  8
0
  5
15B0
 10
230.859
 20
204.833
 30
0.000000
  70
    32
  0
VERTEX
  8
0
  5
15B1
 10
230.814
 20
204.898
 30
0.000000
  70
    32
  0
VERTEX
  8
0
  5
15B2
 10
230.769
 20
204.960
 30
0.000000
  70
    32
  0
VERTEX
  8
0
  5
15B3
 10
230.723
 20
205.019
 30
0.000000
  70
    32
  0
VERTEX
  8
0
  5
15B4
 10
230.676
 20
205.076
 30
0.000000
  70
    32
  0
VERTEX
  8
0
  5
15B5
 10
230.629
 20
205.130
 30
0.000000
  70
    32
  0
VERTEX
  8
0
  5
15B6
 10
230.582
 20
205.180
 30
0.000000
  70
    32
  0
VERTEX
  8
0
  5
15B7
 10
230.534
 20
205.228
 30
0.000000
  70
    32
  0
VERTEX
  8
0
  5
15B8
 10
230.485
 20
205.273
 30
0.000000
  70
    32
  0
VERTEX
  8
0
  5
15B9
 10
230.436
 20
205.315
 30
0.000000
  70
    32
  0
VERTEX
  8
0
  5
15BA
 10
230.387
 20
205.354
 30
0.000000
  70
    32
  0
VERTEX
  8
0
  5
15BB
 10
230.337
 20
205.390
 30
0.000000
  70
    32
  0
VERTEX
  8
0
  5
15BC
 10
230.287
 20
205.423
 30
0.000000
  70
    32
  0
VERTEX
  8
0
  5
15BD
 10
230.237
 20
205.453
 30
0.000000
  70
    32
  0
VERTEX
  8
0
  5
15BE
 10
230.186
 20
205.479
 30
0.000000
  70
    32
  0
VERTEX
  8
0
  5
15BF
 10
230.135
 20
205.503
 30
0.000000
  70
    32
  0
VERTEX
  8
0
  5
15C0
 10
230.084
 20
205.523
 30
0.000000
  70
    32
  0
VERTEX
  8
0
  5
15C1
 10
230.032
 20
205.541
 30
0.000000
  70
    32
  0
VERTEX
  8
0
  5
15C2
 10
229.981
 20
205.555
 30
0.000000
  70
    32
  0
VERTEX
  8
0
  5
15C3
 10
229.929
 20
205.566
 30
0.000000
  70
    32
  0
VERTEX
  8
0
  5
15C4
 10
229.878
 20
205.574
 30
0.000000
  70
    32
  0
VERTEX
  8
0
  5
15C5
 10
229.826
 20
205.578
 30
0.000000
  70
    32
  0
VERTEX
  8
0
  5
15C6
 10
229.774
 20
205.580
 30
0.000000
  70
    32
  0
SEQEND
  8
0
  5
15C7
  0
POLYLINE
  5
11B4
  8
0
 10
229.77407651650191
 20
205.58006942971619
 30
0.0
 66
     1
 70
     8
  0
VERTEX
  8
0
  5
15C8
 10
229.774
 20
205.580
 30
0.000000
  70
    32
  0
VERTEX
  8
0
  5
15C9
 10
229.697
 20
205.578
 30
0.000000
  70
    32
  0
VERTEX
  8
0
  5
15CA
 10
229.620
 20
205.574
 30
0.000000
  70
    32
  0
VERTEX
  8
0
  5
15CB
 10
229.543
 20
205.566
 30
0.000000
  70
    32
  0
VERTEX
  8
0
  5
15CC
 10
229.467
 20
205.555
 30
0.000000
  70
    32
  0
VERTEX
  8
0
  5
15CD
 10
229.390
 20
205.541
 30
0.000000
  70
    32
  0
VERTEX
  8
0
  5
15CE
 10
229.314
 20
205.523
 30
0.000000
  70
    32
  0
VERTEX
  8
0
  5
15CF
 10
229.238
 20
205.503
 30
0.000000
  70
    32
  0
VERTEX
  8
0
  5
15D0
 10
229.162
 20
205.479
 30
0.000000
  70
    32
  0
VERTEX
  8
0
  5
15D1
 10
229.087
 20
205.453
 30
0.000000
  70
    32
  0
VERTEX
  8
0
  5
15D2
 10
229.012
 20
205.423
 30
0.000000
  70
    32
  0
VERTEX
  8
0
  5
15D3
 10
228.937
 20
205.390
 30
0.000000
  70
    32
  0
VERTEX
  8
0
  5
15D4
 10
228.864
 20
205.354
 30
0.000000
  70
    32
  0
VERTEX
  8
0
  5
15D5
 10
228.790
 20
205.315
 30
0.000000
  70
    32
  0
VERTEX
  8
0
  5
15D6
 10
228.717
 20
205.273
 30
0.000000
  70
    32
  0
VERTEX
  8
0
  5
15D7
 10
228.645
 20
205.228
 30
0.000000
  70
    32
  0
VERTEX
  8
0
  5
15D8
 10
228.574
 20
205.180
 30
0.000000
  70
    32
  0
VERTEX
  8
0
  5
15D9
 10
228.503
 20
205.130
 30
0.000000
  70
    32
  0
VERTEX
  8
0
  5
15DA
 10
228.433
 20
205.076
 30
0.000000
  70
    32
  0
VERTEX
  8
0
  5
15DB
 10
228.364
 20
205.019
 30
0.000000
  70
    32
  0
VERTEX
  8
0
  5
15DC
 10
228.295
 20
204.960
 30
0.000000
  70
    32
  0
VERTEX
  8
0
  5
15DD
 10
228.228
 20
204.898
 30
0.000000
  70
    32
  0
VERTEX
  8
0
  5
15DE
 10
228.161
 20
204.833
 30
0.000000
  70
    32
  0
VERTEX
  8
0
  5
15DF
 10
228.096
 20
204.766
 30
0.000000
  70
    32
  0
VERTEX
  8
0
  5
15E0
 10
228.031
 20
204.695
 30
0.000000
  70
    32
  0
VERTEX
  8
0
  5
15E1
 10
227.968
 20
204.622
 30
0.000000
  70
    32
  0
VERTEX
  8
0
  5
15E2
 10
227.906
 20
204.547
 30
0.000000
  70
    32
  0
VERTEX
  8
0
  5
15E3
 10
227.844
 20
204.469
 30
0.000000
  70
    32
  0
VERTEX
  8
0
  5
15E4
 10
227.784
 20
204.388
 30
0.000000
  70
    32
  0
VERTEX
  8
0
  5
15E5
 10
227.725
 20
204.305
 30
0.000000
  70
    32
  0
VERTEX
  8
0
  5
15E6
 10
227.668
 20
204.220
 30
0.000000
  70
    32
  0
VERTEX
  8
0
  5
15E7
 10
227.611
 20
204.132
 30
0.000000
  70
    32
  0
VERTEX
  8
0
  5
15E8
 10
227.556
 20
204.042
 30
0.000000
  70
    32
  0
VERTEX
  8
0
  5
15E9
 10
227.502
 20
203.950
 30
0.000000
  70
    32
  0
VERTEX
  8
0
  5
15EA
 10
227.450
 20
203.856
 30
0.000000
  70
    32
  0
VERTEX
  8
0
  5
15EB
 10
227.399
 20
203.759
 30
0.000000
  70
    32
  0
VERTEX
  8
0
  5
15EC
 10
227.349
 20
203.661
 30
0.000000
  70
    32
  0
VERTEX
  8
0
  5
15ED
 10
227.301
 20
203.560
 30
0.000000
  70
    32
  0
VERTEX
  8
0
  5
15EE
 10
227.255
 20
203.457
 30
0.000000
  70
    32
  0
VERTEX
  8
0
  5
15EF
 10
227.210
 20
203.353
 30
0.000000
  70
    32
  0
VERTEX
  8
0
  5
15F0
 10
227.166
 20
203.247
 30
0.000000
  70
    32
  0
VERTEX
  8
0
  5
15F1
 10
227.124
 20
203.139
 30
0.000000
  70
    32
  0
VERTEX
  8
0
  5
15F2
 10
227.084
 20
203.029
 30
0.000000
  70
    32
  0
VERTEX
  8
0
  5
15F3
 10
227.045
 20
202.918
 30
0.000000
  70
    32
  0
VERTEX
  8
0
  5
15F4
 10
227.008
 20
202.805
 30
0.000000
  70
    32
  0
VERTEX
  8
0
  5
15F5
 10
226.972
 20
202.691
 30
0.000000
  70
    32
  0
VERTEX
  8
0
  5
15F6
 10
226.939
 20
202.575
 30
0.000000
  70
    32
  0
VERTEX
  8
0
  5
15F7
 10
226.906
 20
202.458
 30
0.000000
  70
    32
  0
VERTEX
  8
0
  5
15F8
 10
226.876
 20
202.339
 30
0.000000
  70
    32
  0
VERTEX
  8
0
  5
15F9
 10
226.848
 20
202.220
 30
0.000000
  70
    32
  0
VERTEX
  8
0
  5
15FA
 10
226.821
 20
202.099
 30
0.000000
  70
    32
  0
VERTEX
  8
0
  5
15FB
 10
226.796
 20
201.977
 30
0.000000
  70
    32
  0
VERTEX
  8
0
  5
15FC
 10
226.772
 20
201.854
 30
0.000000
  70
    32
  0
VERTEX
  8
0
  5
15FD
 10
226.751
 20
201.730
 30
0.000000
  70
    32
  0
VERTEX
  8
0
  5
15FE
 10
226.731
 20
201.606
 30
0.000000
  70
    32
  0
VERTEX
  8
0
  5
15FF
 10
226.714
 20
201.480
 30
0.000000
  70
    32
  0
VERTEX
  8
0
  5
1600
 10
226.698
 20
201.354
 30
0.000000
  70
    32
  0
VERTEX
  8
0
  5
1601
 10
226.684
 20
201.228
 30
0.000000
  70
    32
  0
VERTEX
  8
0
  5
1602
 10
226.671
 20
201.100
 30
0.000000
  70
    32
  0
VERTEX
  8
0
  5
1603
 10
226.661
 20
200.973
 30
0.000000
  70
    32
  0
VERTEX
  8
0
  5
1604
 10
226.652
 20
200.845
 30
0.000000
  70
    32
  0
VERTEX
  8
0
  5
1605
 10
226.646
 20
200.716
 30
0.000000
  70
    32
  0
VERTEX
  8
0
  5
1606
 10
226.641
 20
200.588
 30
0.000000
  70
    32
  0
VERTEX
  8
0
  5
1607
 10
226.638
 20
200.459
 30
0.000000
  70
    32
  0
VERTEX
  8
0
  5
1608
 10
226.637
 20
200.330
 30
0.000000
  70
    32
  0
VERTEX
  8
0
  5
1609
 10
226.638
 20
200.201
 30
0.000000
  70
    32
  0
VERTEX
  8
0
  5
160A
 10
226.641
 20
200.072
 30
0.000000
  70
    32
  0
VERTEX
  8
0
  5
160B
 10
226.646
 20
199.944
 30
0.000000
  70
    32
  0
VERTEX
  8
0
  5
160C
 10
226.652
 20
199.815
 30
0.000000
  70
    32
  0
VERTEX
  8
0
  5
160D
 10
226.661
 20
199.687
 30
0.000000
  70
    32
  0
VERTEX
  8
0
  5
160E
 10
226.671
 20
199.560
 30
0.000000
  70
    32
  0
VERTEX
  8
0
  5
160F
 10
226.684
 20
199.433
 30
0.000000
  70
    32
  0
VERTEX
  8
0
  5
1610
 10
226.698
 20
199.306
 30
0.000000
  70
    32
  0
VERTEX
  8
0
  5
1611
 10
226.714
 20
199.180
 30
0.000000
  70
    32
  0
VERTEX
  8
0
  5
1612
 10
226.731
 20
199.054
 30
0.000000
  70
    32
  0
VERTEX
  8
0
  5
1613
 10
226.751
 20
198.930
 30
0.000000
  70
    32
  0
VERTEX
  8
0
  5
1614
 10
226.772
 20
198.806
 30
0.000000
  70
    32
  0
VERTEX
  8
0
  5
1615
 10
226.796
 20
198.683
 30
0.000000
  70
    32
  0
VERTEX
  8
0
  5
1616
 10
226.821
 20
198.561
 30
0.000000
  70
    32
  0
VERTEX
  8
0
  5
1617
 10
226.848
 20
198.441
 30
0.000000
  70
    32
  0
VERTEX
  8
0
  5
1618
 10
226.876
 20
198.321
 30
0.000000
  70
    32
  0
VERTEX
  8
0
  5
1619
 10
226.906
 20
198.203
 30
0.000000
  70
    32
  0
VERTEX
  8
0
  5
161A
 10
226.939
 20
198.085
 30
0.000000
  70
    32
  0
VERTEX
  8
0
  5
161B
 10
226.972
 20
197.970
 30
0.000000
  70
    32
  0
VERTEX
  8
0
  5
161C
 10
227.008
 20
197.855
 30
0.000000
  70
    32
  0
VERTEX
  8
0
  5
161D
 10
227.045
 20
197.742
 30
0.000000
  70
    32
  0
VERTEX
  8
0
  5
161E
 10
227.084
 20
197.631
 30
0.000000
  70
    32
  0
VERTEX
  8
0
  5
161F
 10
227.124
 20
197.521
 30
0.000000
  70
    32
  0
VERTEX
  8
0
  5
1620
 10
227.166
 20
197.413
 30
0.000000
  70
    32
  0
VERTEX
  8
0
  5
1621
 10
227.210
 20
197.307
 30
0.000000
  70
    32
  0
VERTEX
  8
0
  5
1622
 10
227.255
 20
197.203
 30
0.000000
  70
    32
  0
VERTEX
  8
0
  5
1623
 10
227.301
 20
197.100
 30
0.000000
  70
    32
  0
VERTEX
  8
0
  5
1624
 10
227.349
 20
197.000
 30
0.000000
  70
    32
  0
VERTEX
  8
0
  5
1625
 10
227.399
 20
196.901
 30
0.000000
  70
    32
  0
VERTEX
  8
0
  5
1626
 10
227.450
 20
196.804
 30
0.000000
  70
    32
  0
VERTEX
  8
0
  5
1627
 10
227.502
 20
196.710
 30
0.000000
  70
    32
  0
VERTEX
  8
0
  5
1628
 10
227.556
 20
196.618
 30
0.000000
  70
    32
  0
VERTEX
  8
0
  5
1629
 10
227.611
 20
196.528
 30
0.000000
  70
    32
  0
VERTEX
  8
0
  5
162A
 10
227.668
 20
196.440
 30
0.000000
  70
    32
  0
VERTEX
  8
0
  5
162B
 10
227.725
 20
196.355
 30
0.000000
  70
    32
  0
VERTEX
  8
0
  5
162C
 10
227.784
 20
196.272
 30
0.000000
  70
    32
  0
VERTEX
  8
0
  5
162D
 10
227.844
 20
196.191
 30
0.000000
  70
    32
  0
VERTEX
  8
0
  5
162E
 10
227.906
 20
196.113
 30
0.000000
  70
    32
  0
VERTEX
  8
0
  5
162F
 10
227.968
 20
196.038
 30
0.000000
  70
    32
  0
VERTEX
  8
0
  5
1630
 10
228.031
 20
195.965
 30
0.000000
  70
    32
  0
VERTEX
  8
0
  5
1631
 10
228.096
 20
195.895
 30
0.000000
  70
    32
  0
VERTEX
  8
0
  5
1632
 10
228.161
 20
195.827
 30
0.000000
  70
    32
  0
VERTEX
  8
0
  5
1633
 10
228.228
 20
195.762
 30
0.000000
  70
    32
  0
VERTEX
  8
0
  5
1634
 10
228.295
 20
195.700
 30
0.000000
  70
    32
  0
VERTEX
  8
0
  5
1635
 10
228.364
 20
195.641
 30
0.000000
  70
    32
  0
VERTEX
  8
0
  5
1636
 10
228.433
 20
195.584
 30
0.000000
  70
    32
  0
VERTEX
  8
0
  5
1637
 10
228.503
 20
195.530
 30
0.000000
  70
    32
  0
VERTEX
  8
0
  5
1638
 10
228.574
 20
195.480
 30
0.000000
  70
    32
  0
VERTEX
  8
0
  5
1639
 10
228.645
 20
195.432
 30
0.000000
  70
    32
  0
VERTEX
  8
0
  5
163A
 10
228.717
 20
195.387
 30
0.000000
  70
    32
  0
VERTEX
  8
0
  5
163B
 10
228.790
 20
195.345
 30
0.000000
  70
    32
  0
VERTEX
  8
0
  5
163C
 10
228.864
 20
195.306
 30
0.000000
  70
    32
  0
VERTEX
  8
0
  5
163D
 10
228.937
 20
195.270
 30
0.000000
  70
    32
  0
VERTEX
  8
0
  5
163E
 10
229.012
 20
195.237
 30
0.000000
  70
    32
  0
VERTEX
  8
0
  5
163F
 10
229.087
 20
195.208
 30
0.000000
  70
    32
  0
VERTEX
  8
0
  5
1640
 10
229.162
 20
195.181
 30
0.000000
  70
    32
  0
VERTEX
  8
0
  5
1641
 10
229.238
 20
195.157
 30
0.000000
  70
    32
  0
VERTEX
  8
0
  5
1642
 10
229.314
 20
195.137
 30
0.000000
  70
    32
  0
VERTEX
  8
0
  5
1643
 10
229.390
 20
195.120
 30
0.000000
  70
    32
  0
VERTEX
  8
0
  5
1644
 10
229.467
 20
195.105
 30
0.000000
  70
    32
  0
VERTEX
  8
0
  5
1645
 10
229.543
 20
195.094
 30
0.000000
  70
    32
  0
VERTEX
  8
0
  5
1646
 10
229.620
 20
195.086
 30
0.000000
  70
    32
  0
VERTEX
  8
0
  5
1647
 10
229.697
 20
195.082
 30
0.000000
  70
    32
  0
VERTEX
  8
0
  5
1648
 10
229.774
 20
195.080
 30
0.000000
  70
    32
  0
SEQEND
  8
0
  5
1649
  0
LINE
  5
11B5
  8
0
 10
332.9923134597164
 20
184.33007097093059
 30
0.0
 11
337.92276217808552
 21
187.33007146266891
 31
0.0
  0
LINE
  5
11B6
  8
0
 10
332.9923134597164
 20
184.33007097093059
 30
0.0
 11
337.92276196083009
 21
181.3300701221371
 31
0.0
  0
CIRCLE
  5
1330
  8
0
 10
209.42246352655809
 20
294.62983800319802
 30
0.0
 40
25.0
  0
POLYLINE
  5
133B
  8
0
 10
327.67246352655809
 20
205.58007070469938
 30
0.0
 66
     1
 70
     8
  0
VERTEX
  8
0
  5
164A
 10
327.672
 20
205.580
 30
0.000000
  70
    32
  0
VERTEX
  8
0
  5
164B
 10
327.791
 20
205.578
 30
0.000000
  70
    32
  0
VERTEX
  8
0
  5
164C
 10
327.910
 20
205.574
 30
0.000000
  70
    32
  0
VERTEX
  8
0
  5
164D
 10
328.029
 20
205.566
 30
0.000000
  70
    32
  0
VERTEX
  8
0
  5
164E
 10
328.147
 20
205.555
 30
0.000000
  70
    32
  0
VERTEX
  8
0
  5
164F
 10
328.265
 20
205.541
 30
0.000000
  70
    32
  0
VERTEX
  8
0
  5
1650
 10
328.383
 20
205.523
 30
0.000000
  70
    32
  0
VERTEX
  8
0
  5
1651
 10
328.500
 20
205.503
 30
0.000000
  70
    32
  0
VERTEX
  8
0
  5
1652
 10
328.617
 20
205.479
 30
0.000000
  70
    32
  0
VERTEX
  8
0
  5
1653
 10
328.733
 20
205.453
 30
0.000000
  70
    32
  0
VERTEX
  8
0
  5
1654
 10
328.849
 20
205.423
 30
0.000000
  70
    32
  0
VERTEX
  8
0
  5
1655
 10
328.964
 20
205.390
 30
0.000000
  70
    32
  0
VERTEX
  8
0
  5
1656
 10
329.078
 20
205.354
 30
0.000000
  70
    32
  0
VERTEX
  8
0
  5
1657
 10
329.191
 20
205.315
 30
0.000000
  70
    32
  0
VERTEX
  8
0
  5
1658
 10
329.304
 20
205.273
 30
0.000000
  70
    32
  0
VERTEX
  8
0
  5
1659
 10
329.415
 20
205.228
 30
0.000000
  70
    32
  0
VERTEX
  8
0
  5
165A
 10
329.525
 20
205.180
 30
0.000000
  70
    32
  0
VERTEX
  8
0
  5
165B
 10
329.635
 20
205.130
 30
0.000000
  70
    32
  0
VERTEX
  8
0
  5
165C
 10
329.743
 20
205.076
 30
0.000000
  70
    32
  0
VERTEX
  8
0
  5
165D
 10
329.850
 20
205.019
 30
0.000000
  70
    32
  0
VERTEX
  8
0
  5
165E
 10
329.955
 20
204.960
 30
0.000000
  70
    32
  0
VERTEX
  8
0
  5
165F
 10
330.059
 20
204.898
 30
0.000000
  70
    32
  0
VERTEX
  8
0
  5
1660
 10
330.162
 20
204.833
 30
0.000000
  70
    32
  0
VERTEX
  8
0
  5
1661
 10
330.263
 20
204.766
 30
0.000000
  70
    32
  0
VERTEX
  8
0
  5
1662
 10
330.363
 20
204.695
 30
0.000000
  70
    32
  0
VERTEX
  8
0
  5
1663
 10
330.461
 20
204.622
 30
0.000000
  70
    32
  0
VERTEX
  8
0
  5
1664
 10
330.557
 20
204.547
 30
0.000000
  70
    32
  0
VERTEX
  8
0
  5
1665
 10
330.651
 20
204.469
 30
0.000000
  70
    32
  0
VERTEX
  8
0
  5
1666
 10
330.744
 20
204.388
 30
0.000000
  70
    32
  0
VERTEX
  8
0
  5
1667
 10
330.835
 20
204.305
 30
0.000000
  70
    32
  0
VERTEX
  8
0
  5
1668
 10
330.924
 20
204.220
 30
0.000000
  70
    32
  0
VERTEX
  8
0
  5
1669
 10
331.011
 20
204.132
 30
0.000000
  70
    32
  0
VERTEX
  8
0
  5
166A
 10
331.096
 20
204.042
 30
0.000000
  70
    32
  0
VERTEX
  8
0
  5
166B
 10
331.179
 20
203.950
 30
0.000000
  70
    32
  0
VERTEX
  8
0
  5
166C
 10
331.260
 20
203.856
 30
0.000000
  70
    32
  0
VERTEX
  8
0
  5
166D
 10
331.339
 20
203.759
 30
0.000000
  70
    32
  0
VERTEX
  8
0
  5
166E
 10
331.415
 20
203.661
 30
0.000000
  70
    32
  0
VERTEX
  8
0
  5
166F
 10
331.490
 20
203.560
 30
0.000000
  70
    32
  0
VERTEX
  8
0
  5
1670
 10
331.562
 20
203.457
 30
0.000000
  70
    32
  0
VERTEX
  8
0
  5
1671
 10
331.631
 20
203.353
 30
0.000000
  70
    32
  0
VERTEX
  8
0
  5
1672
 10
331.698
 20
203.247
 30
0.000000
  70
    32
  0
VERTEX
  8
0
  5
1673
 10
331.763
 20
203.139
 30
0.000000
  70
    32
  0
VERTEX
  8
0
  5
1674
 10
331.826
 20
203.029
 30
0.000000
  70
    32
  0
VERTEX
  8
0
  5
1675
 10
331.885
 20
202.918
 30
0.000000
  70
    32
  0
VERTEX
  8
0
  5
1676
 10
331.943
 20
202.805
 30
0.000000
  70
    32
  0
VERTEX
  8
0
  5
1677
 10
331.998
 20
202.691
 30
0.000000
  70
    32
  0
VERTEX
  8
0
  5
1678
 10
332.050
 20
202.575
 30
0.000000
  70
    32
  0
VERTEX
  8
0
  5
1679
 10
332.099
 20
202.458
 30
0.000000
  70
    32
  0
VERTEX
  8
0
  5
167A
 10
332.146
 20
202.339
 30
0.000000
  70
    32
  0
VERTEX
  8
0
  5
167B
 10
332.190
 20
202.220
 30
0.000000
  70
    32
  0
VERTEX
  8
0
  5
167C
 10
332.231
 20
202.099
 30
0.000000
  70
    32
  0
VERTEX
  8
0
  5
167D
 10
332.270
 20
201.977
 30
0.000000
  70
    32
  0
VERTEX
  8
0
  5
167E
 10
332.306
 20
201.854
 30
0.000000
  70
    32
  0
VERTEX
  8
0
  5
167F
 10
332.339
 20
201.730
 30
0.000000
  70
    32
  0
VERTEX
  8
0
  5
1680
 10
332.369
 20
201.606
 30
0.000000
  70
    32
  0
VERTEX
  8
0
  5
1681
 10
332.397
 20
201.480
 30
0.000000
  70
    32
  0
VERTEX
  8
0
  5
1682
 10
332.421
 20
201.354
 30
0.000000
  70
    32
  0
VERTEX
  8
0
  5
1683
 10
332.443
 20
201.228
 30
0.000000
  70
    32
  0
VERTEX
  8
0
  5
1684
 10
332.462
 20
201.100
 30
0.000000
  70
    32
  0
VERTEX
  8
0
  5
1685
 10
332.478
 20
200.973
 30
0.000000
  70
    32
  0
VERTEX
  8
0
  5
1686
 10
332.491
 20
200.845
 30
0.000000
  70
    32
  0
VERTEX
  8
0
  5
1687
 10
332.501
 20
200.716
 30
0.000000
  70
    32
  0
VERTEX
  8
0
  5
1688
 10
332.509
 20
200.588
 30
0.000000
  70
    32
  0
VERTEX
  8
0
  5
1689
 10
332.513
 20
200.459
 30
0.000000
  70
    32
  0
VERTEX
  8
0
  5
168A
 10
332.515
 20
200.330
 30
0.000000
  70
    32
  0
VERTEX
  8
0
  5
168B
 10
332.513
 20
200.201
 30
0.000000
  70
    32
  0
VERTEX
  8
0
  5
168C
 10
332.509
 20
200.072
 30
0.000000
  70
    32
  0
VERTEX
  8
0
  5
168D
 10
332.501
 20
199.944
 30
0.000000
  70
    32
  0
VERTEX
  8
0
  5
168E
 10
332.491
 20
199.815
 30
0.000000
  70
    32
  0
VERTEX
  8
0
  5
168F
 10
332.478
 20
199.687
 30
0.000000
  70
    32
  0
VERTEX
  8
0
  5
1690
 10
332.462
 20
199.560
 30
0.000000
  70
    32
  0
VERTEX
  8
0
  5
1691
 10
332.443
 20
199.433
 30
0.000000
  70
    32
  0
VERTEX
  8
0
  5
1692
 10
332.421
 20
199.306
 30
0.000000
  70
    32
  0
VERTEX
  8
0
  5
1693
 10
332.397
 20
199.180
 30
0.000000
  70
    32
  0
VERTEX
  8
0
  5
1694
 10
332.369
 20
199.054
 30
0.000000
  70
    32
  0
VERTEX
  8
0
  5
1695
 10
332.339
 20
198.930
 30
0.000000
  70
    32
  0
VERTEX
  8
0
  5
1696
 10
332.306
 20
198.806
 30
0.000000
  70
    32
  0
VERTEX
  8
0
  5
1697
 10
332.270
 20
198.683
 30
0.000000
  70
    32
  0
VERTEX
  8
0
  5
1698
 10
332.231
 20
198.561
 30
0.000000
  70
    32
  0
VERTEX
  8
0
  5
1699
 10
332.190
 20
198.441
 30
0.000000
  70
    32
  0
VERTEX
  8
0
  5
169A
 10
332.146
 20
198.321
 30
0.000000
  70
    32
  0
VERTEX
  8
0
  5
169B
 10
332.099
 20
198.203
 30
0.000000
  70
    32
  0
VERTEX
  8
0
  5
169C
 10
332.050
 20
198.085
 30
0.000000
  70
    32
  0
VERTEX
  8
0
  5
169D
 10
331.998
 20
197.970
 30
0.000000
  70
    32
  0
VERTEX
  8
0
  5
169E
 10
331.943
 20
197.855
 30
0.000000
  70
    32
  0
VERTEX
  8
0
  5
169F
 10
331.885
 20
197.742
 30
0.000000
  70
    32
  0
VERTEX
  8
0
  5
16A0
 10
331.826
 20
197.631
 30
0.000000
  70
    32
  0
VERTEX
  8
0
  5
16A1
 10
331.763
 20
197.521
 30
0.000000
  70
    32
  0
VERTEX
  8
0
  5
16A2
 10
331.698
 20
197.413
 30
0.000000
  70
    32
  0
VERTEX
  8
0
  5
16A3
 10
331.631
 20
197.307
 30
0.000000
  70
    32
  0
VERTEX
  8
0
  5
16A4
 10
331.562
 20
197.203
 30
0.000000
  70
    32
  0
VERTEX
  8
0
  5
16A5
 10
331.490
 20
197.100
 30
0.000000
  70
    32
  0
VERTEX
  8
0
  5
16A6
 10
331.415
 20
197.000
 30
0.000000
  70
    32
  0
VERTEX
  8
0
  5
16A7
 10
331.339
 20
196.901
 30
0.000000
  70
    32
  0
VERTEX
  8
0
  5
16A8
 10
331.260
 20
196.804
 30
0.000000
  70
    32
  0
VERTEX
  8
0
  5
16A9
 10
331.179
 20
196.710
 30
0.000000
  70
    32
  0
VERTEX
  8
0
  5
16AA
 10
331.096
 20
196.618
 30
0.000000
  70
    32
  0
VERTEX
  8
0
  5
16AB
 10
331.011
 20
196.528
 30
0.000000
  70
    32
  0
VERTEX
  8
0
  5
16AC
 10
330.924
 20
196.440
 30
0.000000
  70
    32
  0
VERTEX
  8
0
  5
16AD
 10
330.835
 20
196.355
 30
0.000000
  70
    32
  0
VERTEX
  8
0
  5
16AE
 10
330.744
 20
196.272
 30
0.000000
  70
    32
  0
VERTEX
  8
0
  5
16AF
 10
330.651
 20
196.191
 30
0.000000
  70
    32
  0
VERTEX
  8
0
  5
16B0
 10
330.557
 20
196.113
 30
0.000000
  70
    32
  0
VERTEX
  8
0
  5
16B1
 10
330.461
 20
196.038
 30
0.000000
  70
    32
  0
VERTEX
  8
0
  5
16B2
 10
330.363
 20
195.965
 30
0.000000
  70
    32
  0
VERTEX
  8
0
  5
16B3
 10
330.263
 20
195.895
 30
0.000000
  70
    32
  0
VERTEX
  8
0
  5
16B4
 10
330.162
 20
195.827
 30
0.000000
  70
    32
  0
VERTEX
  8
0
  5
16B5
 10
330.059
 20
195.762
 30
0.000000
  70
    32
  0
VERTEX
  8
0
  5
16B6
 10
329.955
 20
195.700
 30
0.000000
  70
    32
  0
VERTEX
  8
0
  5
16B7
 10
329.850
 20
195.641
 30
0.000000
  70
    32
  0
VERTEX
  8
0
  5
16B8
 10
329.743
 20
195.584
 30
0.000000
  70
    32
  0
VERTEX
  8
0
  5
16B9
 10
329.635
 20
195.530
 30
0.000000
  70
    32
  0
VERTEX
  8
0
  5
16BA
 10
329.525
 20
195.480
 30
0.000000
  70
    32
  0
VERTEX
  8
0
  5
16BB
 10
329.415
 20
195.432
 30
0.000000
  70
    32
  0
VERTEX
  8
0
  5
16BC
 10
329.304
 20
195.387
 30
0.000000
  70
    32
  0
VERTEX
  8
0
  5
16BD
 10
329.191
 20
195.345
 30
0.000000
  70
    32
  0
VERTEX
  8
0
  5
16BE
 10
329.078
 20
195.306
 30
0.000000
  70
    32
  0
VERTEX
  8
0
  5
16BF
 10
328.964
 20
195.270
 30
0.000000
  70
    32
  0
VERTEX
  8
0
  5
16C0
 10
328.849
 20
195.237
 30
0.000000
  70
    32
  0
VERTEX
  8
0
  5
16C1
 10
328.733
 20
195.208
 30
0.000000
  70
    32
  0
VERTEX
  8
0
  5
16C2
 10
328.617
 20
195.181
 30
0.000000
  70
    32
  0
VERTEX
  8
0
  5
16C3
 10
328.500
 20
195.157
 30
0.000000
  70
    32
  0
VERTEX
  8
0
  5
16C4
 10
328.383
 20
195.137
 30
0.000000
  70
    32
  0
VERTEX
  8
0
  5
16C5
 10
328.265
 20
195.120
 30
0.000000
  70
    32
  0
VERTEX
  8
0
  5
16C6
 10
328.147
 20
195.105
 30
0.000000
  70
    32
  0
VERTEX
  8
0
  5
16C7
 10
328.029
 20
195.094
 30
0.000000
  70
    32
  0
VERTEX
  8
0
  5
16C8
 10
327.910
 20
195.086
 30
0.000000
  70
    32
  0
VERTEX
  8
0
  5
16C9
 10
327.791
 20
195.082
 30
0.000000
  70
    32
  0
VERTEX
  8
0
  5
16CA
 10
327.672
 20
195.080
 30
0.000000
  70
    32
  0
SEQEND
  8
0
  5
16CB
  0
POLYLINE
  5
133C
  8
0
 10
327.67246352655809
 20
195.08007070469944
 30
0.0
 66
     1
 70
     8
  0
VERTEX
  8
0
  5
16CC
 10
327.672
 20
195.080
 30
0.000000
  70
    32
  0
VERTEX
  8
0
  5
16CD
 10
327.568
 20
195.082
 30
0.000000
  70
    32
  0
VERTEX
  8
0
  5
16CE
 10
327.464
 20
195.086
 30
0.000000
  70
    32
  0
VERTEX
  8
0
  5
16CF
 10
327.360
 20
195.094
 30
0.000000
  70
    32
  0
VERTEX
  8
0
  5
16D0
 10
327.256
 20
195.105
 30
0.000000
  70
    32
  0
VERTEX
  8
0
  5
16D1
 10
327.152
 20
195.120
 30
0.000000
  70
    32
  0
VERTEX
  8
0
  5
16D2
 10
327.049
 20
195.137
 30
0.000000
  70
    32
  0
VERTEX
  8
0
  5
16D3
 10
326.946
 20
195.157
 30
0.000000
  70
    32
  0
VERTEX
  8
0
  5
16D4
 10
326.843
 20
195.181
 30
0.000000
  70
    32
  0
VERTEX
  8
0
  5
16D5
 10
326.741
 20
195.208
 30
0.000000
  70
    32
  0
VERTEX
  8
0
  5
16D6
 10
326.640
 20
195.237
 30
0.000000
  70
    32
  0
VERTEX
  8
0
  5
16D7
 10
326.539
 20
195.270
 30
0.000000
  70
    32
  0
VERTEX
  8
0
  5
16D8
 10
326.439
 20
195.306
 30
0.000000
  70
    32
  0
VERTEX
  8
0
  5
16D9
 10
326.339
 20
195.345
 30
0.000000
  70
    32
  0
VERTEX
  8
0
  5
16DA
 10
326.241
 20
195.387
 30
0.000000
  70
    32
  0
VERTEX
  8
0
  5
16DB
 10
326.143
 20
195.432
 30
0.000000
  70
    32
  0
VERTEX
  8
0
  5
16DC
 10
326.046
 20
195.480
 30
0.000000
  70
    32
  0
VERTEX
  8
0
  5
16DD
 10
325.950
 20
195.530
 30
0.000000
  70
    32
  0
VERTEX
  8
0
  5
16DE
 10
325.855
 20
195.584
 30
0.000000
  70
    32
  0
VERTEX
  8
0
  5
16DF
 10
325.762
 20
195.641
 30
0.000000
  70
    32
  0
VERTEX
  8
0
  5
16E0
 10
325.669
 20
195.700
 30
0.000000
  70
    32
  0
VERTEX
  8
0
  5
16E1
 10
325.578
 20
195.762
 30
0.000000
  70
    32
  0
VERTEX
  8
0
  5
16E2
 10
325.488
 20
195.827
 30
0.000000
  70
    32
  0
VERTEX
  8
0
  5
16E3
 10
325.399
 20
195.895
 30
0.000000
  70
    32
  0
VERTEX
  8
0
  5
16E4
 10
325.311
 20
195.965
 30
0.000000
  70
    32
  0
VERTEX
  8
0
  5
16E5
 10
325.225
 20
196.038
 30
0.000000
  70
    32
  0
VERTEX
  8
0
  5
16E6
 10
325.141
 20
196.113
 30
0.000000
  70
    32
  0
VERTEX
  8
0
  5
16E7
 10
325.058
 20
196.191
 30
0.000000
  70
    32
  0
VERTEX
  8
0
  5
16E8
 10
324.977
 20
196.272
 30
0.000000
  70
    32
  0
VERTEX
  8
0
  5
16E9
 10
324.897
 20
196.355
 30
0.000000
  70
    32
  0
VERTEX
  8
0
  5
16EA
 10
324.819
 20
196.440
 30
0.000000
  70
    32
  0
VERTEX
  8
0
  5
16EB
 10
324.742
 20
196.528
 30
0.000000
  70
    32
  0
VERTEX
  8
0
  5
16EC
 10
324.667
 20
196.618
 30
0.000000
  70
    32
  0
VERTEX
  8
0
  5
16ED
 10
324.595
 20
196.710
 30
0.000000
  70
    32
  0
VERTEX
  8
0
  5
16EE
 10
324.524
 20
196.804
 30
0.000000
  70
    32
  0
VERTEX
  8
0
  5
16EF
 10
324.455
 20
196.901
 30
0.000000
  70
    32
  0
VERTEX
  8
0
  5
16F0
 10
324.387
 20
197.000
 30
0.000000
  70
    32
  0
VERTEX
  8
0
  5
16F1
 10
324.322
 20
197.100
 30
0.000000
  70
    32
  0
VERTEX
  8
0
  5
16F2
 10
324.259
 20
197.203
 30
0.000000
  70
    32
  0
VERTEX
  8
0
  5
16F3
 10
324.198
 20
197.307
 30
0.000000
  70
    32
  0
VERTEX
  8
0
  5
16F4
 10
324.139
 20
197.413
 30
0.000000
  70
    32
  0
VERTEX
  8
0
  5
16F5
 10
324.082
 20
197.521
 30
0.000000
  70
    32
  0
VERTEX
  8
0
  5
16F6
 10
324.027
 20
197.631
 30
0.000000
  70
    32
  0
VERTEX
  8
0
  5
16F7
 10
323.975
 20
197.742
 30
0.000000
  70
    32
  0
VERTEX
  8
0
  5
16F8
 10
323.925
 20
197.855
 30
0.000000
  70
    32
  0
VERTEX
  8
0
  5
16F9
 10
323.877
 20
197.970
 30
0.000000
  70
    32
  0
VERTEX
  8
0
  5
16FA
 10
323.831
 20
198.085
 30
0.000000
  70
    32
  0
VERTEX
  8
0
  5
16FB
 10
323.787
 20
198.203
 30
0.000000
  70
    32
  0
VERTEX
  8
0
  5
16FC
 10
323.746
 20
198.321
 30
0.000000
  70
    32
  0
VERTEX
  8
0
  5
16FD
 10
323.708
 20
198.441
 30
0.000000
  70
    32
  0
VERTEX
  8
0
  5
16FE
 10
323.671
 20
198.561
 30
0.000000
  70
    32
  0
VERTEX
  8
0
  5
16FF
 10
323.637
 20
198.683
 30
0.000000
  70
    32
  0
VERTEX
  8
0
  5
1700
 10
323.606
 20
198.806
 30
0.000000
  70
    32
  0
VERTEX
  8
0
  5
1701
 10
323.577
 20
198.930
 30
0.000000
  70
    32
  0
VERTEX
  8
0
  5
1702
 10
323.550
 20
199.054
 30
0.000000
  70
    32
  0
VERTEX
  8
0
  5
1703
 10
323.526
 20
199.180
 30
0.000000
  70
    32
  0
VERTEX
  8
0
  5
1704
 10
323.504
 20
199.306
 30
0.000000
  70
    32
  0
VERTEX
  8
0
  5
1705
 10
323.485
 20
199.433
 30
0.000000
  70
    32
  0
VERTEX
  8
0
  5
1706
 10
323.469
 20
199.560
 30
0.000000
  70
    32
  0
VERTEX
  8
0
  5
1707
 10
323.455
 20
199.687
 30
0.000000
  70
    32
  0
VERTEX
  8
0
  5
1708
 10
323.443
 20
199.815
 30
0.000000
  70
    32
  0
VERTEX
  8
0
  5
1709
 10
323.434
 20
199.944
 30
0.000000
  70
    32
  0
VERTEX
  8
0
  5
170A
 10
323.428
 20
200.072
 30
0.000000
  70
    32
  0
VERTEX
  8
0
  5
170B
 10
323.424
 20
200.201
 30
0.000000
  70
    32
  0
VERTEX
  8
0
  5
170C
 10
323.423
 20
200.330
 30
0.000000
  70
    32
  0
VERTEX
  8
0
  5
170D
 10
323.424
 20
200.459
 30
0.000000
  70
    32
  0
VERTEX
  8
0
  5
170E
 10
323.428
 20
200.588
 30
0.000000
  70
    32
  0
VERTEX
  8
0
  5
170F
 10
323.434
 20
200.716
 30
0.000000
  70
    32
  0
VERTEX
  8
0
  5
1710
 10
323.443
 20
200.845
 30
0.000000
  70
    32
  0
VERTEX
  8
0
  5
1711
 10
323.455
 20
200.973
 30
0.000000
  70
    32
  0
VERTEX
  8
0
  5
1712
 10
323.469
 20
201.100
 30
0.000000
  70
    32
  0
VERTEX
  8
0
  5
1713
 10
323.485
 20
201.228
 30
0.000000
  70
    32
  0
VERTEX
  8
0
  5
1714
 10
323.504
 20
201.354
 30
0.000000
  70
    32
  0
VERTEX
  8
0
  5
1715
 10
323.526
 20
201.480
 30
0.000000
  70
    32
  0
VERTEX
  8
0
  5
1716
 10
323.550
 20
201.606
 30
0.000000
  70
    32
  0
VERTEX
  8
0
  5
1717
 10
323.577
 20
201.730
 30
0.000000
  70
    32
  0
VERTEX
  8
0
  5
1718
 10
323.606
 20
201.854
 30
0.000000
  70
    32
  0
VERTEX
  8
0
  5
1719
 10
323.637
 20
201.977
 30
0.000000
  70
    32
  0
VERTEX
  8
0
  5
171A
 10
323.671
 20
202.099
 30
0.000000
  70
    32
  0
VERTEX
  8
0
  5
171B
 10
323.708
 20
202.220
 30
0.000000
  70
    32
  0
VERTEX
  8
0
  5
171C
 10
323.746
 20
202.339
 30
0.000000
  70
    32
  0
VERTEX
  8
0
  5
171D
 10
323.787
 20
202.458
 30
0.000000
  70
    32
  0
VERTEX
  8
0
  5
171E
 10
323.831
 20
202.575
 30
0.000000
  70
    32
  0
VERTEX
  8
0
  5
171F
 10
323.877
 20
202.691
 30
0.000000
  70
    32
  0
VERTEX
  8
0
  5
1720
 10
323.925
 20
202.805
 30
0.000000
  70
    32
  0
VERTEX
  8
0
  5
1721
 10
323.975
 20
202.918
 30
0.000000
  70
    32
  0
VERTEX
  8
0
  5
1722
 10
324.027
 20
203.029
 30
0.000000
  70
    32
  0
VERTEX
  8
0
  5
1723
 10
324.082
 20
203.139
 30
0.000000
  70
    32
  0
VERTEX
  8
0
  5
1724
 10
324.139
 20
203.247
 30
0.000000
  70
    32
  0
VERTEX
  8
0
  5
1725
 10
324.198
 20
203.353
 30
0.000000
  70
    32
  0
VERTEX
  8
0
  5
1726
 10
324.259
 20
203.457
 30
0.000000
  70
    32
  0
VERTEX
  8
0
  5
1727
 10
324.322
 20
203.560
 30
0.000000
  70
    32
  0
VERTEX
  8
0
  5
1728
 10
324.387
 20
203.661
 30
0.000000
  70
    32
  0
VERTEX
  8
0
  5
1729
 10
324.455
 20
203.759
 30
0.000000
  70
    32
  0
VERTEX
  8
0
  5
172A
 10
324.524
 20
203.856
 30
0.000000
  70
    32
  0
VERTEX
  8
0
  5
172B
 10
324.595
 20
203.950
 30
0.000000
  70
    32
  0
VERTEX
  8
0
  5
172C
 10
324.667
 20
204.042
 30
0.000000
  70
    32
  0
VERTEX
  8
0
  5
172D
 10
324.742
 20
204.132
 30
0.000000
  70
    32
  0
VERTEX
  8
0
  5
172E
 10
324.819
 20
204.220
 30
0.000000
  70
    32
  0
VERTEX
  8
0
  5
172F
 10
324.897
 20
204.305
 30
0.000000
  70
    32
  0
VERTEX
  8
0
  5
1730
 10
324.977
 20
204.388
 30
0.000000
  70
    32
  0
VERTEX
  8
0
  5
1731
 10
325.058
 20
204.469
 30
0.000000
  70
    32
  0
VERTEX
  8
0
  5
1732
 10
325.141
 20
204.547
 30
0.000000
  70
    32
  0
VERTEX
  8
0
  5
1733
 10
325.225
 20
204.622
 30
0.000000
  70
    32
  0
VERTEX
  8
0
  5
1734
 10
325.311
 20
204.695
 30
0.000000
  70
    32
  0
VERTEX
  8
0
  5
1735
 10
325.399
 20
204.766
 30
0.000000
  70
    32
  0
VERTEX
  8
0
  5
1736
 10
325.488
 20
204.833
 30
0.000000
  70
    32
  0
VERTEX
  8
0
  5
1737
 10
325.578
 20
204.898
 30
0.000000
  70
    32
  0
VERTEX
  8
0
  5
1738
 10
325.669
 20
204.960
 30
0.000000
  70
    32
  0
VERTEX
  8
0
  5
1739
 10
325.762
 20
205.019
 30
0.000000
  70
    32
  0
VERTEX
  8
0
  5
173A
 10
325.855
 20
205.076
 30
0.000000
  70
    32
  0
VERTEX
  8
0
  5
173B
 10
325.950
 20
205.130
 30
0.000000
  70
    32
  0
VERTEX
  8
0
  5
173C
 10
326.046
 20
205.180
 30
0.000000
  70
    32
  0
VERTEX
  8
0
  5
173D
 10
326.143
 20
205.228
 30
0.000000
  70
    32
  0
VERTEX
  8
0
  5
173E
 10
326.241
 20
205.273
 30
0.000000
  70
    32
  0
VERTEX
  8
0
  5
173F
 10
326.339
 20
205.315
 30
0.000000
  70
    32
  0
VERTEX
  8
0
  5
1740
 10
326.439
 20
205.354
 30
0.000000
  70
    32
  0
VERTEX
  8
0
  5
1741
 10
326.539
 20
205.390
 30
0.000000
  70
    32
  0
VERTEX
  8
0
  5
1742
 10
326.640
 20
205.423
 30
0.000000
  70
    32
  0
VERTEX
  8
0
  5
1743
 10
326.741
 20
205.453
 30
0.000000
  70
    32
  0
VERTEX
  8
0
  5
1744
 10
326.843
 20
205.479
 30
0.000000
  70
    32
  0
VERTEX
  8
0
  5
1745
 10
326.946
 20
205.503
 30
0.000000
  70
    32
  0
VERTEX
  8
0
  5
1746
 10
327.049
 20
205.523
 30
0.000000
  70
    32
  0
VERTEX
  8
0
  5
1747
 10
327.152
 20
205.541
 30
0.000000
  70
    32
  0
VERTEX
  8
0
  5
1748
 10
327.256
 20
205.555
 30
0.000000
  70
    32
  0
VERTEX
  8
0
  5
1749
 10
327.360
 20
205.566
 30
0.000000
  70
    32
  0
VERTEX
  8
0
  5
174A
 10
327.464
 20
205.574
 30
0.000000
  70
    32
  0
VERTEX
  8
0
  5
174B
 10
327.568
 20
205.578
 30
0.000000
  70
    32
  0
VERTEX
  8
0
  5
174C
 10
327.672
 20
205.580
 30
0.000000
  70
    32
  0
SEQEND
  8
0
  5
174D
  0
POLYLINE
  5
133D
  8
3
 10
328.67246330869557
 20
203.33007070469938
 30
0.0
 66
     1
 70
     8
  0
VERTEX
  8
3
  5
174E
 10
328.672
 20
203.330
 30
0.000000
  70
    32
  0
VERTEX
  8
3
  5
174F
 10
328.730
 20
203.329
 30
0.000000
  70
    32
  0
VERTEX
  8
3
  5
1750
 10
328.787
 20
203.326
 30
0.000000
  70
    32
  0
VERTEX
  8
3
  5
1751
 10
328.844
 20
203.322
 30
0.000000
  70
    32
  0
VERTEX
  8
3
  5
1752
 10
328.901
 20
203.316
 30
0.000000
  70
    32
  0
VERTEX
  8
3
  5
1753
 10
328.957
 20
203.308
 30
0.000000
  70
    32
  0
VERTEX
  8
3
  5
1754
 10
329.014
 20
203.298
 30
0.000000
  70
    32
  0
VERTEX
  8
3
  5
1755
 10
329.070
 20
203.286
 30
0.000000
  70
    32
  0
VERTEX
  8
3
  5
1756
 10
329.127
 20
203.272
 30
0.000000
  70
    32
  0
VERTEX
  8
3
  5
1757
 10
329.182
 20
203.257
 30
0.000000
  70
    32
  0
VERTEX
  8
3
  5
1758
 10
329.238
 20
203.240
 30
0.000000
  70
    32
  0
VERTEX
  8
3
  5
1759
 10
329.293
 20
203.221
 30
0.000000
  70
    32
  0
VERTEX
  8
3
  5
175A
 10
329.348
 20
203.201
 30
0.000000
  70
    32
  0
VERTEX
  8
3
  5
175B
 10
329.403
 20
203.179
 30
0.000000
  70
    32
  0
VERTEX
  8
3
  5
175C
 10
329.457
 20
203.155
 30
0.000000
  70
    32
  0
VERTEX
  8
3
  5
175D
 10
329.510
 20
203.129
 30
0.000000
  70
    32
  0
VERTEX
  8
3
  5
175E
 10
329.563
 20
203.102
 30
0.000000
  70
    32
  0
VERTEX
  8
3
  5
175F
 10
329.616
 20
203.073
 30
0.000000
  70
    32
  0
VERTEX
  8
3
  5
1760
 10
329.668
 20
203.042
 30
0.000000
  70
    32
  0
VERTEX
  8
3
  5
1761
 10
329.719
 20
203.010
 30
0.000000
  70
    32
  0
VERTEX
  8
3
  5
1762
 10
329.770
 20
202.976
 30
0.000000
  70
    32
  0
VERTEX
  8
3
  5
1763
 10
329.820
 20
202.940
 30
0.000000
  70
    32
  0
VERTEX
  8
3
  5
1764
 10
329.869
 20
202.903
 30
0.000000
  70
    32
  0
VERTEX
  8
3
  5
1765
 10
329.918
 20
202.865
 30
0.000000
  70
    32
  0
VERTEX
  8
3
  5
1766
 10
329.965
 20
202.824
 30
0.000000
  70
    32
  0
VERTEX
  8
3
  5
1767
 10
330.013
 20
202.783
 30
0.000000
  70
    32
  0
VERTEX
  8
3
  5
1768
 10
330.059
 20
202.740
 30
0.000000
  70
    32
  0
VERTEX
  8
3
  5
1769
 10
330.104
 20
202.695
 30
0.000000
  70
    32
  0
VERTEX
  8
3
  5
176A
 10
330.149
 20
202.649
 30
0.000000
  70
    32
  0
VERTEX
  8
3
  5
176B
 10
330.193
 20
202.602
 30
0.000000
  70
    32
  0
VERTEX
  8
3
  5
176C
 10
330.235
 20
202.553
 30
0.000000
  70
    32
  0
VERTEX
  8
3
  5
176D
 10
330.277
 20
202.503
 30
0.000000
  70
    32
  0
VERTEX
  8
3
  5
176E
 10
330.318
 20
202.451
 30
0.000000
  70
    32
  0
VERTEX
  8
3
  5
176F
 10
330.358
 20
202.399
 30
0.000000
  70
    32
  0
VERTEX
  8
3
  5
1770
 10
330.397
 20
202.345
 30
0.000000
  70
    32
  0
VERTEX
  8
3
  5
1771
 10
330.435
 20
202.290
 30
0.000000
  70
    32
  0
VERTEX
  8
3
  5
1772
 10
330.472
 20
202.233
 30
0.000000
  70
    32
  0
VERTEX
  8
3
  5
1773
 10
330.507
 20
202.176
 30
0.000000
  70
    32
  0
VERTEX
  8
3
  5
1774
 10
330.542
 20
202.117
 30
0.000000
  70
    32
  0
VERTEX
  8
3
  5
1775
 10
330.575
 20
202.057
 30
0.000000
  70
    32
  0
VERTEX
  8
3
  5
1776
 10
330.608
 20
201.997
 30
0.000000
  70
    32
  0
VERTEX
  8
3
  5
1777
 10
330.639
 20
201.935
 30
0.000000
  70
    32
  0
VERTEX
  8
3
  5
1778
 10
330.669
 20
201.872
 30
0.000000
  70
    32
  0
VERTEX
  8
3
  5
1779
 10
330.697
 20
201.809
 30
0.000000
  70
    32
  0
VERTEX
  8
3
  5
177A
 10
330.725
 20
201.744
 30
0.000000
  70
    32
  0
VERTEX
  8
3
  5
177B
 10
330.751
 20
201.679
 30
0.000000
  70
    32
  0
VERTEX
  8
3
  5
177C
 10
330.776
 20
201.613
 30
0.000000
  70
    32
  0
VERTEX
  8
3
  5
177D
 10
330.800
 20
201.546
 30
0.000000
  70
    32
  0
VERTEX
  8
3
  5
177E
 10
330.823
 20
201.478
 30
0.000000
  70
    32
  0
VERTEX
  8
3
  5
177F
 10
330.844
 20
201.410
 30
0.000000
  70
    32
  0
VERTEX
  8
3
  5
1780
 10
330.864
 20
201.341
 30
0.000000
  70
    32
  0
VERTEX
  8
3
  5
1781
 10
330.882
 20
201.271
 30
0.000000
  70
    32
  0
VERTEX
  8
3
  5
1782
 10
330.900
 20
201.201
 30
0.000000
  70
    32
  0
VERTEX
  8
3
  5
1783
 10
330.915
 20
201.130
 30
0.000000
  70
    32
  0
VERTEX
  8
3
  5
1784
 10
330.930
 20
201.059
 30
0.000000
  70
    32
  0
VERTEX
  8
3
  5
1785
 10
330.943
 20
200.987
 30
0.000000
  70
    32
  0
VERTEX
  8
3
  5
1786
 10
330.955
 20
200.915
 30
0.000000
  70
    32
  0
VERTEX
  8
3
  5
1787
 10
330.966
 20
200.843
 30
0.000000
  70
    32
  0
VERTEX
  8
3
  5
1788
 10
330.975
 20
200.770
 30
0.000000
  70
    32
  0
VERTEX
  8
3
  5
1789
 10
330.982
 20
200.697
 30
0.000000
  70
    32
  0
VERTEX
  8
3
  5
178A
 10
330.989
 20
200.624
 30
0.000000
  70
    32
  0
VERTEX
  8
3
  5
178B
 10
330.993
 20
200.551
 30
0.000000
  70
    32
  0
VERTEX
  8
3
  5
178C
 10
330.997
 20
200.477
 30
0.000000
  70
    32
  0
VERTEX
  8
3
  5
178D
 10
330.999
 20
200.404
 30
0.000000
  70
    32
  0
VERTEX
  8
3
  5
178E
 10
331.000
 20
200.330
 30
0.000000
  70
    32
  0
VERTEX
  8
3
  5
178F
 10
330.999
 20
200.256
 30
0.000000
  70
    32
  0
VERTEX
  8
3
  5
1790
 10
330.997
 20
200.183
 30
0.000000
  70
    32
  0
VERTEX
  8
3
  5
1791
 10
330.993
 20
200.109
 30
0.000000
  70
    32
  0
VERTEX
  8
3
  5
1792
 10
330.989
 20
200.036
 30
0.000000
  70
    32
  0
VERTEX
  8
3
  5
1793
 10
330.982
 20
199.963
 30
0.000000
  70
    32
  0
VERTEX
  8
3
  5
1794
 10
330.975
 20
199.890
 30
0.000000
  70
    32
  0
VERTEX
  8
3
  5
1795
 10
330.966
 20
199.817
 30
0.000000
  70
    32
  0
VERTEX
  8
3
  5
1796
 10
330.955
 20
199.745
 30
0.000000
  70
    32
  0
VERTEX
  8
3
  5
1797
 10
330.943
 20
199.673
 30
0.000000
  70
    32
  0
VERTEX
  8
3
  5
1798
 10
330.930
 20
199.601
 30
0.000000
  70
    32
  0
VERTEX
  8
3
  5
1799
 10
330.915
 20
199.530
 30
0.000000
  70
    32
  0
VERTEX
  8
3
  5
179A
 10
330.900
 20
199.459
 30
0.000000
  70
    32
  0
VERTEX
  8
3
  5
179B
 10
330.882
 20
199.389
 30
0.000000
  70
    32
  0
VERTEX
  8
3
  5
179C
 10
330.864
 20
199.319
 30
0.000000
  70
    32
  0
VERTEX
  8
3
  5
179D
 10
330.844
 20
199.250
 30
0.000000
  70
    32
  0
VERTEX
  8
3
  5
179E
 10
330.823
 20
199.182
 30
0.000000
  70
    32
  0
VERTEX
  8
3
  5
179F
 10
330.800
 20
199.114
 30
0.000000
  70
    32
  0
VERTEX
  8
3
  5
17A0
 10
330.776
 20
199.047
 30
0.000000
  70
    32
  0
VERTEX
  8
3
  5
17A1
 10
330.751
 20
198.981
 30
0.000000
  70
    32
  0
VERTEX
  8
3
  5
17A2
 10
330.725
 20
198.916
 30
0.000000
  70
    32
  0
VERTEX
  8
3
  5
17A3
 10
330.697
 20
198.851
 30
0.000000
  70
    32
  0
VERTEX
  8
3
  5
17A4
 10
330.669
 20
198.788
 30
0.000000
  70
    32
  0
VERTEX
  8
3
  5
17A5
 10
330.639
 20
198.725
 30
0.000000
  70
    32
  0
VERTEX
  8
3
  5
17A6
 10
330.608
 20
198.663
 30
0.000000
  70
    32
  0
VERTEX
  8
3
  5
17A7
 10
330.575
 20
198.603
 30
0.000000
  70
    32
  0
VERTEX
  8
3
  5
17A8
 10
330.542
 20
198.543
 30
0.000000
  70
    32
  0
VERTEX
  8
3
  5
17A9
 10
330.507
 20
198.484
 30
0.000000
  70
    32
  0
VERTEX
  8
3
  5
17AA
 10
330.472
 20
198.427
 30
0.000000
  70
    32
  0
VERTEX
  8
3
  5
17AB
 10
330.435
 20
198.371
 30
0.000000
  70
    32
  0
VERTEX
  8
3
  5
17AC
 10
330.397
 20
198.315
 30
0.000000
  70
    32
  0
VERTEX
  8
3
  5
17AD
 10
330.358
 20
198.261
 30
0.000000
  70
    32
  0
VERTEX
  8
3
  5
17AE
 10
330.318
 20
198.209
 30
0.000000
  70
    32
  0
VERTEX
  8
3
  5
17AF
 10
330.277
 20
198.157
 30
0.000000
  70
    32
  0
VERTEX
  8
3
  5
17B0
 10
330.235
 20
198.107
 30
0.000000
  70
    32
  0
VERTEX
  8
3
  5
17B1
 10
330.193
 20
198.058
 30
0.000000
  70
    32
  0
VERTEX
  8
3
  5
17B2
 10
330.149
 20
198.011
 30
0.000000
  70
    32
  0
VERTEX
  8
3
  5
17B3
 10
330.104
 20
197.965
 30
0.000000
  70
    32
  0
VERTEX
  8
3
  5
17B4
 10
330.059
 20
197.920
 30
0.000000
  70
    32
  0
VERTEX
  8
3
  5
17B5
 10
330.013
 20
197.877
 30
0.000000
  70
    32
  0
VERTEX
  8
3
  5
17B6
 10
329.965
 20
197.836
 30
0.000000
  70
    32
  0
VERTEX
  8
3
  5
17B7
 10
329.918
 20
197.796
 30
0.000000
  70
    32
  0
VERTEX
  8
3
  5
17B8
 10
329.869
 20
197.757
 30
0.000000
  70
    32
  0
VERTEX
  8
3
  5
17B9
 10
329.820
 20
197.720
 30
0.000000
  70
    32
  0
VERTEX
  8
3
  5
17BA
 10
329.770
 20
197.684
 30
0.000000
  70
    32
  0
VERTEX
  8
3
  5
17BB
 10
329.719
 20
197.650
 30
0.000000
  70
    32
  0
VERTEX
  8
3
  5
17BC
 10
329.668
 20
197.618
 30
0.000000
  70
    32
  0
VERTEX
  8
3
  5
17BD
 10
329.616
 20
197.587
 30
0.000000
  70
    32
  0
VERTEX
  8
3
  5
17BE
 10
329.563
 20
197.558
 30
0.000000
  70
    32
  0
VERTEX
  8
3
  5
17BF
 10
329.510
 20
197.531
 30
0.000000
  70
    32
  0
VERTEX
  8
3
  5
17C0
 10
329.457
 20
197.505
 30
0.000000
  70
    32
  0
VERTEX
  8
3
  5
17C1
 10
329.403
 20
197.481
 30
0.000000
  70
    32
  0
VERTEX
  8
3
  5
17C2
 10
329.348
 20
197.459
 30
0.000000
  70
    32
  0
VERTEX
  8
3
  5
17C3
 10
329.293
 20
197.439
 30
0.000000
  70
    32
  0
VERTEX
  8
3
  5
17C4
 10
329.238
 20
197.420
 30
0.000000
  70
    32
  0
VERTEX
  8
3
  5
17C5
 10
329.182
 20
197.403
 30
0.000000
  70
    32
  0
VERTEX
  8
3
  5
17C6
 10
329.127
 20
197.388
 30
0.000000
  70
    32
  0
VERTEX
  8
3
  5
17C7
 10
329.070
 20
197.374
 30
0.000000
  70
    32
  0
VERTEX
  8
3
  5
17C8
 10
329.014
 20
197.363
 30
0.000000
  70
    32
  0
VERTEX
  8
3
  5
17C9
 10
328.957
 20
197.353
 30
0.000000
  70
    32
  0
VERTEX
  8
3
  5
17CA
 10
328.901
 20
197.345
 30
0.000000
  70
    32
  0
VERTEX
  8
3
  5
17CB
 10
328.844
 20
197.338
 30
0.000000
  70
    32
  0
VERTEX
  8
3
  5
17CC
 10
328.787
 20
197.334
 30
0.000000
  70
    32
  0
VERTEX
  8
3
  5
17CD
 10
328.730
 20
197.331
 30
0.000000
  70
    32
  0
VERTEX
  8
3
  5
17CE
 10
328.672
 20
197.330
 30
0.000000
  70
    32
  0
SEQEND
  8
3
  5
17CF
  0
POLYLINE
  5
133E
  8
3
 10
328.67246330869546
 20
197.33007070469944
 30
0.0
 66
     1
 70
     8
  0
VERTEX
  8
3
  5
17D0
 10
328.672
 20
197.330
 30
0.000000
  70
    32
  0
VERTEX
  8
3
  5
17D1
 10
328.602
 20
197.331
 30
0.000000
  70
    32
  0
VERTEX
  8
3
  5
17D2
 10
328.532
 20
197.334
 30
0.000000
  70
    32
  0
VERTEX
  8
3
  5
17D3
 10
328.461
 20
197.338
 30
0.000000
  70
    32
  0
VERTEX
  8
3
  5
17D4
 10
328.391
 20
197.345
 30
0.000000
  70
    32
  0
VERTEX
  8
3
  5
17D5
 10
328.321
 20
197.353
 30
0.000000
  70
    32
  0
VERTEX
  8
3
  5
17D6
 10
328.252
 20
197.363
 30
0.000000
  70
    32
  0
VERTEX
  8
3
  5
17D7
 10
328.182
 20
197.374
 30
0.000000
  70
    32
  0
VERTEX
  8
3
  5
17D8
 10
328.113
 20
197.388
 30
0.000000
  70
    32
  0
VERTEX
  8
3
  5
17D9
 10
328.044
 20
197.403
 30
0.000000
  70
    32
  0
VERTEX
  8
3
  5
17DA
 10
327.975
 20
197.420
 30
0.000000
  70
    32
  0
VERTEX
  8
3
  5
17DB
 10
327.907
 20
197.439
 30
0.000000
  70
    32
  0
VERTEX
  8
3
  5
17DC
 10
327.840
 20
197.459
 30
0.000000
  70
    32
  0
VERTEX
  8
3
  5
17DD
 10
327.773
 20
197.481
 30
0.000000
  70
    32
  0
VERTEX
  8
3
  5
17DE
 10
327.706
 20
197.505
 30
0.000000
  70
    32
  0
VERTEX
  8
3
  5
17DF
 10
327.640
 20
197.531
 30
0.000000
  70
    32
  0
VERTEX
  8
3
  5
17E0
 10
327.575
 20
197.558
 30
0.000000
  70
    32
  0
VERTEX
  8
3
  5
17E1
 10
327.510
 20
197.587
 30
0.000000
  70
    32
  0
VERTEX
  8
3
  5
17E2
 10
327.446
 20
197.618
 30
0.000000
  70
    32
  0
VERTEX
  8
3
  5
17E3
 10
327.383
 20
197.650
 30
0.000000
  70
    32
  0
VERTEX
  8
3
  5
17E4
 10
327.320
 20
197.684
 30
0.000000
  70
    32
  0
VERTEX
  8
3
  5
17E5
 10
327.258
 20
197.720
 30
0.000000
  70
    32
  0
VERTEX
  8
3
  5
17E6
 10
327.198
 20
197.757
 30
0.000000
  70
    32
  0
VERTEX
  8
3
  5
17E7
 10
327.138
 20
197.796
 30
0.000000
  70
    32
  0
VERTEX
  8
3
  5
17E8
 10
327.079
 20
197.836
 30
0.000000
  70
    32
  0
VERTEX
  8
3
  5
17E9
 10
327.021
 20
197.877
 30
0.000000
  70
    32
  0
VERTEX
  8
3
  5
17EA
 10
326.964
 20
197.920
 30
0.000000
  70
    32
  0
VERTEX
  8
3
  5
17EB
 10
326.907
 20
197.965
 30
0.000000
  70
    32
  0
VERTEX
  8
3
  5
17EC
 10
326.852
 20
198.011
 30
0.000000
  70
    32
  0
VERTEX
  8
3
  5
17ED
 10
326.799
 20
198.058
 30
0.000000
  70
    32
  0
VERTEX
  8
3
  5
17EE
 10
326.746
 20
198.107
 30
0.000000
  70
    32
  0
VERTEX
  8
3
  5
17EF
 10
326.694
 20
198.157
 30
0.000000
  70
    32
  0
VERTEX
  8
3
  5
17F0
 10
326.644
 20
198.209
 30
0.000000
  70
    32
  0
VERTEX
  8
3
  5
17F1
 10
326.595
 20
198.261
 30
0.000000
  70
    32
  0
VERTEX
  8
3
  5
17F2
 10
326.547
 20
198.315
 30
0.000000
  70
    32
  0
VERTEX
  8
3
  5
17F3
 10
326.500
 20
198.371
 30
0.000000
  70
    32
  0
VERTEX
  8
3
  5
17F4
 10
326.455
 20
198.427
 30
0.000000
  70
    32
  0
VERTEX
  8
3
  5
17F5
 10
326.411
 20
198.484
 30
0.000000
  70
    32
  0
VERTEX
  8
3
  5
17F6
 10
326.368
 20
198.543
 30
0.000000
  70
    32
  0
VERTEX
  8
3
  5
17F7
 10
326.327
 20
198.603
 30
0.000000
  70
    32
  0
VERTEX
  8
3
  5
17F8
 10
326.287
 20
198.663
 30
0.000000
  70
    32
  0
VERTEX
  8
3
  5
17F9
 10
326.249
 20
198.725
 30
0.000000
  70
    32
  0
VERTEX
  8
3
  5
17FA
 10
326.212
 20
198.788
 30
0.000000
  70
    32
  0
VERTEX
  8
3
  5
17FB
 10
326.176
 20
198.851
 30
0.000000
  70
    32
  0
VERTEX
  8
3
  5
17FC
 10
326.142
 20
198.916
 30
0.000000
  70
    32
  0
VERTEX
  8
3
  5
17FD
 10
326.110
 20
198.981
 30
0.000000
  70
    32
  0
VERTEX
  8
3
  5
17FE
 10
326.079
 20
199.047
 30
0.000000
  70
    32
  0
VERTEX
  8
3
  5
17FF
 10
326.050
 20
199.114
 30
0.000000
  70
    32
  0
VERTEX
  8
3
  5
1800
 10
326.022
 20
199.182
 30
0.000000
  70
    32
  0
VERTEX
  8
3
  5
1801
 10
325.996
 20
199.250
 30
0.000000
  70
    32
  0
VERTEX
  8
3
  5
1802
 10
325.971
 20
199.319
 30
0.000000
  70
    32
  0
VERTEX
  8
3
  5
1803
 10
325.948
 20
199.389
 30
0.000000
  70
    32
  0
VERTEX
  8
3
  5
1804
 10
325.927
 20
199.459
 30
0.000000
  70
    32
  0
VERTEX
  8
3
  5
1805
 10
325.908
 20
199.530
 30
0.000000
  70
    32
  0
VERTEX
  8
3
  5
1806
 10
325.890
 20
199.601
 30
0.000000
  70
    32
  0
VERTEX
  8
3
  5
1807
 10
325.873
 20
199.673
 30
0.000000
  70
    32
  0
VERTEX
  8
3
  5
1808
 10
325.859
 20
199.745
 30
0.000000
  70
    32
  0
VERTEX
  8
3
  5
1809
 10
325.846
 20
199.817
 30
0.000000
  70
    32
  0
VERTEX
  8
3
  5
180A
 10
325.835
 20
199.890
 30
0.000000
  70
    32
  0
VERTEX
  8
3
  5
180B
 10
325.825
 20
199.963
 30
0.000000
  70
    32
  0
VERTEX
  8
3
  5
180C
 10
325.817
 20
200.036
 30
0.000000
  70
    32
  0
VERTEX
  8
3
  5
180D
 10
325.811
 20
200.109
 30
0.000000
  70
    32
  0
VERTEX
  8
3
  5
180E
 10
325.807
 20
200.183
 30
0.000000
  70
    32
  0
VERTEX
  8
3
  5
180F
 10
325.805
 20
200.256
 30
0.000000
  70
    32
  0
VERTEX
  8
3
  5
1810
 10
325.804
 20
200.330
 30
0.000000
  70
    32
  0
VERTEX
  8
3
  5
1811
 10
325.805
 20
200.404
 30
0.000000
  70
    32
  0
VERTEX
  8
3
  5
1812
 10
325.807
 20
200.477
 30
0.000000
  70
    32
  0
VERTEX
  8
3
  5
1813
 10
325.811
 20
200.551
 30
0.000000
  70
    32
  0
VERTEX
  8
3
  5
1814
 10
325.817
 20
200.624
 30
0.000000
  70
    32
  0
VERTEX
  8
3
  5
1815
 10
325.825
 20
200.697
 30
0.000000
  70
    32
  0
VERTEX
  8
3
  5
1816
 10
325.835
 20
200.770
 30
0.000000
  70
    32
  0
VERTEX
  8
3
  5
1817
 10
325.846
 20
200.843
 30
0.000000
  70
    32
  0
VERTEX
  8
3
  5
1818
 10
325.859
 20
200.915
 30
0.000000
  70
    32
  0
VERTEX
  8
3
  5
1819
 10
325.873
 20
200.987
 30
0.000000
  70
    32
  0
VERTEX
  8
3
  5
181A
 10
325.890
 20
201.059
 30
0.000000
  70
    32
  0
VERTEX
  8
3
  5
181B
 10
325.908
 20
201.130
 30
0.000000
  70
    32
  0
VERTEX
  8
3
  5
181C
 10
325.927
 20
201.201
 30
0.000000
  70
    32
  0
VERTEX
  8
3
  5
181D
 10
325.948
 20
201.271
 30
0.000000
  70
    32
  0
VERTEX
  8
3
  5
181E
 10
325.971
 20
201.341
 30
0.000000
  70
    32
  0
VERTEX
  8
3
  5
181F
 10
325.996
 20
201.410
 30
0.000000
  70
    32
  0
VERTEX
  8
3
  5
1820
 10
326.022
 20
201.478
 30
0.000000
  70
    32
  0
VERTEX
  8
3
  5
1821
 10
326.050
 20
201.546
 30
0.000000
  70
    32
  0
VERTEX
  8
3
  5
1822
 10
326.079
 20
201.613
 30
0.000000
  70
    32
  0
VERTEX
  8
3
  5
1823
 10
326.110
 20
201.679
 30
0.000000
  70
    32
  0
VERTEX
  8
3
  5
1824
 10
326.142
 20
201.744
 30
0.000000
  70
    32
  0
VERTEX
  8
3
  5
1825
 10
326.176
 20
201.809
 30
0.000000
  70
    32
  0
VERTEX
  8
3
  5
1826
 10
326.212
 20
201.872
 30
0.000000
  70
    32
  0
VERTEX
  8
3
  5
1827
 10
326.249
 20
201.935
 30
0.000000
  70
    32
  0
VERTEX
  8
3
  5
1828
 10
326.287
 20
201.997
 30
0.000000
  70
    32
  0
VERTEX
  8
3
  5
1829
 10
326.327
 20
202.057
 30
0.000000
  70
    32
  0
VERTEX
  8
3
  5
182A
 10
326.368
 20
202.117
 30
0.000000
  70
    32
  0
VERTEX
  8
3
  5
182B
 10
326.411
 20
202.176
 30
0.000000
  70
    32
  0
VERTEX
  8
3
  5
182C
 10
326.455
 20
202.233
 30
0.000000
  70
    32
  0
VERTEX
  8
3
  5
182D
 10
326.500
 20
202.290
 30
0.000000
  70
    32
  0
VERTEX
  8
3
  5
182E
 10
326.547
 20
202.345
 30
0.000000
  70
    32
  0
VERTEX
  8
3
  5
182F
 10
326.595
 20
202.399
 30
0.000000
  70
    32
  0
VERTEX
  8
3
  5
1830
 10
326.644
 20
202.451
 30
0.000000
  70
    32
  0
VERTEX
  8
3
  5
1831
 10
326.694
 20
202.503
 30
0.000000
  70
    32
  0
VERTEX
  8
3
  5
1832
 10
326.746
 20
202.553
 30
0.000000
  70
    32
  0
VERTEX
  8
3
  5
1833
 10
326.799
 20
202.602
 30
0.000000
  70
    32
  0
VERTEX
  8
3
  5
1834
 10
326.852
 20
202.649
 30
0.000000
  70
    32
  0
VERTEX
  8
3
  5
1835
 10
326.907
 20
202.695
 30
0.000000
  70
    32
  0
VERTEX
  8
3
  5
1836
 10
326.964
 20
202.740
 30
0.000000
  70
    32
  0
VERTEX
  8
3
  5
1837
 10
327.021
 20
202.783
 30
0.000000
  70
    32
  0
VERTEX
  8
3
  5
1838
 10
327.079
 20
202.824
 30
0.000000
  70
    32
  0
VERTEX
  8
3
  5
1839
 10
327.138
 20
202.865
 30
0.000000
  70
    32
  0
VERTEX
  8
3
  5
183A
 10
327.198
 20
202.903
 30
0.000000
  70
    32
  0
VERTEX
  8
3
  5
183B
 10
327.258
 20
202.940
 30
0.000000
  70
    32
  0
VERTEX
  8
3
  5
183C
 10
327.320
 20
202.976
 30
0.000000
  70
    32
  0
VERTEX
  8
3
  5
183D
 10
327.383
 20
203.010
 30
0.000000
  70
    32
  0
VERTEX
  8
3
  5
183E
 10
327.446
 20
203.042
 30
0.000000
  70
    32
  0
VERTEX
  8
3
  5
183F
 10
327.510
 20
203.073
 30
0.000000
  70
    32
  0
VERTEX
  8
3
  5
1840
 10
327.575
 20
203.102
 30
0.000000
  70
    32
  0
VERTEX
  8
3
  5
1841
 10
327.640
 20
203.129
 30
0.000000
  70
    32
  0
VERTEX
  8
3
  5
1842
 10
327.706
 20
203.155
 30
0.000000
  70
    32
  0
VERTEX
  8
3
  5
1843
 10
327.773
 20
203.179
 30
0.000000
  70
    32
  0
VERTEX
  8
3
  5
1844
 10
327.840
 20
203.201
 30
0.000000
  70
    32
  0
VERTEX
  8
3
  5
1845
 10
327.907
 20
203.221
 30
0.000000
  70
    32
  0
VERTEX
  8
3
  5
1846
 10
327.975
 20
203.240
 30
0.000000
  70
    32
  0
VERTEX
  8
3
  5
1847
 10
328.044
 20
203.257
 30
0.000000
  70
    32
  0
VERTEX
  8
3
  5
1848
 10
328.113
 20
203.272
 30
0.000000
  70
    32
  0
VERTEX
  8
3
  5
1849
 10
328.182
 20
203.286
 30
0.000000
  70
    32
  0
VERTEX
  8
3
  5
184A
 10
328.252
 20
203.298
 30
0.000000
  70
    32
  0
VERTEX
  8
3
  5
184B
 10
328.321
 20
203.308
 30
0.000000
  70
    32
  0
VERTEX
  8
3
  5
184C
 10
328.391
 20
203.316
 30
0.000000
  70
    32
  0
VERTEX
  8
3
  5
184D
 10
328.461
 20
203.322
 30
0.000000
  70
    32
  0
VERTEX
  8
3
  5
184E
 10
328.532
 20
203.326
 30
0.000000
  70
    32
  0
VERTEX
  8
3
  5
184F
 10
328.602
 20
203.329
 30
0.000000
  70
    32
  0
VERTEX
  8
3
  5
1850
 10
328.672
 20
203.330
 30
0.000000
  70
    32
  0
SEQEND
  8
3
  5
1851
  0
POLYLINE
  5
133F
  8
0
 10
328.67246330869551
 20
202.7885707046994
 30
0.0
 66
     1
 70
     8
  0
VERTEX
  8
0
  5
1852
 10
328.672
 20
202.789
 30
0.000000
  70
    32
  0
VERTEX
  8
0
  5
1853
 10
328.777
 20
202.786
 30
0.000000
  70
    32
  0
VERTEX
  8
0
  5
1854
 10
328.881
 20
202.777
 30
0.000000
  70
    32
  0
VERTEX
  8
0
  5
1855
 10
328.985
 20
202.762
 30
0.000000
  70
    32
  0
VERTEX
  8
0
  5
1856
 10
329.088
 20
202.741
 30
0.000000
  70
    32
  0
VERTEX
  8
0
  5
1857
 10
329.190
 20
202.715
 30
0.000000
  70
    32
  0
VERTEX
  8
0
  5
1858
 10
329.291
 20
202.683
 30
0.000000
  70
    32
  0
VERTEX
  8
0
  5
1859
 10
329.390
 20
202.645
 30
0.000000
  70
    32
  0
VERTEX
  8
0
  5
185A
 10
329.487
 20
202.601
 30
0.000000
  70
    32
  0
VERTEX
  8
0
  5
185B
 10
329.583
 20
202.553
 30
0.000000
  70
    32
  0
VERTEX
  8
0
  5
185C
 10
329.676
 20
202.498
 30
0.000000
  70
    32
  0
VERTEX
  8
0
  5
185D
 10
329.767
 20
202.439
 30
0.000000
  70
    32
  0
VERTEX
  8
0
  5
185E
 10
329.855
 20
202.374
 30
0.000000
  70
    32
  0
VERTEX
  8
0
  5
185F
 10
329.941
 20
202.305
 30
0.000000
  70
    32
  0
VERTEX
  8
0
  5
1860
 10
330.023
 20
202.231
 30
0.000000
  70
    32
  0
VERTEX
  8
0
  5
1861
 10
330.102
 20
202.152
 30
0.000000
  70
    32
  0
VERTEX
  8
0
  5
1862
 10
330.178
 20
202.068
 30
0.000000
  70
    32
  0
VERTEX
  8
0
  5
1863
 10
330.250
 20
201.981
 30
0.000000
  70
    32
  0
VERTEX
  8
0
  5
1864
 10
330.318
 20
201.890
 30
0.000000
  70
    32
  0
VERTEX
  8
0
  5
1865
 10
330.383
 20
201.795
 30
0.000000
  70
    32
  0
VERTEX
  8
0
  5
1866
 10
330.443
 20
201.696
 30
0.000000
  70
    32
  0
VERTEX
  8
0
  5
1867
 10
330.499
 20
201.594
 30
0.000000
  70
    32
  0
VERTEX
  8
0
  5
1868
 10
330.550
 20
201.489
 30
0.000000
  70
    32
  0
VERTEX
  8
0
  5
1869
 10
330.597
 20
201.381
 30
0.000000
  70
    32
  0
VERTEX
  8
0
  5
186A
 10
330.640
 20
201.271
 30
0.000000
  70
    32
  0
VERTEX
  8
0
  5
186B
 10
330.677
 20
201.158
 30
0.000000
  70
    32
  0
VERTEX
  8
0
  5
186C
 10
330.710
 20
201.044
 30
0.000000
  70
    32
  0
VERTEX
  8
0
  5
186D
 10
330.738
 20
200.927
 30
0.000000
  70
    32
  0
VERTEX
  8
0
  5
186E
 10
330.761
 20
200.810
 30
0.000000
  70
    32
  0
VERTEX
  8
0
  5
186F
 10
330.779
 20
200.691
 30
0.000000
  70
    32
  0
VERTEX
  8
0
  5
1870
 10
330.791
 20
200.571
 30
0.000000
  70
    32
  0
VERTEX
  8
0
  5
1871
 10
330.799
 20
200.451
 30
0.000000
  70
    32
  0
VERTEX
  8
0
  5
1872
 10
330.802
 20
200.330
 30
0.000000
  70
    32
  0
VERTEX
  8
0
  5
1873
 10
330.799
 20
200.209
 30
0.000000
  70
    32
  0
VERTEX
  8
0
  5
1874
 10
330.791
 20
200.089
 30
0.000000
  70
    32
  0
VERTEX
  8
0
  5
1875
 10
330.779
 20
199.969
 30
0.000000
  70
    32
  0
VERTEX
  8
0
  5
1876
 10
330.761
 20
199.850
 30
0.000000
  70
    32
  0
VERTEX
  8
0
  5
1877
 10
330.738
 20
199.733
 30
0.000000
  70
    32
  0
VERTEX
  8
0
  5
1878
 10
330.710
 20
199.616
 30
0.000000
  70
    32
  0
VERTEX
  8
0
  5
1879
 10
330.677
 20
199.502
 30
0.000000
  70
    32
  0
VERTEX
  8
0
  5
187A
 10
330.640
 20
199.389
 30
0.000000
  70
    32
  0
VERTEX
  8
0
  5
187B
 10
330.597
 20
199.279
 30
0.000000
  70
    32
  0
VERTEX
  8
0
  5
187C
 10
330.550
 20
199.171
 30
0.000000
  70
    32
  0
VERTEX
  8
0
  5
187D
 10
330.499
 20
199.066
 30
0.000000
  70
    32
  0
VERTEX
  8
0
  5
187E
 10
330.443
 20
198.964
 30
0.000000
  70
    32
  0
VERTEX
  8
0
  5
187F
 10
330.383
 20
198.866
 30
0.000000
  70
    32
  0
VERTEX
  8
0
  5
1880
 10
330.318
 20
198.770
 30
0.000000
  70
    32
  0
VERTEX
  8
0
  5
1881
 10
330.250
 20
198.679
 30
0.000000
  70
    32
  0
VERTEX
  8
0
  5
1882
 10
330.178
 20
198.592
 30
0.000000
  70
    32
  0
VERTEX
  8
0
  5
1883
 10
330.102
 20
198.508
 30
0.000000
  70
    32
  0
VERTEX
  8
0
  5
1884
 10
330.023
 20
198.430
 30
0.000000
  70
    32
  0
VERTEX
  8
0
  5
1885
 10
329.941
 20
198.355
 30
0.000000
  70
    32
  0
VERTEX
  8
0
  5
1886
 10
329.855
 20
198.286
 30
0.000000
  70
    32
  0
VERTEX
  8
0
  5
1887
 10
329.767
 20
198.221
 30
0.000000
  70
    32
  0
VERTEX
  8
0
  5
1888
 10
329.676
 20
198.162
 30
0.000000
  70
    32
  0
VERTEX
  8
0
  5
1889
 10
329.583
 20
198.108
 30
0.000000
  70
    32
  0
VERTEX
  8
0
  5
188A
 10
329.487
 20
198.059
 30
0.000000
  70
    32
  0
VERTEX
  8
0
  5
188B
 10
329.390
 20
198.015
 30
0.000000
  70
    32
  0
VERTEX
  8
0
  5
188C
 10
329.291
 20
197.977
 30
0.000000
  70
    32
  0
VERTEX
  8
0
  5
188D
 10
329.190
 20
197.945
 30
0.000000
  70
    32
  0
VERTEX
  8
0
  5
188E
 10
329.088
 20
197.919
 30
0.000000
  70
    32
  0
VERTEX
  8
0
  5
188F
 10
328.985
 20
197.898
 30
0.000000
  70
    32
  0
VERTEX
  8
0
  5
1890
 10
328.881
 20
197.883
 30
0.000000
  70
    32
  0
VERTEX
  8
0
  5
1891
 10
328.777
 20
197.875
 30
0.000000
  70
    32
  0
VERTEX
  8
0
  5
1892
 10
328.672
 20
197.872
 30
0.000000
  70
    32
  0
VERTEX
  8
0
  5
1893
 10
328.568
 20
197.875
 30
0.000000
  70
    32
  0
VERTEX
  8
0
  5
1894
 10
328.464
 20
197.883
 30
0.000000
  70
    32
  0
VERTEX
  8
0
  5
1895
 10
328.360
 20
197.898
 30
0.000000
  70
    32
  0
VERTEX
  8
0
  5
1896
 10
328.257
 20
197.919
 30
0.000000
  70
    32
  0
VERTEX
  8
0
  5
1897
 10
328.155
 20
197.945
 30
0.000000
  70
    32
  0
VERTEX
  8
0
  5
1898
 10
328.054
 20
197.977
 30
0.000000
  70
    32
  0
VERTEX
  8
0
  5
1899
 10
327.955
 20
198.015
 30
0.000000
  70
    32
  0
VERTEX
  8
0
  5
189A
 10
327.858
 20
198.059
 30
0.000000
  70
    32
  0
VERTEX
  8
0
  5
189B
 10
327.762
 20
198.108
 30
0.000000
  70
    32
  0
VERTEX
  8
0
  5
189C
 10
327.669
 20
198.162
 30
0.000000
  70
    32
  0
VERTEX
  8
0
  5
189D
 10
327.578
 20
198.221
 30
0.000000
  70
    32
  0
VERTEX
  8
0
  5
189E
 10
327.490
 20
198.286
 30
0.000000
  70
    32
  0
VERTEX
  8
0
  5
189F
 10
327.404
 20
198.355
 30
0.000000
  70
    32
  0
VERTEX
  8
0
  5
18A0
 10
327.322
 20
198.430
 30
0.000000
  70
    32
  0
VERTEX
  8
0
  5
18A1
 10
327.243
 20
198.508
 30
0.000000
  70
    32
  0
VERTEX
  8
0
  5
18A2
 10
327.167
 20
198.592
 30
0.000000
  70
    32
  0
VERTEX
  8
0
  5
18A3
 10
327.095
 20
198.679
 30
0.000000
  70
    32
  0
VERTEX
  8
0
  5
18A4
 10
327.027
 20
198.770
 30
0.000000
  70
    32
  0
VERTEX
  8
0
  5
18A5
 10
326.962
 20
198.866
 30
0.000000
  70
    32
  0
VERTEX
  8
0
  5
18A6
 10
326.902
 20
198.964
 30
0.000000
  70
    32
  0
VERTEX
  8
0
  5
18A7
 10
326.846
 20
199.066
 30
0.000000
  70
    32
  0
VERTEX
  8
0
  5
18A8
 10
326.795
 20
199.171
 30
0.000000
  70
    32
  0
VERTEX
  8
0
  5
18A9
 10
326.748
 20
199.279
 30
0.000000
  70
    32
  0
VERTEX
  8
0
  5
18AA
 10
326.705
 20
199.389
 30
0.000000
  70
    32
  0
VERTEX
  8
0
  5
18AB
 10
326.668
 20
199.502
 30
0.000000
  70
    32
  0
VERTEX
  8
0
  5
18AC
 10
326.635
 20
199.616
 30
0.000000
  70
    32
  0
VERTEX
  8
0
  5
18AD
 10
326.607
 20
199.733
 30
0.000000
  70
    32
  0
VERTEX
  8
0
  5
18AE
 10
326.584
 20
199.850
 30
0.000000
  70
    32
  0
VERTEX
  8
0
  5
18AF
 10
326.566
 20
199.969
 30
0.000000
  70
    32
  0
VERTEX
  8
0
  5
18B0
 10
326.554
 20
200.089
 30
0.000000
  70
    32
  0
VERTEX
  8
0
  5
18B1
 10
326.546
 20
200.209
 30
0.000000
  70
    32
  0
VERTEX
  8
0
  5
18B2
 10
326.543
 20
200.330
 30
0.000000
  70
    32
  0
VERTEX
  8
0
  5
18B3
 10
326.546
 20
200.451
 30
0.000000
  70
    32
  0
VERTEX
  8
0
  5
18B4
 10
326.554
 20
200.571
 30
0.000000
  70
    32
  0
VERTEX
  8
0
  5
18B5
 10
326.566
 20
200.691
 30
0.000000
  70
    32
  0
VERTEX
  8
0
  5
18B6
 10
326.584
 20
200.810
 30
0.000000
  70
    32
  0
VERTEX
  8
0
  5
18B7
 10
326.607
 20
200.927
 30
0.000000
  70
    32
  0
VERTEX
  8
0
  5
18B8
 10
326.635
 20
201.044
 30
0.000000
  70
    32
  0
VERTEX
  8
0
  5
18B9
 10
326.668
 20
201.158
 30
0.000000
  70
    32
  0
VERTEX
  8
0
  5
18BA
 10
326.705
 20
201.271
 30
0.000000
  70
    32
  0
VERTEX
  8
0
  5
18BB
 10
326.748
 20
201.381
 30
0.000000
  70
    32
  0
VERTEX
  8
0
  5
18BC
 10
326.795
 20
201.489
 30
0.000000
  70
    32
  0
VERTEX
  8
0
  5
18BD
 10
326.846
 20
201.594
 30
0.000000
  70
    32
  0
VERTEX
  8
0
  5
18BE
 10
326.902
 20
201.696
 30
0.000000
  70
    32
  0
VERTEX
  8
0
  5
18BF
 10
326.962
 20
201.795
 30
0.000000
  70
    32
  0
VERTEX
  8
0
  5
18C0
 10
327.027
 20
201.890
 30
0.000000
  70
    32
  0
VERTEX
  8
0
  5
18C1
 10
327.095
 20
201.981
 30
0.000000
  70
    32
  0
VERTEX
  8
0
  5
18C2
 10
327.167
 20
202.068
 30
0.000000
  70
    32
  0
VERTEX
  8
0
  5
18C3
 10
327.243
 20
202.152
 30
0.000000
  70
    32
  0
VERTEX
  8
0
  5
18C4
 10
327.322
 20
202.231
 30
0.000000
  70
    32
  0
VERTEX
  8
0
  5
18C5
 10
327.404
 20
202.305
 30
0.000000
  70
    32
  0
VERTEX
  8
0
  5
18C6
 10
327.490
 20
202.374
 30
0.000000
  70
    32
  0
VERTEX
  8
0
  5
18C7
 10
327.578
 20
202.439
 30
0.000000
  70
    32
  0
VERTEX
  8
0
  5
18C8
 10
327.669
 20
202.498
 30
0.000000
  70
    32
  0
VERTEX
  8
0
  5
18C9
 10
327.762
 20
202.553
 30
0.000000
  70
    32
  0
VERTEX
  8
0
  5
18CA
 10
327.858
 20
202.601
 30
0.000000
  70
    32
  0
VERTEX
  8
0
  5
18CB
 10
327.955
 20
202.645
 30
0.000000
  70
    32
  0
VERTEX
  8
0
  5
18CC
 10
328.054
 20
202.683
 30
0.000000
  70
    32
  0
VERTEX
  8
0
  5
18CD
 10
328.155
 20
202.715
 30
0.000000
  70
    32
  0
VERTEX
  8
0
  5
18CE
 10
328.257
 20
202.741
 30
0.000000
  70
    32
  0
VERTEX
  8
0
  5
18CF
 10
328.360
 20
202.762
 30
0.000000
  70
    32
  0
VERTEX
  8
0
  5
18D0
 10
328.464
 20
202.777
 30
0.000000
  70
    32
  0
VERTEX
  8
0
  5
18D1
 10
328.568
 20
202.786
 30
0.000000
  70
    32
  0
VERTEX
  8
0
  5
18D2
 10
328.672
 20
202.789
 30
0.000000
  70
    32
  0
SEQEND
  8
0
  5
18D3
  0
POLYLINE
  5
1340
  8
0
 10
350.17246374442072
 20
202.7885707046994
 30
0.0
 66
     1
 70
     8
  0
VERTEX
  8
0
  5
18D4
 10
350.172
 20
202.789
 30
0.000000
  70
    32
  0
VERTEX
  8
0
  5
18D5
 10
350.068
 20
202.786
 30
0.000000
  70
    32
  0
VERTEX
  8
0
  5
18D6
 10
349.964
 20
202.777
 30
0.000000
  70
    32
  0
VERTEX
  8
0
  5
18D7
 10
349.860
 20
202.762
 30
0.000000
  70
    32
  0
VERTEX
  8
0
  5
18D8
 10
349.757
 20
202.741
 30
0.000000
  70
    32
  0
VERTEX
  8
0
  5
18D9
 10
349.655
 20
202.715
 30
0.000000
  70
    32
  0
VERTEX
  8
0
  5
18DA
 10
349.554
 20
202.683
 30
0.000000
  70
    32
  0
VERTEX
  8
0
  5
18DB
 10
349.455
 20
202.645
 30
0.000000
  70
    32
  0
VERTEX
  8
0
  5
18DC
 10
349.358
 20
202.601
 30
0.000000
  70
    32
  0
VERTEX
  8
0
  5
18DD
 10
349.262
 20
202.553
 30
0.000000
  70
    32
  0
VERTEX
  8
0
  5
18DE
 10
349.169
 20
202.498
 30
0.000000
  70
    32
  0
VERTEX
  8
0
  5
18DF
 10
349.078
 20
202.439
 30
0.000000
  70
    32
  0
VERTEX
  8
0
  5
18E0
 10
348.990
 20
202.374
 30
0.000000
  70
    32
  0
VERTEX
  8
0
  5
18E1
 10
348.904
 20
202.305
 30
0.000000
  70
    32
  0
VERTEX
  8
0
  5
18E2
 10
348.822
 20
202.231
 30
0.000000
  70
    32
  0
VERTEX
  8
0
  5
18E3
 10
348.743
 20
202.152
 30
0.000000
  70
    32
  0
VERTEX
  8
0
  5
18E4
 10
348.667
 20
202.068
 30
0.000000
  70
    32
  0
VERTEX
  8
0
  5
18E5
 10
348.595
 20
201.981
 30
0.000000
  70
    32
  0
VERTEX
  8
0
  5
18E6
 10
348.527
 20
201.890
 30
0.000000
  70
    32
  0
VERTEX
  8
0
  5
18E7
 10
348.462
 20
201.795
 30
0.000000
  70
    32
  0
VERTEX
  8
0
  5
18E8
 10
348.402
 20
201.696
 30
0.000000
  70
    32
  0
VERTEX
  8
0
  5
18E9
 10
348.346
 20
201.594
 30
0.000000
  70
    32
  0
VERTEX
  8
0
  5
18EA
 10
348.295
 20
201.489
 30
0.000000
  70
    32
  0
VERTEX
  8
0
  5
18EB
 10
348.248
 20
201.381
 30
0.000000
  70
    32
  0
VERTEX
  8
0
  5
18EC
 10
348.205
 20
201.271
 30
0.000000
  70
    32
  0
VERTEX
  8
0
  5
18ED
 10
348.168
 20
201.158
 30
0.000000
  70
    32
  0
VERTEX
  8
0
  5
18EE
 10
348.135
 20
201.044
 30
0.000000
  70
    32
  0
VERTEX
  8
0
  5
18EF
 10
348.107
 20
200.927
 30
0.000000
  70
    32
  0
VERTEX
  8
0
  5
18F0
 10
348.084
 20
200.810
 30
0.000000
  70
    32
  0
VERTEX
  8
0
  5
18F1
 10
348.066
 20
200.691
 30
0.000000
  70
    32
  0
VERTEX
  8
0
  5
18F2
 10
348.054
 20
200.571
 30
0.000000
  70
    32
  0
VERTEX
  8
0
  5
18F3
 10
348.046
 20
200.451
 30
0.000000
  70
    32
  0
VERTEX
  8
0
  5
18F4
 10
348.043
 20
200.330
 30
0.000000
  70
    32
  0
VERTEX
  8
0
  5
18F5
 10
348.046
 20
200.209
 30
0.000000
  70
    32
  0
VERTEX
  8
0
  5
18F6
 10
348.054
 20
200.089
 30
0.000000
  70
    32
  0
VERTEX
  8
0
  5
18F7
 10
348.066
 20
199.969
 30
0.000000
  70
    32
  0
VERTEX
  8
0
  5
18F8
 10
348.084
 20
199.850
 30
0.000000
  70
    32
  0
VERTEX
  8
0
  5
18F9
 10
348.107
 20
199.733
 30
0.000000
  70
    32
  0
VERTEX
  8
0
  5
18FA
 10
348.135
 20
199.616
 30
0.000000
  70
    32
  0
VERTEX
  8
0
  5
18FB
 10
348.168
 20
199.502
 30
0.000000
  70
    32
  0
VERTEX
  8
0
  5
18FC
 10
348.205
 20
199.389
 30
0.000000
  70
    32
  0
VERTEX
  8
0
  5
18FD
 10
348.248
 20
199.279
 30
0.000000
  70
    32
  0
VERTEX
  8
0
  5
18FE
 10
348.295
 20
199.171
 30
0.000000
  70
    32
  0
VERTEX
  8
0
  5
18FF
 10
348.346
 20
199.066
 30
0.000000
  70
    32
  0
VERTEX
  8
0
  5
1900
 10
348.402
 20
198.964
 30
0.000000
  70
    32
  0
VERTEX
  8
0
  5
1901
 10
348.462
 20
198.866
 30
0.000000
  70
    32
  0
VERTEX
  8
0
  5
1902
 10
348.527
 20
198.770
 30
0.000000
  70
    32
  0
VERTEX
  8
0
  5
1903
 10
348.595
 20
198.679
 30
0.000000
  70
    32
  0
VERTEX
  8
0
  5
1904
 10
348.667
 20
198.592
 30
0.000000
  70
    32
  0
VERTEX
  8
0
  5
1905
 10
348.743
 20
198.508
 30
0.000000
  70
    32
  0
VERTEX
  8
0
  5
1906
 10
348.822
 20
198.430
 30
0.000000
  70
    32
  0
VERTEX
  8
0
  5
1907
 10
348.904
 20
198.355
 30
0.000000
  70
    32
  0
VERTEX
  8
0
  5
1908
 10
348.990
 20
198.286
 30
0.000000
  70
    32
  0
VERTEX
  8
0
  5
1909
 10
349.078
 20
198.221
 30
0.000000
  70
    32
  0
VERTEX
  8
0
  5
190A
 10
349.169
 20
198.162
 30
0.000000
  70
    32
  0
VERTEX
  8
0
  5
190B
 10
349.262
 20
198.108
 30
0.000000
  70
    32
  0
VERTEX
  8
0
  5
190C
 10
349.358
 20
198.059
 30
0.000000
  70
    32
  0
VERTEX
  8
0
  5
190D
 10
349.455
 20
198.015
 30
0.000000
  70
    32
  0
VERTEX
  8
0
  5
190E
 10
349.554
 20
197.977
 30
0.000000
  70
    32
  0
VERTEX
  8
0
  5
190F
 10
349.655
 20
197.945
 30
0.000000
  70
    32
  0
VERTEX
  8
0
  5
1910
 10
349.757
 20
197.919
 30
0.000000
  70
    32
  0
VERTEX
  8
0
  5
1911
 10
349.860
 20
197.898
 30
0.000000
  70
    32
  0
VERTEX
  8
0
  5
1912
 10
349.964
 20
197.883
 30
0.000000
  70
    32
  0
VERTEX
  8
0
  5
1913
 10
350.068
 20
197.875
 30
0.000000
  70
    32
  0
VERTEX
  8
0
  5
1914
 10
350.172
 20
197.872
 30
0.000000
  70
    32
  0
VERTEX
  8
0
  5
1915
 10
350.277
 20
197.875
 30
0.000000
  70
    32
  0
VERTEX
  8
0
  5
1916
 10
350.381
 20
197.883
 30
0.000000
  70
    32
  0
VERTEX
  8
0
  5
1917
 10
350.485
 20
197.898
 30
0.000000
  70
    32
  0
VERTEX
  8
0
  5
1918
 10
350.588
 20
197.919
 30
0.000000
  70
    32
  0
VERTEX
  8
0
  5
1919
 10
350.690
 20
197.945
 30
0.000000
  70
    32
  0
VERTEX
  8
0
  5
191A
 10
350.791
 20
197.977
 30
0.000000
  70
    32
  0
VERTEX
  8
0
  5
191B
 10
350.890
 20
198.015
 30
0.000000
  70
    32
  0
VERTEX
  8
0
  5
191C
 10
350.987
 20
198.059
 30
0.000000
  70
    32
  0
VERTEX
  8
0
  5
191D
 10
351.083
 20
198.108
 30
0.000000
  70
    32
  0
VERTEX
  8
0
  5
191E
 10
351.176
 20
198.162
 30
0.000000
  70
    32
  0
VERTEX
  8
0
  5
191F
 10
351.267
 20
198.221
 30
0.000000
  70
    32
  0
VERTEX
  8
0
  5
1920
 10
351.355
 20
198.286
 30
0.000000
  70
    32
  0
VERTEX
  8
0
  5
1921
 10
351.441
 20
198.355
 30
0.000000
  70
    32
  0
VERTEX
  8
0
  5
1922
 10
351.523
 20
198.430
 30
0.000000
  70
    32
  0
VERTEX
  8
0
  5
1923
 10
351.602
 20
198.508
 30
0.000000
  70
    32
  0
VERTEX
  8
0
  5
1924
 10
351.678
 20
198.592
 30
0.000000
  70
    32
  0
VERTEX
  8
0
  5
1925
 10
351.750
 20
198.679
 30
0.000000
  70
    32
  0
VERTEX
  8
0
  5
1926
 10
351.818
 20
198.770
 30
0.000000
  70
    32
  0
VERTEX
  8
0
  5
1927
 10
351.883
 20
198.866
 30
0.000000
  70
    32
  0
VERTEX
  8
0
  5
1928
 10
351.943
 20
198.964
 30
0.000000
  70
    32
  0
VERTEX
  8
0
  5
1929
 10
351.999
 20
199.066
 30
0.000000
  70
    32
  0
VERTEX
  8
0
  5
192A
 10
352.050
 20
199.171
 30
0.000000
  70
    32
  0
VERTEX
  8
0
  5
192B
 10
352.097
 20
199.279
 30
0.000000
  70
    32
  0
VERTEX
  8
0
  5
192C
 10
352.140
 20
199.389
 30
0.000000
  70
    32
  0
VERTEX
  8
0
  5
192D
 10
352.177
 20
199.502
 30
0.000000
  70
    32
  0
VERTEX
  8
0
  5
192E
 10
352.210
 20
199.616
 30
0.000000
  70
    32
  0
VERTEX
  8
0
  5
192F
 10
352.238
 20
199.733
 30
0.000000
  70
    32
  0
VERTEX
  8
0
  5
1930
 10
352.261
 20
199.850
 30
0.000000
  70
    32
  0
VERTEX
  8
0
  5
1931
 10
352.279
 20
199.969
 30
0.000000
  70
    32
  0
VERTEX
  8
0
  5
1932
 10
352.291
 20
200.089
 30
0.000000
  70
    32
  0
VERTEX
  8
0
  5
1933
 10
352.299
 20
200.209
 30
0.000000
  70
    32
  0
VERTEX
  8
0
  5
1934
 10
352.302
 20
200.330
 30
0.000000
  70
    32
  0
VERTEX
  8
0
  5
1935
 10
352.299
 20
200.451
 30
0.000000
  70
    32
  0
VERTEX
  8
0
  5
1936
 10
352.291
 20
200.571
 30
0.000000
  70
    32
  0
VERTEX
  8
0
  5
1937
 10
352.279
 20
200.691
 30
0.000000
  70
    32
  0
VERTEX
  8
0
  5
1938
 10
352.261
 20
200.810
 30
0.000000
  70
    32
  0
VERTEX
  8
0
  5
1939
 10
352.238
 20
200.927
 30
0.000000
  70
    32
  0
VERTEX
  8
0
  5
193A
 10
352.210
 20
201.044
 30
0.000000
  70
    32
  0
VERTEX
  8
0
  5
193B
 10
352.177
 20
201.158
 30
0.000000
  70
    32
  0
VERTEX
  8
0
  5
193C
 10
352.140
 20
201.271
 30
0.000000
  70
    32
  0
VERTEX
  8
0
  5
193D
 10
352.097
 20
201.381
 30
0.000000
  70
    32
  0
VERTEX
  8
0
  5
193E
 10
352.050
 20
201.489
 30
0.000000
  70
    32
  0
VERTEX
  8
0
  5
193F
 10
351.999
 20
201.594
 30
0.000000
  70
    32
  0
VERTEX
  8
0
  5
1940
 10
351.943
 20
201.696
 30
0.000000
  70
    32
  0
VERTEX
  8
0
  5
1941
 10
351.883
 20
201.795
 30
0.000000
  70
    32
  0
VERTEX
  8
0
  5
1942
 10
351.818
 20
201.890
 30
0.000000
  70
    32
  0
VERTEX
  8
0
  5
1943
 10
351.750
 20
201.981
 30
0.000000
  70
    32
  0
VERTEX
  8
0
  5
1944
 10
351.678
 20
202.068
 30
0.000000
  70
    32
  0
VERTEX
  8
0
  5
1945
 10
351.602
 20
202.152
 30
0.000000
  70
    32
  0
VERTEX
  8
0
  5
1946
 10
351.523
 20
202.231
 30
0.000000
  70
    32
  0
VERTEX
  8
0
  5
1947
 10
351.441
 20
202.305
 30
0.000000
  70
    32
  0
VERTEX
  8
0
  5
1948
 10
351.355
 20
202.374
 30
0.000000
  70
    32
  0
VERTEX
  8
0
  5
1949
 10
351.267
 20
202.439
 30
0.000000
  70
    32
  0
VERTEX
  8
0
  5
194A
 10
351.176
 20
202.498
 30
0.000000
  70
    32
  0
VERTEX
  8
0
  5
194B
 10
351.083
 20
202.553
 30
0.000000
  70
    32
  0
VERTEX
  8
0
  5
194C
 10
350.987
 20
202.601
 30
0.000000
  70
    32
  0
VERTEX
  8
0
  5
194D
 10
350.890
 20
202.645
 30
0.000000
  70
    32
  0
VERTEX
  8
0
  5
194E
 10
350.791
 20
202.683
 30
0.000000
  70
    32
  0
VERTEX
  8
0
  5
194F
 10
350.690
 20
202.715
 30
0.000000
  70
    32
  0
VERTEX
  8
0
  5
1950
 10
350.588
 20
202.741
 30
0.000000
  70
    32
  0
VERTEX
  8
0
  5
1951
 10
350.485
 20
202.762
 30
0.000000
  70
    32
  0
VERTEX
  8
0
  5
1952
 10
350.381
 20
202.777
 30
0.000000
  70
    32
  0
VERTEX
  8
0
  5
1953
 10
350.277
 20
202.786
 30
0.000000
  70
    32
  0
VERTEX
  8
0
  5
1954
 10
350.172
 20
202.789
 30
0.000000
  70
    32
  0
SEQEND
  8
0
  5
1955
  0
POLYLINE
  5
1341
  8
3
 10
350.17246374442078
 20
197.33007070469944
 30
0.0
 66
     1
 70
     8
  0
VERTEX
  8
3
  5
1956
 10
350.172
 20
197.330
 30
0.000000
  70
    32
  0
VERTEX
  8
3
  5
1957
 10
350.243
 20
197.331
 30
0.000000
  70
    32
  0
VERTEX
  8
3
  5
1958
 10
350.313
 20
197.334
 30
0.000000
  70
    32
  0
VERTEX
  8
3
  5
1959
 10
350.384
 20
197.338
 30
0.000000
  70
    32
  0
VERTEX
  8
3
  5
195A
 10
350.454
 20
197.345
 30
0.000000
  70
    32
  0
VERTEX
  8
3
  5
195B
 10
350.524
 20
197.353
 30
0.000000
  70
    32
  0
VERTEX
  8
3
  5
195C
 10
350.593
 20
197.363
 30
0.000000
  70
    32
  0
VERTEX
  8
3
  5
195D
 10
350.663
 20
197.374
 30
0.000000
  70
    32
  0
VERTEX
  8
3
  5
195E
 10
350.732
 20
197.388
 30
0.000000
  70
    32
  0
VERTEX
  8
3
  5
195F
 10
350.801
 20
197.403
 30
0.000000
  70
    32
  0
VERTEX
  8
3
  5
1960
 10
350.870
 20
197.420
 30
0.000000
  70
    32
  0
VERTEX
  8
3
  5
1961
 10
350.938
 20
197.439
 30
0.000000
  70
    32
  0
VERTEX
  8
3
  5
1962
 10
351.005
 20
197.459
 30
0.000000
  70
    32
  0
VERTEX
  8
3
  5
1963
 10
351.072
 20
197.481
 30
0.000000
  70
    32
  0
VERTEX
  8
3
  5
1964
 10
351.139
 20
197.505
 30
0.000000
  70
    32
  0
VERTEX
  8
3
  5
1965
 10
351.205
 20
197.531
 30
0.000000
  70
    32
  0
VERTEX
  8
3
  5
1966
 10
351.270
 20
197.558
 30
0.000000
  70
    32
  0
VERTEX
  8
3
  5
1967
 10
351.335
 20
197.587
 30
0.000000
  70
    32
  0
VERTEX
  8
3
  5
1968
 10
351.399
 20
197.618
 30
0.000000
  70
    32
  0
VERTEX
  8
3
  5
1969
 10
351.462
 20
197.650
 30
0.000000
  70
    32
  0
VERTEX
  8
3
  5
196A
 10
351.525
 20
197.684
 30
0.000000
  70
    32
  0
VERTEX
  8
3
  5
196B
 10
351.587
 20
197.720
 30
0.000000
  70
    32
  0
VERTEX
  8
3
  5
196C
 10
351.647
 20
197.757
 30
0.000000
  70
    32
  0
VERTEX
  8
3
  5
196D
 10
351.707
 20
197.796
 30
0.000000
  70
    32
  0
VERTEX
  8
3
  5
196E
 10
351.766
 20
197.836
 30
0.000000
  70
    32
  0
VERTEX
  8
3
  5
196F
 10
351.824
 20
197.877
 30
0.000000
  70
    32
  0
VERTEX
  8
3
  5
1970
 10
351.881
 20
197.920
 30
0.000000
  70
    32
  0
VERTEX
  8
3
  5
1971
 10
351.937
 20
197.965
 30
0.000000
  70
    32
  0
VERTEX
  8
3
  5
1972
 10
351.992
 20
198.011
 30
0.000000
  70
    32
  0
VERTEX
  8
3
  5
1973
 10
352.046
 20
198.058
 30
0.000000
  70
    32
  0
VERTEX
  8
3
  5
1974
 10
352.099
 20
198.107
 30
0.000000
  70
    32
  0
VERTEX
  8
3
  5
1975
 10
352.151
 20
198.157
 30
0.000000
  70
    32
  0
VERTEX
  8
3
  5
1976
 10
352.201
 20
198.209
 30
0.000000
  70
    32
  0
VERTEX
  8
3
  5
1977
 10
352.250
 20
198.261
 30
0.000000
  70
    32
  0
VERTEX
  8
3
  5
1978
 10
352.298
 20
198.315
 30
0.000000
  70
    32
  0
VERTEX
  8
3
  5
1979
 10
352.345
 20
198.371
 30
0.000000
  70
    32
  0
VERTEX
  8
3
  5
197A
 10
352.390
 20
198.427
 30
0.000000
  70
    32
  0
VERTEX
  8
3
  5
197B
 10
352.434
 20
198.484
 30
0.000000
  70
    32
  0
VERTEX
  8
3
  5
197C
 10
352.477
 20
198.543
 30
0.000000
  70
    32
  0
VERTEX
  8
3
  5
197D
 10
352.518
 20
198.603
 30
0.000000
  70
    32
  0
VERTEX
  8
3
  5
197E
 10
352.558
 20
198.663
 30
0.000000
  70
    32
  0
VERTEX
  8
3
  5
197F
 10
352.596
 20
198.725
 30
0.000000
  70
    32
  0
VERTEX
  8
3
  5
1980
 10
352.633
 20
198.788
 30
0.000000
  70
    32
  0
VERTEX
  8
3
  5
1981
 10
352.669
 20
198.851
 30
0.000000
  70
    32
  0
VERTEX
  8
3
  5
1982
 10
352.703
 20
198.916
 30
0.000000
  70
    32
  0
VERTEX
  8
3
  5
1983
 10
352.735
 20
198.981
 30
0.000000
  70
    32
  0
VERTEX
  8
3
  5
1984
 10
352.766
 20
199.047
 30
0.000000
  70
    32
  0
VERTEX
  8
3
  5
1985
 10
352.795
 20
199.114
 30
0.000000
  70
    32
  0
VERTEX
  8
3
  5
1986
 10
352.823
 20
199.182
 30
0.000000
  70
    32
  0
VERTEX
  8
3
  5
1987
 10
352.849
 20
199.250
 30
0.000000
  70
    32
  0
VERTEX
  8
3
  5
1988
 10
352.874
 20
199.319
 30
0.000000
  70
    32
  0
VERTEX
  8
3
  5
1989
 10
352.896
 20
199.389
 30
0.000000
  70
    32
  0
VERTEX
  8
3
  5
198A
 10
352.918
 20
199.459
 30
0.000000
  70
    32
  0
VERTEX
  8
3
  5
198B
 10
352.937
 20
199.530
 30
0.000000
  70
    32
  0
VERTEX
  8
3
  5
198C
 10
352.955
 20
199.601
 30
0.000000
  70
    32
  0
VERTEX
  8
3
  5
198D
 10
352.972
 20
199.673
 30
0.000000
  70
    32
  0
VERTEX
  8
3
  5
198E
 10
352.986
 20
199.745
 30
0.000000
  70
    32
  0
VERTEX
  8
3
  5
198F
 10
352.999
 20
199.817
 30
0.000000
  70
    32
  0
VERTEX
  8
3
  5
1990
 10
353.010
 20
199.890
 30
0.000000
  70
    32
  0
VERTEX
  8
3
  5
1991
 10
353.020
 20
199.963
 30
0.000000
  70
    32
  0
VERTEX
  8
3
  5
1992
 10
353.027
 20
200.036
 30
0.000000
  70
    32
  0
VERTEX
  8
3
  5
1993
 10
353.034
 20
200.109
 30
0.000000
  70
    32
  0
VERTEX
  8
3
  5
1994
 10
353.038
 20
200.183
 30
0.000000
  70
    32
  0
VERTEX
  8
3
  5
1995
 10
353.040
 20
200.256
 30
0.000000
  70
    32
  0
VERTEX
  8
3
  5
1996
 10
353.041
 20
200.330
 30
0.000000
  70
    32
  0
VERTEX
  8
3
  5
1997
 10
353.040
 20
200.404
 30
0.000000
  70
    32
  0
VERTEX
  8
3
  5
1998
 10
353.038
 20
200.477
 30
0.000000
  70
    32
  0
VERTEX
  8
3
  5
1999
 10
353.034
 20
200.551
 30
0.000000
  70
    32
  0
VERTEX
  8
3
  5
199A
 10
353.027
 20
200.624
 30
0.000000
  70
    32
  0
VERTEX
  8
3
  5
199B
 10
353.020
 20
200.697
 30
0.000000
  70
    32
  0
VERTEX
  8
3
  5
199C
 10
353.010
 20
200.770
 30
0.000000
  70
    32
  0
VERTEX
  8
3
  5
199D
 10
352.999
 20
200.843
 30
0.000000
  70
    32
  0
VERTEX
  8
3
  5
199E
 10
352.986
 20
200.915
 30
0.000000
  70
    32
  0
VERTEX
  8
3
  5
199F
 10
352.972
 20
200.987
 30
0.000000
  70
    32
  0
VERTEX
  8
3
  5
19A0
 10
352.955
 20
201.059
 30
0.000000
  70
    32
  0
VERTEX
  8
3
  5
19A1
 10
352.937
 20
201.130
 30
0.000000
  70
    32
  0
VERTEX
  8
3
  5
19A2
 10
352.918
 20
201.201
 30
0.000000
  70
    32
  0
VERTEX
  8
3
  5
19A3
 10
352.896
 20
201.271
 30
0.000000
  70
    32
  0
VERTEX
  8
3
  5
19A4
 10
352.874
 20
201.341
 30
0.000000
  70
    32
  0
VERTEX
  8
3
  5
19A5
 10
352.849
 20
201.410
 30
0.000000
  70
    32
  0
VERTEX
  8
3
  5
19A6
 10
352.823
 20
201.478
 30
0.000000
  70
    32
  0
VERTEX
  8
3
  5
19A7
 10
352.795
 20
201.546
 30
0.000000
  70
    32
  0
VERTEX
  8
3
  5
19A8
 10
352.766
 20
201.613
 30
0.000000
  70
    32
  0
VERTEX
  8
3
  5
19A9
 10
352.735
 20
201.679
 30
0.000000
  70
    32
  0
VERTEX
  8
3
  5
19AA
 10
352.703
 20
201.744
 30
0.000000
  70
    32
  0
VERTEX
  8
3
  5
19AB
 10
352.669
 20
201.809
 30
0.000000
  70
    32
  0
VERTEX
  8
3
  5
19AC
 10
352.633
 20
201.872
 30
0.000000
  70
    32
  0
VERTEX
  8
3
  5
19AD
 10
352.596
 20
201.935
 30
0.000000
  70
    32
  0
VERTEX
  8
3
  5
19AE
 10
352.558
 20
201.997
 30
0.000000
  70
    32
  0
VERTEX
  8
3
  5
19AF
 10
352.518
 20
202.057
 30
0.000000
  70
    32
  0
VERTEX
  8
3
  5
19B0
 10
352.477
 20
202.117
 30
0.000000
  70
    32
  0
VERTEX
  8
3
  5
19B1
 10
352.434
 20
202.176
 30
0.000000
  70
    32
  0
VERTEX
  8
3
  5
19B2
 10
352.390
 20
202.233
 30
0.000000
  70
    32
  0
VERTEX
  8
3
  5
19B3
 10
352.345
 20
202.290
 30
0.000000
  70
    32
  0
VERTEX
  8
3
  5
19B4
 10
352.298
 20
202.345
 30
0.000000
  70
    32
  0
VERTEX
  8
3
  5
19B5
 10
352.250
 20
202.399
 30
0.000000
  70
    32
  0
VERTEX
  8
3
  5
19B6
 10
352.201
 20
202.451
 30
0.000000
  70
    32
  0
VERTEX
  8
3
  5
19B7
 10
352.151
 20
202.503
 30
0.000000
  70
    32
  0
VERTEX
  8
3
  5
19B8
 10
352.099
 20
202.553
 30
0.000000
  70
    32
  0
VERTEX
  8
3
  5
19B9
 10
352.046
 20
202.602
 30
0.000000
  70
    32
  0
VERTEX
  8
3
  5
19BA
 10
351.992
 20
202.649
 30
0.000000
  70
    32
  0
VERTEX
  8
3
  5
19BB
 10
351.937
 20
202.695
 30
0.000000
  70
    32
  0
VERTEX
  8
3
  5
19BC
 10
351.881
 20
202.740
 30
0.000000
  70
    32
  0
VERTEX
  8
3
  5
19BD
 10
351.824
 20
202.783
 30
0.000000
  70
    32
  0
VERTEX
  8
3
  5
19BE
 10
351.766
 20
202.824
 30
0.000000
  70
    32
  0
VERTEX
  8
3
  5
19BF
 10
351.707
 20
202.865
 30
0.000000
  70
    32
  0
VERTEX
  8
3
  5
19C0
 10
351.647
 20
202.903
 30
0.000000
  70
    32
  0
VERTEX
  8
3
  5
19C1
 10
351.587
 20
202.940
 30
0.000000
  70
    32
  0
VERTEX
  8
3
  5
19C2
 10
351.525
 20
202.976
 30
0.000000
  70
    32
  0
VERTEX
  8
3
  5
19C3
 10
351.462
 20
203.010
 30
0.000000
  70
    32
  0
VERTEX
  8
3
  5
19C4
 10
351.399
 20
203.042
 30
0.000000
  70
    32
  0
VERTEX
  8
3
  5
19C5
 10
351.335
 20
203.073
 30
0.000000
  70
    32
  0
VERTEX
  8
3
  5
19C6
 10
351.270
 20
203.102
 30
0.000000
  70
    32
  0
VERTEX
  8
3
  5
19C7
 10
351.205
 20
203.129
 30
0.000000
  70
    32
  0
VERTEX
  8
3
  5
19C8
 10
351.139
 20
203.155
 30
0.000000
  70
    32
  0
VERTEX
  8
3
  5
19C9
 10
351.072
 20
203.179
 30
0.000000
  70
    32
  0
VERTEX
  8
3
  5
19CA
 10
351.005
 20
203.201
 30
0.000000
  70
    32
  0
VERTEX
  8
3
  5
19CB
 10
350.938
 20
203.221
 30
0.000000
  70
    32
  0
VERTEX
  8
3
  5
19CC
 10
350.870
 20
203.240
 30
0.000000
  70
    32
  0
VERTEX
  8
3
  5
19CD
 10
350.801
 20
203.257
 30
0.000000
  70
    32
  0
VERTEX
  8
3
  5
19CE
 10
350.732
 20
203.272
 30
0.000000
  70
    32
  0
VERTEX
  8
3
  5
19CF
 10
350.663
 20
203.286
 30
0.000000
  70
    32
  0
VERTEX
  8
3
  5
19D0
 10
350.593
 20
203.298
 30
0.000000
  70
    32
  0
VERTEX
  8
3
  5
19D1
 10
350.524
 20
203.308
 30
0.000000
  70
    32
  0
VERTEX
  8
3
  5
19D2
 10
350.454
 20
203.316
 30
0.000000
  70
    32
  0
VERTEX
  8
3
  5
19D3
 10
350.384
 20
203.322
 30
0.000000
  70
    32
  0
VERTEX
  8
3
  5
19D4
 10
350.313
 20
203.326
 30
0.000000
  70
    32
  0
VERTEX
  8
3
  5
19D5
 10
350.243
 20
203.329
 30
0.000000
  70
    32
  0
VERTEX
  8
3
  5
19D6
 10
350.172
 20
203.330
 30
0.000000
  70
    32
  0
SEQEND
  8
3
  5
19D7
  0
POLYLINE
  5
1342
  8
3
 10
350.17246374442067
 20
203.33007070469938
 30
0.0
 66
     1
 70
     8
  0
VERTEX
  8
3
  5
19D8
 10
350.172
 20
203.330
 30
0.000000
  70
    32
  0
VERTEX
  8
3
  5
19D9
 10
350.115
 20
203.329
 30
0.000000
  70
    32
  0
VERTEX
  8
3
  5
19DA
 10
350.058
 20
203.326
 30
0.000000
  70
    32
  0
VERTEX
  8
3
  5
19DB
 10
350.001
 20
203.322
 30
0.000000
  70
    32
  0
VERTEX
  8
3
  5
19DC
 10
349.944
 20
203.316
 30
0.000000
  70
    32
  0
VERTEX
  8
3
  5
19DD
 10
349.888
 20
203.308
 30
0.000000
  70
    32
  0
VERTEX
  8
3
  5
19DE
 10
349.831
 20
203.298
 30
0.000000
  70
    32
  0
VERTEX
  8
3
  5
19DF
 10
349.775
 20
203.286
 30
0.000000
  70
    32
  0
VERTEX
  8
3
  5
19E0
 10
349.718
 20
203.272
 30
0.000000
  70
    32
  0
VERTEX
  8
3
  5
19E1
 10
349.663
 20
203.257
 30
0.000000
  70
    32
  0
VERTEX
  8
3
  5
19E2
 10
349.607
 20
203.240
 30
0.000000
  70
    32
  0
VERTEX
  8
3
  5
19E3
 10
349.552
 20
203.221
 30
0.000000
  70
    32
  0
VERTEX
  8
3
  5
19E4
 10
349.497
 20
203.201
 30
0.000000
  70
    32
  0
VERTEX
  8
3
  5
19E5
 10
349.442
 20
203.179
 30
0.000000
  70
    32
  0
VERTEX
  8
3
  5
19E6
 10
349.388
 20
203.155
 30
0.000000
  70
    32
  0
VERTEX
  8
3
  5
19E7
 10
349.335
 20
203.129
 30
0.000000
  70
    32
  0
VERTEX
  8
3
  5
19E8
 10
349.282
 20
203.102
 30
0.000000
  70
    32
  0
VERTEX
  8
3
  5
19E9
 10
349.229
 20
203.073
 30
0.000000
  70
    32
  0
VERTEX
  8
3
  5
19EA
 10
349.177
 20
203.042
 30
0.000000
  70
    32
  0
VERTEX
  8
3
  5
19EB
 10
349.126
 20
203.010
 30
0.000000
  70
    32
  0
VERTEX
  8
3
  5
19EC
 10
349.075
 20
202.976
 30
0.000000
  70
    32
  0
VERTEX
  8
3
  5
19ED
 10
349.025
 20
202.940
 30
0.000000
  70
    32
  0
VERTEX
  8
3
  5
19EE
 10
348.976
 20
202.903
 30
0.000000
  70
    32
  0
VERTEX
  8
3
  5
19EF
 10
348.927
 20
202.865
 30
0.000000
  70
    32
  0
VERTEX
  8
3
  5
19F0
 10
348.879
 20
202.824
 30
0.000000
  70
    32
  0
VERTEX
  8
3
  5
19F1
 10
348.832
 20
202.783
 30
0.000000
  70
    32
  0
VERTEX
  8
3
  5
19F2
 10
348.786
 20
202.740
 30
0.000000
  70
    32
  0
VERTEX
  8
3
  5
19F3
 10
348.741
 20
202.695
 30
0.000000
  70
    32
  0
VERTEX
  8
3
  5
19F4
 10
348.696
 20
202.649
 30
0.000000
  70
    32
  0
VERTEX
  8
3
  5
19F5
 10
348.652
 20
202.602
 30
0.000000
  70
    32
  0
VERTEX
  8
3
  5
19F6
 10
348.610
 20
202.553
 30
0.000000
  70
    32
  0
VERTEX
  8
3
  5
19F7
 10
348.568
 20
202.503
 30
0.000000
  70
    32
  0
VERTEX
  8
3
  5
19F8
 10
348.527
 20
202.451
 30
0.000000
  70
    32
  0
VERTEX
  8
3
  5
19F9
 10
348.487
 20
202.399
 30
0.000000
  70
    32
  0
VERTEX
  8
3
  5
19FA
 10
348.448
 20
202.345
 30
0.000000
  70
    32
  0
VERTEX
  8
3
  5
19FB
 10
348.410
 20
202.290
 30
0.000000
  70
    32
  0
VERTEX
  8
3
  5
19FC
 10
348.373
 20
202.233
 30
0.000000
  70
    32
  0
VERTEX
  8
3
  5
19FD
 10
348.338
 20
202.176
 30
0.000000
  70
    32
  0
VERTEX
  8
3
  5
19FE
 10
348.303
 20
202.117
 30
0.000000
  70
    32
  0
VERTEX
  8
3
  5
19FF
 10
348.270
 20
202.057
 30
0.000000
  70
    32
  0
VERTEX
  8
3
  5
1A00
 10
348.237
 20
201.997
 30
0.000000
  70
    32
  0
VERTEX
  8
3
  5
1A01
 10
348.206
 20
201.935
 30
0.000000
  70
    32
  0
VERTEX
  8
3
  5
1A02
 10
348.176
 20
201.872
 30
0.000000
  70
    32
  0
VERTEX
  8
3
  5
1A03
 10
348.147
 20
201.809
 30
0.000000
  70
    32
  0
VERTEX
  8
3
  5
1A04
 10
348.120
 20
201.744
 30
0.000000
  70
    32
  0
VERTEX
  8
3
  5
1A05
 10
348.094
 20
201.679
 30
0.000000
  70
    32
  0
VERTEX
  8
3
  5
1A06
 10
348.069
 20
201.613
 30
0.000000
  70
    32
  0
VERTEX
  8
3
  5
1A07
 10
348.045
 20
201.546
 30
0.000000
  70
    32
  0
VERTEX
  8
3
  5
1A08
 10
348.022
 20
201.478
 30
0.000000
  70
    32
  0
VERTEX
  8
3
  5
1A09
 10
348.001
 20
201.410
 30
0.000000
  70
    32
  0
VERTEX
  8
3
  5
1A0A
 10
347.981
 20
201.341
 30
0.000000
  70
    32
  0
VERTEX
  8
3
  5
1A0B
 10
347.963
 20
201.271
 30
0.000000
  70
    32
  0
VERTEX
  8
3
  5
1A0C
 10
347.945
 20
201.201
 30
0.000000
  70
    32
  0
VERTEX
  8
3
  5
1A0D
 10
347.929
 20
201.130
 30
0.000000
  70
    32
  0
VERTEX
  8
3
  5
1A0E
 10
347.915
 20
201.059
 30
0.000000
  70
    32
  0
VERTEX
  8
3
  5
1A0F
 10
347.902
 20
200.987
 30
0.000000
  70
    32
  0
VERTEX
  8
3
  5
1A10
 10
347.890
 20
200.915
 30
0.000000
  70
    32
  0
VERTEX
  8
3
  5
1A11
 10
347.879
 20
200.843
 30
0.000000
  70
    32
  0
VERTEX
  8
3
  5
1A12
 10
347.870
 20
200.770
 30
0.000000
  70
    32
  0
VERTEX
  8
3
  5
1A13
 10
347.863
 20
200.697
 30
0.000000
  70
    32
  0
VERTEX
  8
3
  5
1A14
 10
347.856
 20
200.624
 30
0.000000
  70
    32
  0
VERTEX
  8
3
  5
1A15
 10
347.851
 20
200.551
 30
0.000000
  70
    32
  0
VERTEX
  8
3
  5
1A16
 10
347.848
 20
200.477
 30
0.000000
  70
    32
  0
VERTEX
  8
3
  5
1A17
 10
347.846
 20
200.404
 30
0.000000
  70
    32
  0
VERTEX
  8
3
  5
1A18
 10
347.845
 20
200.330
 30
0.000000
  70
    32
  0
VERTEX
  8
3
  5
1A19
 10
347.846
 20
200.256
 30
0.000000
  70
    32
  0
VERTEX
  8
3
  5
1A1A
 10
347.848
 20
200.183
 30
0.000000
  70
    32
  0
VERTEX
  8
3
  5
1A1B
 10
347.851
 20
200.109
 30
0.000000
  70
    32
  0
VERTEX
  8
3
  5
1A1C
 10
347.856
 20
200.036
 30
0.000000
  70
    32
  0
VERTEX
  8
3
  5
1A1D
 10
347.863
 20
199.963
 30
0.000000
  70
    32
  0
VERTEX
  8
3
  5
1A1E
 10
347.870
 20
199.890
 30
0.000000
  70
    32
  0
VERTEX
  8
3
  5
1A1F
 10
347.879
 20
199.817
 30
0.000000
  70
    32
  0
VERTEX
  8
3
  5
1A20
 10
347.890
 20
199.745
 30
0.000000
  70
    32
  0
VERTEX
  8
3
  5
1A21
 10
347.902
 20
199.673
 30
0.000000
  70
    32
  0
VERTEX
  8
3
  5
1A22
 10
347.915
 20
199.601
 30
0.000000
  70
    32
  0
VERTEX
  8
3
  5
1A23
 10
347.929
 20
199.530
 30
0.000000
  70
    32
  0
VERTEX
  8
3
  5
1A24
 10
347.945
 20
199.459
 30
0.000000
  70
    32
  0
VERTEX
  8
3
  5
1A25
 10
347.963
 20
199.389
 30
0.000000
  70
    32
  0
VERTEX
  8
3
  5
1A26
 10
347.981
 20
199.319
 30
0.000000
  70
    32
  0
VERTEX
  8
3
  5
1A27
 10
348.001
 20
199.250
 30
0.000000
  70
    32
  0
VERTEX
  8
3
  5
1A28
 10
348.022
 20
199.182
 30
0.000000
  70
    32
  0
VERTEX
  8
3
  5
1A29
 10
348.045
 20
199.114
 30
0.000000
  70
    32
  0
VERTEX
  8
3
  5
1A2A
 10
348.069
 20
199.047
 30
0.000000
  70
    32
  0
VERTEX
  8
3
  5
1A2B
 10
348.094
 20
198.981
 30
0.000000
  70
    32
  0
VERTEX
  8
3
  5
1A2C
 10
348.120
 20
198.916
 30
0.000000
  70
    32
  0
VERTEX
  8
3
  5
1A2D
 10
348.147
 20
198.851
 30
0.000000
  70
    32
  0
VERTEX
  8
3
  5
1A2E
 10
348.176
 20
198.788
 30
0.000000
  70
    32
  0
VERTEX
  8
3
  5
1A2F
 10
348.206
 20
198.725
 30
0.000000
  70
    32
  0
VERTEX
  8
3
  5
1A30
 10
348.237
 20
198.663
 30
0.000000
  70
    32
  0
VERTEX
  8
3
  5
1A31
 10
348.270
 20
198.603
 30
0.000000
  70
    32
  0
VERTEX
  8
3
  5
1A32
 10
348.303
 20
198.543
 30
0.000000
  70
    32
  0
VERTEX
  8
3
  5
1A33
 10
348.338
 20
198.484
 30
0.000000
  70
    32
  0
VERTEX
  8
3
  5
1A34
 10
348.373
 20
198.427
 30
0.000000
  70
    32
  0
VERTEX
  8
3
  5
1A35
 10
348.410
 20
198.371
 30
0.000000
  70
    32
  0
VERTEX
  8
3
  5
1A36
 10
348.448
 20
198.315
 30
0.000000
  70
    32
  0
VERTEX
  8
3
  5
1A37
 10
348.487
 20
198.261
 30
0.000000
  70
    32
  0
VERTEX
  8
3
  5
1A38
 10
348.527
 20
198.209
 30
0.000000
  70
    32
  0
VERTEX
  8
3
  5
1A39
 10
348.568
 20
198.157
 30
0.000000
  70
    32
  0
VERTEX
  8
3
  5
1A3A
 10
348.610
 20
198.107
 30
0.000000
  70
    32
  0
VERTEX
  8
3
  5
1A3B
 10
348.652
 20
198.058
 30
0.000000
  70
    32
  0
VERTEX
  8
3
  5
1A3C
 10
348.696
 20
198.011
 30
0.000000
  70
    32
  0
VERTEX
  8
3
  5
1A3D
 10
348.741
 20
197.965
 30
0.000000
  70
    32
  0
VERTEX
  8
3
  5
1A3E
 10
348.786
 20
197.920
 30
0.000000
  70
    32
  0
VERTEX
  8
3
  5
1A3F
 10
348.832
 20
197.877
 30
0.000000
  70
    32
  0
VERTEX
  8
3
  5
1A40
 10
348.879
 20
197.836
 30
0.000000
  70
    32
  0
VERTEX
  8
3
  5
1A41
 10
348.927
 20
197.796
 30
0.000000
  70
    32
  0
VERTEX
  8
3
  5
1A42
 10
348.976
 20
197.757
 30
0.000000
  70
    32
  0
VERTEX
  8
3
  5
1A43
 10
349.025
 20
197.720
 30
0.000000
  70
    32
  0
VERTEX
  8
3
  5
1A44
 10
349.075
 20
197.684
 30
0.000000
  70
    32
  0
VERTEX
  8
3
  5
1A45
 10
349.126
 20
197.650
 30
0.000000
  70
    32
  0
VERTEX
  8
3
  5
1A46
 10
349.177
 20
197.618
 30
0.000000
  70
    32
  0
VERTEX
  8
3
  5
1A47
 10
349.229
 20
197.587
 30
0.000000
  70
    32
  0
VERTEX
  8
3
  5
1A48
 10
349.282
 20
197.558
 30
0.000000
  70
    32
  0
VERTEX
  8
3
  5
1A49
 10
349.335
 20
197.531
 30
0.000000
  70
    32
  0
VERTEX
  8
3
  5
1A4A
 10
349.388
 20
197.505
 30
0.000000
  70
    32
  0
VERTEX
  8
3
  5
1A4B
 10
349.442
 20
197.481
 30
0.000000
  70
    32
  0
VERTEX
  8
3
  5
1A4C
 10
349.497
 20
197.459
 30
0.000000
  70
    32
  0
VERTEX
  8
3
  5
1A4D
 10
349.552
 20
197.439
 30
0.000000
  70
    32
  0
VERTEX
  8
3
  5
1A4E
 10
349.607
 20
197.420
 30
0.000000
  70
    32
  0
VERTEX
  8
3
  5
1A4F
 10
349.663
 20
197.403
 30
0.000000
  70
    32
  0
VERTEX
  8
3
  5
1A50
 10
349.718
 20
197.388
 30
0.000000
  70
    32
  0
VERTEX
  8
3
  5
1A51
 10
349.775
 20
197.374
 30
0.000000
  70
    32
  0
VERTEX
  8
3
  5
1A52
 10
349.831
 20
197.363
 30
0.000000
  70
    32
  0
VERTEX
  8
3
  5
1A53
 10
349.888
 20
197.353
 30
0.000000
  70
    32
  0
VERTEX
  8
3
  5
1A54
 10
349.944
 20
197.345
 30
0.000000
  70
    32
  0
VERTEX
  8
3
  5
1A55
 10
350.001
 20
197.338
 30
0.000000
  70
    32
  0
VERTEX
  8
3
  5
1A56
 10
350.058
 20
197.334
 30
0.000000
  70
    32
  0
VERTEX
  8
3
  5
1A57
 10
350.115
 20
197.331
 30
0.000000
  70
    32
  0
VERTEX
  8
3
  5
1A58
 10
350.172
 20
197.330
 30
0.000000
  70
    32
  0
SEQEND
  8
3
  5
1A59
  0
POLYLINE
  5
1343
  8
0
 10
351.17246352655809
 20
195.08007070469944
 30
0.0
 66
     1
 70
     8
  0
VERTEX
  8
0
  5
1A5A
 10
351.172
 20
195.080
 30
0.000000
  70
    32
  0
VERTEX
  8
0
  5
1A5B
 10
351.277
 20
195.082
 30
0.000000
  70
    32
  0
VERTEX
  8
0
  5
1A5C
 10
351.381
 20
195.086
 30
0.000000
  70
    32
  0
VERTEX
  8
0
  5
1A5D
 10
351.485
 20
195.094
 30
0.000000
  70
    32
  0
VERTEX
  8
0
  5
1A5E
 10
351.589
 20
195.105
 30
0.000000
  70
    32
  0
VERTEX
  8
0
  5
1A5F
 10
351.693
 20
195.120
 30
0.000000
  70
    32
  0
VERTEX
  8
0
  5
1A60
 10
351.796
 20
195.137
 30
0.000000
  70
    32
  0
VERTEX
  8
0
  5
1A61
 10
351.899
 20
195.157
 30
0.000000
  70
    32
  0
VERTEX
  8
0
  5
1A62
 10
352.002
 20
195.181
 30
0.000000
  70
    32
  0
VERTEX
  8
0
  5
1A63
 10
352.104
 20
195.208
 30
0.000000
  70
    32
  0
VERTEX
  8
0
  5
1A64
 10
352.205
 20
195.237
 30
0.000000
  70
    32
  0
VERTEX
  8
0
  5
1A65
 10
352.306
 20
195.270
 30
0.000000
  70
    32
  0
VERTEX
  8
0
  5
1A66
 10
352.406
 20
195.306
 30
0.000000
  70
    32
  0
VERTEX
  8
0
  5
1A67
 10
352.506
 20
195.345
 30
0.000000
  70
    32
  0
VERTEX
  8
0
  5
1A68
 10
352.604
 20
195.387
 30
0.000000
  70
    32
  0
VERTEX
  8
0
  5
1A69
 10
352.702
 20
195.432
 30
0.000000
  70
    32
  0
VERTEX
  8
0
  5
1A6A
 10
352.799
 20
195.480
 30
0.000000
  70
    32
  0
VERTEX
  8
0
  5
1A6B
 10
352.895
 20
195.530
 30
0.000000
  70
    32
  0
VERTEX
  8
0
  5
1A6C
 10
352.989
 20
195.584
 30
0.000000
  70
    32
  0
VERTEX
  8
0
  5
1A6D
 10
353.083
 20
195.641
 30
0.000000
  70
    32
  0
VERTEX
  8
0
  5
1A6E
 10
353.176
 20
195.700
 30
0.000000
  70
    32
  0
VERTEX
  8
0
  5
1A6F
 10
353.267
 20
195.762
 30
0.000000
  70
    32
  0
VERTEX
  8
0
  5
1A70
 10
353.357
 20
195.827
 30
0.000000
  70
    32
  0
VERTEX
  8
0
  5
1A71
 10
353.446
 20
195.895
 30
0.000000
  70
    32
  0
VERTEX
  8
0
  5
1A72
 10
353.533
 20
195.965
 30
0.000000
  70
    32
  0
VERTEX
  8
0
  5
1A73
 10
353.619
 20
196.038
 30
0.000000
  70
    32
  0
VERTEX
  8
0
  5
1A74
 10
353.704
 20
196.113
 30
0.000000
  70
    32
  0
VERTEX
  8
0
  5
1A75
 10
353.787
 20
196.191
 30
0.000000
  70
    32
  0
VERTEX
  8
0
  5
1A76
 10
353.868
 20
196.272
 30
0.000000
  70
    32
  0
VERTEX
  8
0
  5
1A77
 10
353.948
 20
196.355
 30
0.000000
  70
    32
  0
VERTEX
  8
0
  5
1A78
 10
354.026
 20
196.440
 30
0.000000
  70
    32
  0
VERTEX
  8
0
  5
1A79
 10
354.103
 20
196.528
 30
0.000000
  70
    32
  0
VERTEX
  8
0
  5
1A7A
 10
354.177
 20
196.618
 30
0.000000
  70
    32
  0
VERTEX
  8
0
  5
1A7B
 10
354.250
 20
196.710
 30
0.000000
  70
    32
  0
VERTEX
  8
0
  5
1A7C
 10
354.321
 20
196.804
 30
0.000000
  70
    32
  0
VERTEX
  8
0
  5
1A7D
 10
354.390
 20
196.901
 30
0.000000
  70
    32
  0
VERTEX
  8
0
  5
1A7E
 10
354.457
 20
197.000
 30
0.000000
  70
    32
  0
VERTEX
  8
0
  5
1A7F
 10
354.523
 20
197.100
 30
0.000000
  70
    32
  0
VERTEX
  8
0
  5
1A80
 10
354.586
 20
197.203
 30
0.000000
  70
    32
  0
VERTEX
  8
0
  5
1A81
 10
354.647
 20
197.307
 30
0.000000
  70
    32
  0
VERTEX
  8
0
  5
1A82
 10
354.706
 20
197.413
 30
0.000000
  70
    32
  0
VERTEX
  8
0
  5
1A83
 10
354.763
 20
197.521
 30
0.000000
  70
    32
  0
VERTEX
  8
0
  5
1A84
 10
354.818
 20
197.631
 30
0.000000
  70
    32
  0
VERTEX
  8
0
  5
1A85
 10
354.870
 20
197.742
 30
0.000000
  70
    32
  0
VERTEX
  8
0
  5
1A86
 10
354.920
 20
197.855
 30
0.000000
  70
    32
  0
VERTEX
  8
0
  5
1A87
 10
354.968
 20
197.970
 30
0.000000
  70
    32
  0
VERTEX
  8
0
  5
1A88
 10
355.014
 20
198.085
 30
0.000000
  70
    32
  0
VERTEX
  8
0
  5
1A89
 10
355.058
 20
198.203
 30
0.000000
  70
    32
  0
VERTEX
  8
0
  5
1A8A
 10
355.099
 20
198.321
 30
0.000000
  70
    32
  0
VERTEX
  8
0
  5
1A8B
 10
355.137
 20
198.441
 30
0.000000
  70
    32
  0
VERTEX
  8
0
  5
1A8C
 10
355.174
 20
198.561
 30
0.000000
  70
    32
  0
VERTEX
  8
0
  5
1A8D
 10
355.208
 20
198.683
 30
0.000000
  70
    32
  0
VERTEX
  8
0
  5
1A8E
 10
355.239
 20
198.806
 30
0.000000
  70
    32
  0
VERTEX
  8
0
  5
1A8F
 10
355.268
 20
198.930
 30
0.000000
  70
    32
  0
VERTEX
  8
0
  5
1A90
 10
355.295
 20
199.054
 30
0.000000
  70
    32
  0
VERTEX
  8
0
  5
1A91
 10
355.319
 20
199.180
 30
0.000000
  70
    32
  0
VERTEX
  8
0
  5
1A92
 10
355.340
 20
199.306
 30
0.000000
  70
    32
  0
VERTEX
  8
0
  5
1A93
 10
355.360
 20
199.433
 30
0.000000
  70
    32
  0
VERTEX
  8
0
  5
1A94
 10
355.376
 20
199.560
 30
0.000000
  70
    32
  0
VERTEX
  8
0
  5
1A95
 10
355.390
 20
199.687
 30
0.000000
  70
    32
  0
VERTEX
  8
0
  5
1A96
 10
355.402
 20
199.815
 30
0.000000
  70
    32
  0
VERTEX
  8
0
  5
1A97
 10
355.411
 20
199.944
 30
0.000000
  70
    32
  0
VERTEX
  8
0
  5
1A98
 10
355.417
 20
200.072
 30
0.000000
  70
    32
  0
VERTEX
  8
0
  5
1A99
 10
355.421
 20
200.201
 30
0.000000
  70
    32
  0
VERTEX
  8
0
  5
1A9A
 10
355.422
 20
200.330
 30
0.000000
  70
    32
  0
VERTEX
  8
0
  5
1A9B
 10
355.421
 20
200.459
 30
0.000000
  70
    32
  0
VERTEX
  8
0
  5
1A9C
 10
355.417
 20
200.588
 30
0.000000
  70
    32
  0
VERTEX
  8
0
  5
1A9D
 10
355.411
 20
200.716
 30
0.000000
  70
    32
  0
VERTEX
  8
0
  5
1A9E
 10
355.402
 20
200.845
 30
0.000000
  70
    32
  0
VERTEX
  8
0
  5
1A9F
 10
355.390
 20
200.973
 30
0.000000
  70
    32
  0
VERTEX
  8
0
  5
1AA0
 10
355.376
 20
201.100
 30
0.000000
  70
    32
  0
VERTEX
  8
0
  5
1AA1
 10
355.360
 20
201.228
 30
0.000000
  70
    32
  0
VERTEX
  8
0
  5
1AA2
 10
355.340
 20
201.354
 30
0.000000
  70
    32
  0
VERTEX
  8
0
  5
1AA3
 10
355.319
 20
201.480
 30
0.000000
  70
    32
  0
VERTEX
  8
0
  5
1AA4
 10
355.295
 20
201.606
 30
0.000000
  70
    32
  0
VERTEX
  8
0
  5
1AA5
 10
355.268
 20
201.730
 30
0.000000
  70
    32
  0
VERTEX
  8
0
  5
1AA6
 10
355.239
 20
201.854
 30
0.000000
  70
    32
  0
VERTEX
  8
0
  5
1AA7
 10
355.208
 20
201.977
 30
0.000000
  70
    32
  0
VERTEX
  8
0
  5
1AA8
 10
355.174
 20
202.099
 30
0.000000
  70
    32
  0
VERTEX
  8
0
  5
1AA9
 10
355.137
 20
202.220
 30
0.000000
  70
    32
  0
VERTEX
  8
0
  5
1AAA
 10
355.099
 20
202.339
 30
0.000000
  70
    32
  0
VERTEX
  8
0
  5
1AAB
 10
355.058
 20
202.458
 30
0.000000
  70
    32
  0
VERTEX
  8
0
  5
1AAC
 10
355.014
 20
202.575
 30
0.000000
  70
    32
  0
VERTEX
  8
0
  5
1AAD
 10
354.968
 20
202.691
 30
0.000000
  70
    32
  0
VERTEX
  8
0
  5
1AAE
 10
354.920
 20
202.805
 30
0.000000
  70
    32
  0
VERTEX
  8
0
  5
1AAF
 10
354.870
 20
202.918
 30
0.000000
  70
    32
  0
VERTEX
  8
0
  5
1AB0
 10
354.818
 20
203.029
 30
0.000000
  70
    32
  0
VERTEX
  8
0
  5
1AB1
 10
354.763
 20
203.139
 30
0.000000
  70
    32
  0
VERTEX
  8
0
  5
1AB2
 10
354.706
 20
203.247
 30
0.000000
  70
    32
  0
VERTEX
  8
0
  5
1AB3
 10
354.647
 20
203.353
 30
0.000000
  70
    32
  0
VERTEX
  8
0
  5
1AB4
 10
354.586
 20
203.457
 30
0.000000
  70
    32
  0
VERTEX
  8
0
  5
1AB5
 10
354.523
 20
203.560
 30
0.000000
  70
    32
  0
VERTEX
  8
0
  5
1AB6
 10
354.457
 20
203.661
 30
0.000000
  70
    32
  0
VERTEX
  8
0
  5
1AB7
 10
354.390
 20
203.759
 30
0.000000
  70
    32
  0
VERTEX
  8
0
  5
1AB8
 10
354.321
 20
203.856
 30
0.000000
  70
    32
  0
VERTEX
  8
0
  5
1AB9
 10
354.250
 20
203.950
 30
0.000000
  70
    32
  0
VERTEX
  8
0
  5
1ABA
 10
354.177
 20
204.042
 30
0.000000
  70
    32
  0
VERTEX
  8
0
  5
1ABB
 10
354.103
 20
204.132
 30
0.000000
  70
    32
  0
VERTEX
  8
0
  5
1ABC
 10
354.026
 20
204.220
 30
0.000000
  70
    32
  0
VERTEX
  8
0
  5
1ABD
 10
353.948
 20
204.305
 30
0.000000
  70
    32
  0
VERTEX
  8
0
  5
1ABE
 10
353.868
 20
204.388
 30
0.000000
  70
    32
  0
VERTEX
  8
0
  5
1ABF
 10
353.787
 20
204.469
 30
0.000000
  70
    32
  0
VERTEX
  8
0
  5
1AC0
 10
353.704
 20
204.547
 30
0.000000
  70
    32
  0
VERTEX
  8
0
  5
1AC1
 10
353.619
 20
204.622
 30
0.000000
  70
    32
  0
VERTEX
  8
0
  5
1AC2
 10
353.533
 20
204.695
 30
0.000000
  70
    32
  0
VERTEX
  8
0
  5
1AC3
 10
353.446
 20
204.766
 30
0.000000
  70
    32
  0
VERTEX
  8
0
  5
1AC4
 10
353.357
 20
204.833
 30
0.000000
  70
    32
  0
VERTEX
  8
0
  5
1AC5
 10
353.267
 20
204.898
 30
0.000000
  70
    32
  0
VERTEX
  8
0
  5
1AC6
 10
353.176
 20
204.960
 30
0.000000
  70
    32
  0
VERTEX
  8
0
  5
1AC7
 10
353.083
 20
205.019
 30
0.000000
  70
    32
  0
VERTEX
  8
0
  5
1AC8
 10
352.989
 20
205.076
 30
0.000000
  70
    32
  0
VERTEX
  8
0
  5
1AC9
 10
352.895
 20
205.130
 30
0.000000
  70
    32
  0
VERTEX
  8
0
  5
1ACA
 10
352.799
 20
205.180
 30
0.000000
  70
    32
  0
VERTEX
  8
0
  5
1ACB
 10
352.702
 20
205.228
 30
0.000000
  70
    32
  0
VERTEX
  8
0
  5
1ACC
 10
352.604
 20
205.273
 30
0.000000
  70
    32
  0
VERTEX
  8
0
  5
1ACD
 10
352.506
 20
205.315
 30
0.000000
  70
    32
  0
VERTEX
  8
0
  5
1ACE
 10
352.406
 20
205.354
 30
0.000000
  70
    32
  0
VERTEX
  8
0
  5
1ACF
 10
352.306
 20
205.390
 30
0.000000
  70
    32
  0
VERTEX
  8
0
  5
1AD0
 10
352.205
 20
205.423
 30
0.000000
  70
    32
  0
VERTEX
  8
0
  5
1AD1
 10
352.104
 20
205.453
 30
0.000000
  70
    32
  0
VERTEX
  8
0
  5
1AD2
 10
352.002
 20
205.479
 30
0.000000
  70
    32
  0
VERTEX
  8
0
  5
1AD3
 10
351.899
 20
205.503
 30
0.000000
  70
    32
  0
VERTEX
  8
0
  5
1AD4
 10
351.796
 20
205.523
 30
0.000000
  70
    32
  0
VERTEX
  8
0
  5
1AD5
 10
351.693
 20
205.541
 30
0.000000
  70
    32
  0
VERTEX
  8
0
  5
1AD6
 10
351.589
 20
205.555
 30
0.000000
  70
    32
  0
VERTEX
  8
0
  5
1AD7
 10
351.485
 20
205.566
 30
0.000000
  70
    32
  0
VERTEX
  8
0
  5
1AD8
 10
351.381
 20
205.574
 30
0.000000
  70
    32
  0
VERTEX
  8
0
  5
1AD9
 10
351.277
 20
205.578
 30
0.000000
  70
    32
  0
VERTEX
  8
0
  5
1ADA
 10
351.172
 20
205.580
 30
0.000000
  70
    32
  0
SEQEND
  8
0
  5
1ADB
  0
POLYLINE
  5
1344
  8
0
 10
351.17246352655809
 20
205.58007070469938
 30
0.0
 66
     1
 70
     8
  0
VERTEX
  8
0
  5
1ADC
 10
351.172
 20
205.580
 30
0.000000
  70
    32
  0
VERTEX
  8
0
  5
1ADD
 10
351.054
 20
205.578
 30
0.000000
  70
    32
  0
VERTEX
  8
0
  5
1ADE
 10
350.935
 20
205.574
 30
0.000000
  70
    32
  0
VERTEX
  8
0
  5
1ADF
 10
350.816
 20
205.566
 30
0.000000
  70
    32
  0
VERTEX
  8
0
  5
1AE0
 10
350.698
 20
205.555
 30
0.000000
  70
    32
  0
VERTEX
  8
0
  5
1AE1
 10
350.580
 20
205.541
 30
0.000000
  70
    32
  0
VERTEX
  8
0
  5
1AE2
 10
350.462
 20
205.523
 30
0.000000
  70
    32
  0
VERTEX
  8
0
  5
1AE3
 10
350.345
 20
205.503
 30
0.000000
  70
    32
  0
VERTEX
  8
0
  5
1AE4
 10
350.228
 20
205.479
 30
0.000000
  70
    32
  0
VERTEX
  8
0
  5
1AE5
 10
350.112
 20
205.453
 30
0.000000
  70
    32
  0
VERTEX
  8
0
  5
1AE6
 10
349.996
 20
205.423
 30
0.000000
  70
    32
  0
VERTEX
  8
0
  5
1AE7
 10
349.881
 20
205.390
 30
0.000000
  70
    32
  0
VERTEX
  8
0
  5
1AE8
 10
349.767
 20
205.354
 30
0.000000
  70
    32
  0
VERTEX
  8
0
  5
1AE9
 10
349.654
 20
205.315
 30
0.000000
  70
    32
  0
VERTEX
  8
0
  5
1AEA
 10
349.541
 20
205.273
 30
0.000000
  70
    32
  0
VERTEX
  8
0
  5
1AEB
 10
349.430
 20
205.228
 30
0.000000
  70
    32
  0
VERTEX
  8
0
  5
1AEC
 10
349.319
 20
205.180
 30
0.000000
  70
    32
  0
VERTEX
  8
0
  5
1AED
 10
349.210
 20
205.130
 30
0.000000
  70
    32
  0
VERTEX
  8
0
  5
1AEE
 10
349.102
 20
205.076
 30
0.000000
  70
    32
  0
VERTEX
  8
0
  5
1AEF
 10
348.995
 20
205.019
 30
0.000000
  70
    32
  0
VERTEX
  8
0
  5
1AF0
 10
348.890
 20
204.960
 30
0.000000
  70
    32
  0
VERTEX
  8
0
  5
1AF1
 10
348.786
 20
204.898
 30
0.000000
  70
    32
  0
VERTEX
  8
0
  5
1AF2
 10
348.683
 20
204.833
 30
0.000000
  70
    32
  0
VERTEX
  8
0
  5
1AF3
 10
348.582
 20
204.766
 30
0.000000
  70
    32
  0
VERTEX
  8
0
  5
1AF4
 10
348.482
 20
204.695
 30
0.000000
  70
    32
  0
VERTEX
  8
0
  5
1AF5
 10
348.384
 20
204.622
 30
0.000000
  70
    32
  0
VERTEX
  8
0
  5
1AF6
 10
348.288
 20
204.547
 30
0.000000
  70
    32
  0
VERTEX
  8
0
  5
1AF7
 10
348.193
 20
204.469
 30
0.000000
  70
    32
  0
VERTEX
  8
0
  5
1AF8
 10
348.101
 20
204.388
 30
0.000000
  70
    32
  0
VERTEX
  8
0
  5
1AF9
 10
348.010
 20
204.305
 30
0.000000
  70
    32
  0
VERTEX
  8
0
  5
1AFA
 10
347.921
 20
204.220
 30
0.000000
  70
    32
  0
VERTEX
  8
0
  5
1AFB
 10
347.834
 20
204.132
 30
0.000000
  70
    32
  0
VERTEX
  8
0
  5
1AFC
 10
347.749
 20
204.042
 30
0.000000
  70
    32
  0
VERTEX
  8
0
  5
1AFD
 10
347.666
 20
203.950
 30
0.000000
  70
    32
  0
VERTEX
  8
0
  5
1AFE
 10
347.585
 20
203.856
 30
0.000000
  70
    32
  0
VERTEX
  8
0
  5
1AFF
 10
347.506
 20
203.759
 30
0.000000
  70
    32
  0
VERTEX
  8
0
  5
1B00
 10
347.429
 20
203.661
 30
0.000000
  70
    32
  0
VERTEX
  8
0
  5
1B01
 10
347.355
 20
203.560
 30
0.000000
  70
    32
  0
VERTEX
  8
0
  5
1B02
 10
347.283
 20
203.457
 30
0.000000
  70
    32
  0
VERTEX
  8
0
  5
1B03
 10
347.214
 20
203.353
 30
0.000000
  70
    32
  0
VERTEX
  8
0
  5
1B04
 10
347.146
 20
203.247
 30
0.000000
  70
    32
  0
VERTEX
  8
0
  5
1B05
 10
347.082
 20
203.139
 30
0.000000
  70
    32
  0
VERTEX
  8
0
  5
1B06
 10
347.019
 20
203.029
 30
0.000000
  70
    32
  0
VERTEX
  8
0
  5
1B07
 10
346.959
 20
202.918
 30
0.000000
  70
    32
  0
VERTEX
  8
0
  5
1B08
 10
346.902
 20
202.805
 30
0.000000
  70
    32
  0
VERTEX
  8
0
  5
1B09
 10
346.847
 20
202.691
 30
0.000000
  70
    32
  0
VERTEX
  8
0
  5
1B0A
 10
346.795
 20
202.575
 30
0.000000
  70
    32
  0
VERTEX
  8
0
  5
1B0B
 10
346.746
 20
202.458
 30
0.000000
  70
    32
  0
VERTEX
  8
0
  5
1B0C
 10
346.699
 20
202.339
 30
0.000000
  70
    32
  0
VERTEX
  8
0
  5
1B0D
 10
346.655
 20
202.220
 30
0.000000
  70
    32
  0
VERTEX
  8
0
  5
1B0E
 10
346.613
 20
202.099
 30
0.000000
  70
    32
  0
VERTEX
  8
0
  5
1B0F
 10
346.575
 20
201.977
 30
0.000000
  70
    32
  0
VERTEX
  8
0
  5
1B10
 10
346.539
 20
201.854
 30
0.000000
  70
    32
  0
VERTEX
  8
0
  5
1B11
 10
346.506
 20
201.730
 30
0.000000
  70
    32
  0
VERTEX
  8
0
  5
1B12
 10
346.476
 20
201.606
 30
0.000000
  70
    32
  0
VERTEX
  8
0
  5
1B13
 10
346.448
 20
201.480
 30
0.000000
  70
    32
  0
VERTEX
  8
0
  5
1B14
 10
346.423
 20
201.354
 30
0.000000
  70
    32
  0
VERTEX
  8
0
  5
1B15
 10
346.402
 20
201.228
 30
0.000000
  70
    32
  0
VERTEX
  8
0
  5
1B16
 10
346.383
 20
201.100
 30
0.000000
  70
    32
  0
VERTEX
  8
0
  5
1B17
 10
346.367
 20
200.973
 30
0.000000
  70
    32
  0
VERTEX
  8
0
  5
1B18
 10
346.354
 20
200.845
 30
0.000000
  70
    32
  0
VERTEX
  8
0
  5
1B19
 10
346.344
 20
200.716
 30
0.000000
  70
    32
  0
VERTEX
  8
0
  5
1B1A
 10
346.336
 20
200.588
 30
0.000000
  70
    32
  0
VERTEX
  8
0
  5
1B1B
 10
346.332
 20
200.459
 30
0.000000
  70
    32
  0
VERTEX
  8
0
  5
1B1C
 10
346.330
 20
200.330
 30
0.000000
  70
    32
  0
VERTEX
  8
0
  5
1B1D
 10
346.332
 20
200.201
 30
0.000000
  70
    32
  0
VERTEX
  8
0
  5
1B1E
 10
346.336
 20
200.072
 30
0.000000
  70
    32
  0
VERTEX
  8
0
  5
1B1F
 10
346.344
 20
199.944
 30
0.000000
  70
    32
  0
VERTEX
  8
0
  5
1B20
 10
346.354
 20
199.815
 30
0.000000
  70
    32
  0
VERTEX
  8
0
  5
1B21
 10
346.367
 20
199.687
 30
0.000000
  70
    32
  0
VERTEX
  8
0
  5
1B22
 10
346.383
 20
199.560
 30
0.000000
  70
    32
  0
VERTEX
  8
0
  5
1B23
 10
346.402
 20
199.433
 30
0.000000
  70
    32
  0
VERTEX
  8
0
  5
1B24
 10
346.423
 20
199.306
 30
0.000000
  70
    32
  0
VERTEX
  8
0
  5
1B25
 10
346.448
 20
199.180
 30
0.000000
  70
    32
  0
VERTEX
  8
0
  5
1B26
 10
346.476
 20
199.054
 30
0.000000
  70
    32
  0
VERTEX
  8
0
  5
1B27
 10
346.506
 20
198.930
 30
0.000000
  70
    32
  0
VERTEX
  8
0
  5
1B28
 10
346.539
 20
198.806
 30
0.000000
  70
    32
  0
VERTEX
  8
0
  5
1B29
 10
346.575
 20
198.683
 30
0.000000
  70
    32
  0
VERTEX
  8
0
  5
1B2A
 10
346.613
 20
198.561
 30
0.000000
  70
    32
  0
VERTEX
  8
0
  5
1B2B
 10
346.655
 20
198.441
 30
0.000000
  70
    32
  0
VERTEX
  8
0
  5
1B2C
 10
346.699
 20
198.321
 30
0.000000
  70
    32
  0
VERTEX
  8
0
  5
1B2D
 10
346.746
 20
198.203
 30
0.000000
  70
    32
  0
VERTEX
  8
0
  5
1B2E
 10
346.795
 20
198.085
 30
0.000000
  70
    32
  0
VERTEX
  8
0
  5
1B2F
 10
346.847
 20
197.970
 30
0.000000
  70
    32
  0
VERTEX
  8
0
  5
1B30
 10
346.902
 20
197.855
 30
0.000000
  70
    32
  0
VERTEX
  8
0
  5
1B31
 10
346.959
 20
197.742
 30
0.000000
  70
    32
  0
VERTEX
  8
0
  5
1B32
 10
347.019
 20
197.631
 30
0.000000
  70
    32
  0
VERTEX
  8
0
  5
1B33
 10
347.082
 20
197.521
 30
0.000000
  70
    32
  0
VERTEX
  8
0
  5
1B34
 10
347.146
 20
197.413
 30
0.000000
  70
    32
  0
VERTEX
  8
0
  5
1B35
 10
347.214
 20
197.307
 30
0.000000
  70
    32
  0
VERTEX
  8
0
  5
1B36
 10
347.283
 20
197.203
 30
0.000000
  70
    32
  0
VERTEX
  8
0
  5
1B37
 10
347.355
 20
197.100
 30
0.000000
  70
    32
  0
VERTEX
  8
0
  5
1B38
 10
347.429
 20
197.000
 30
0.000000
  70
    32
  0
VERTEX
  8
0
  5
1B39
 10
347.506
 20
196.901
 30
0.000000
  70
    32
  0
VERTEX
  8
0
  5
1B3A
 10
347.585
 20
196.804
 30
0.000000
  70
    32
  0
VERTEX
  8
0
  5
1B3B
 10
347.666
 20
196.710
 30
0.000000
  70
    32
  0
VERTEX
  8
0
  5
1B3C
 10
347.749
 20
196.618
 30
0.000000
  70
    32
  0
VERTEX
  8
0
  5
1B3D
 10
347.834
 20
196.528
 30
0.000000
  70
    32
  0
VERTEX
  8
0
  5
1B3E
 10
347.921
 20
196.440
 30
0.000000
  70
    32
  0
VERTEX
  8
0
  5
1B3F
 10
348.010
 20
196.355
 30
0.000000
  70
    32
  0
VERTEX
  8
0
  5
1B40
 10
348.101
 20
196.272
 30
0.000000
  70
    32
  0
VERTEX
  8
0
  5
1B41
 10
348.193
 20
196.191
 30
0.000000
  70
    32
  0
VERTEX
  8
0
  5
1B42
 10
348.288
 20
196.113
 30
0.000000
  70
    32
  0
VERTEX
  8
0
  5
1B43
 10
348.384
 20
196.038
 30
0.000000
  70
    32
  0
VERTEX
  8
0
  5
1B44
 10
348.482
 20
195.965
 30
0.000000
  70
    32
  0
VERTEX
  8
0
  5
1B45
 10
348.582
 20
195.895
 30
0.000000
  70
    32
  0
VERTEX
  8
0
  5
1B46
 10
348.683
 20
195.827
 30
0.000000
  70
    32
  0
VERTEX
  8
0
  5
1B47
 10
348.786
 20
195.762
 30
0.000000
  70
    32
  0
VERTEX
  8
0
  5
1B48
 10
348.890
 20
195.700
 30
0.000000
  70
    32
  0
VERTEX
  8
0
  5
1B49
 10
348.995
 20
195.641
 30
0.000000
  70
    32
  0
VERTEX
  8
0
  5
1B4A
 10
349.102
 20
195.584
 30
0.000000
  70
    32
  0
VERTEX
  8
0
  5
1B4B
 10
349.210
 20
195.530
 30
0.000000
  70
    32
  0
VERTEX
  8
0
  5
1B4C
 10
349.319
 20
195.480
 30
0.000000
  70
    32
  0
VERTEX
  8
0
  5
1B4D
 10
349.430
 20
195.432
 30
0.000000
  70
    32
  0
VERTEX
  8
0
  5
1B4E
 10
349.541
 20
195.387
 30
0.000000
  70
    32
  0
VERTEX
  8
0
  5
1B4F
 10
349.654
 20
195.345
 30
0.000000
  70
    32
  0
VERTEX
  8
0
  5
1B50
 10
349.767
 20
195.306
 30
0.000000
  70
    32
  0
VERTEX
  8
0
  5
1B51
 10
349.881
 20
195.270
 30
0.000000
  70
    32
  0
VERTEX
  8
0
  5
1B52
 10
349.996
 20
195.237
 30
0.000000
  70
    32
  0
VERTEX
  8
0
  5
1B53
 10
350.112
 20
195.208
 30
0.000000
  70
    32
  0
VERTEX
  8
0
  5
1B54
 10
350.228
 20
195.181
 30
0.000000
  70
    32
  0
VERTEX
  8
0
  5
1B55
 10
350.345
 20
195.157
 30
0.000000
  70
    32
  0
VERTEX
  8
0
  5
1B56
 10
350.462
 20
195.137
 30
0.000000
  70
    32
  0
VERTEX
  8
0
  5
1B57
 10
350.580
 20
195.120
 30
0.000000
  70
    32
  0
VERTEX
  8
0
  5
1B58
 10
350.698
 20
195.105
 30
0.000000
  70
    32
  0
VERTEX
  8
0
  5
1B59
 10
350.816
 20
195.094
 30
0.000000
  70
    32
  0
VERTEX
  8
0
  5
1B5A
 10
350.935
 20
195.086
 30
0.000000
  70
    32
  0
VERTEX
  8
0
  5
1B5B
 10
351.054
 20
195.082
 30
0.000000
  70
    32
  0
VERTEX
  8
0
  5
1B5C
 10
351.172
 20
195.080
 30
0.000000
  70
    32
  0
SEQEND
  8
0
  5
1B5D
  0
CIRCLE
  5
1345
  8
0
 10
339.42246672903627
 20
200.3300707046993
 30
0.0
 40
5.2499967267411867
  0
CIRCLE
  5
1346
  8
3
 10
339.42246352655809
 20
200.3300707046993
 30
0.0
 40
3.0
  0
CIRCLE
  5
1347
  8
0
 10
339.42246672903627
 20
200.3300707046993
 30
0.0
 40
2.4584967975218879
  0
LINE
  5
1349
  8
0
 10
325.48355165692578
 20
204.8300696745296
 30
0.0
 11
315.92246753369989
 21
204.8300696745296
 31
0.0
  0
LINE
  5
134A
  8
0
 10
336.71830791300499
 20
204.8300696745296
 30
0.0
 11
330.16650954206699
 21
204.8300696745296
 31
0.0
  0
LINE
  5
134B
  8
0
 10
348.67841751104908
 20
204.8300696745296
 30
0.0
 11
342.1266255450675
 21
204.8300696745296
 31
0.0
  0
LINE
  5
134C
  8
0
 10
330.42247049407399
 20
206.830070002355
 30
0.0
 11
330.42247049407382
 21
209.13006933677161
 31
0.0
  0
LINE
  5
134D
  8
0
 10
330.42247049407382
 20
209.13006933677161
 30
0.0
 11
330.92246964470758
 21
209.6300666247603
 31
0.0
  0
LINE
  5
134E
  8
0
 10
348.42246296399918
 20
209.13006933677161
 30
0.0
 11
347.92246381336543
 21
209.6300666247603
 31
0.0
  0
LINE
  5
134F
  8
0
 10
348.42246296399901
 20
206.830070002355
 30
0.0
 11
348.42246296399918
 21
209.13006933677161
 31
0.0
  0
LINE
  5
1350
  8
0
 10
347.92246381336543
 20
209.6300666247603
 30
0.0
 11
330.9224696447078
 21
209.63007337994969
 31
0.0
  0
LINE
  5
1351
  8
0
 10
330.42246373885962
 20
209.13006933677161
 30
0.0
 11
348.42246296399901
 21
209.1300693367713
 31
0.0
  0
ENDSEC
  0
EOF
