  0
SECTION
  2
HEADER
  9
$ACADVER
  1
AC1009
  9
$INSBASE
 10
0.0
 20
0.0
 30
0.0
  9
$EXTMIN
 10
0.0
 20
-2.960436562073669
 30
0.0
  9
$EXTMAX
 10
364.42246710156621
 20
324.62983800319807
 30
0.0
  9
$LIMMIN
 10
0.0
 20
0.0
  9
$LIMMAX
 10
0.0
 20
0.0
  9
$ORTHOMODE
 70
     1
  9
$REGENMODE
 70
     1
  9
$FILLMODE
 70
     1
  9
$QTEXTMODE
 70
     0
  9
$MIRRTEXT
 70
     0
  9
$DRAGMODE
 70
     2
  9
$LTSCALE
 40
1.0
  9
$OSMODE
 70
    37
  9
$ATTMODE
 70
     1
  9
$TEXTSIZE
 40
0.0
  9
$TRACEWID
 40
0.05
  9
$TEXTSTYLE
  7
STANDARD
  9
$CLAYER
  8
0
  9
$CELTYPE
  6
BYLAYER
  9
$CECOLOR
 62
   256
  9
$DIMSCALE
 40
1.0
  9
$DIMASZ
 40
6.0
  9
$DIMEXO
 40
1.0
  9
$DIMDLI
 40
0.38
  9
$DIMRND
 40
0.0
  9
$DIMDLE
 40
1.0
  9
$DIMEXE
 40
0.18
  9
$DIMTP
 40
0.0
  9
$DIMTM
 40
0.0
  9
$DIMTXT
 40
3.5
  9
$DIMCEN
 40
0.09
  9
$DIMTSZ
 40
0.0
  9
$DIMTOL
 70
     0
  9
$DIMLIM
 70
     0
  9
$DIMTIH
 70
     1
  9
$DIMTOH
 70
     1
  9
$DIMSE1
 70
     0
  9
$DIMSE2
 70
     0
  9
$DIMTAD
 70
     1
  9
$DIMZIN
 70
     0
  9
$DIMBLK
  1

  9
$DIMASO
 70
     1
  9
$DIMSHO
 70
     1
  9
$DIMPOST
  1

  9
$DIMAPOST
  1

  9
$DIMALT
 70
     0
  9
$DIMALTD
 70
     2
  9
$DIMALTF
 40
0.0394
  9
$DIMLFAC
 40
2.0
  9
$DIMTOFL
 70
     0
  9
$DIMTVP
 40
0.0
  9
$DIMTIX
 70
     0
  9
$DIMSOXD
 70
     0
  9
$DIMSAH
 70
     0
  9
$DIMBLK1
  1

  9
$DIMBLK2
  1

  9
$DIMSTYLE
  2
STANDARD
  9
$DIMCLRD
 70
     0
  9
$DIMCLRE
 70
     0
  9
$DIMCLRT
 70
     0
  9
$DIMTFAC
 40
1.0
  9
$DIMGAP
 40
1.0
  9
$LUNITS
 70
     2
  9
$LUPREC
 70
     2
  9
$SKETCHINC
 40
0.1
  9
$FILLETRAD
 40
0.0
  9
$AUNITS
 70
     0
  9
$AUPREC
 70
     2
  9
$MENU
  1
acad
  9
$ELEVATION
 40
0.0
  9
$PELEVATION
 40
0.0
  9
$THICKNESS
 40
0.0
  9
$LIMCHECK
 70
     0
  9
$BLIPMODE
 70
     0
  9
$CHAMFERA
 40
0.0
  9
$CHAMFERB
 40
0.0
  9
$SKPOLY
 70
     0
  9
$TDCREATE
 40
2444972.375
  9
$TDUPDATE
 40
2456952.4803830669
  9
$TDINDWG
 40
0.1059229167
  9
$TDUSRTIMER
 40
0.1059229167
  9
$USRTIMER
 70
     1
  9
$ANGBASE
 50
0.0
  9
$ANGDIR
 70
     0
  9
$PDMODE
 70
     0
  9
$PDSIZE
 40
-1.0
  9
$PLINEWID
 40
0.0
  9
$COORDS
 70
     1
  9
$SPLFRAME
 70
     0
  9
$SPLINETYPE
 70
     6
  9
$SPLINESEGS
 70
     8
  9
$ATTDIA
 70
     0
  9
$ATTREQ
 70
     1
  9
$HANDLING
 70
     1
  9
$HANDSEED
  5
1EF0
  9
$SURFTAB1
 70
     6
  9
$SURFTAB2
 70
     6
  9
$SURFTYPE
 70
     6
  9
$SURFU
 70
     6
  9
$SURFV
 70
     6
  9
$UCSNAME
  2

  9
$UCSORG
 10
0.0
 20
0.0
 30
0.0
  9
$UCSXDIR
 10
1.0
 20
0.0
 30
0.0
  9
$UCSYDIR
 10
0.0
 20
1.0
 30
0.0
  9
$PUCSNAME
  2

  9
$PUCSORG
 10
0.0
 20
0.0
 30
0.0
  9
$PUCSXDIR
 10
1.0
 20
0.0
 30
0.0
  9
$PUCSYDIR
 10
0.0
 20
1.0
 30
0.0
  9
$USERI1
 70
     0
  9
$USERI2
 70
     1
  9
$USERI3
 70
     0
  9
$USERI4
 70
     0
  9
$USERI5
 70
     0
  9
$USERR1
 40
0.0
  9
$USERR2
 40
0.0
  9
$USERR3
 40
0.0
  9
$USERR4
 40
0.0
  9
$USERR5
 40
0.0
  9
$WORLDVIEW
 70
     1
  9
$SHADEDGE
 70
     3
  9
$SHADEDIF
 70
    70
  9
$TILEMODE
 70
     1
  9
$MAXACTVP
 70
    16
  9
$PLIMCHECK
 70
     0
  9
$PEXTMIN
 10
1.0000000000000000E+020
 20
1.0000000000000000E+020
 30
1.0000000000000000E+020
  9
$PEXTMAX
 10
-1.0000000000000000E+020
 20
-1.0000000000000000E+020
 30
-1.0000000000000000E+020
  9
$PLIMMIN
 10
0.0
 20
0.0
  9
$PLIMMAX
 10
12.0
 20
9.0
  9
$UNITMODE
 70
     0
  9
$VISRETAIN
 70
     0
  9
$PLINEGEN
 70
     1
  9
$PSLTSCALE
 70
     1
  0
ENDSEC
  0
SECTION
  2
TABLES
  0
TABLE
  2
VPORT
 70
     1
  0
VPORT
  2
*ACTIVE
 70
     0
 10
0.0
 20
0.0
 11
1.0
 21
1.0
 12
314.18636995827541
 22
180.0
 13
0.0
 23
0.0
 14
1.0
 24
1.0
 15
0.0
 25
0.0
 16
0.0
 26
0.0
 36
1.0
 17
0.0
 27
0.0
 37
0.0
 40
360.0
 41
1.7454798331015291
 42
50.0
 43
0.0
 44
0.0
 50
0.0
 51
0.0
 71
     0
 72
  2000
 73
     1
 74
     0
 75
     0
 76
     0
 77
     0
 78
     0
  0
ENDTAB
  0
TABLE
  2
LTYPE
 70
     3
  0
LTYPE
  2
CONTINUOUS
 70
     0
  3
Solid Line
 72
    65
 73
     0
 40
0.0
  0
LTYPE
  2
CENTERX2
 70
     0
  3
Center (2x) ________  __  ________  __  _____
 72
    65
 73
     4
 40
20.32
 49
12.699999999999999
 49
-2.54
 49
2.54
 49
-2.54
  0
LTYPE
  2
PHANTOM2
 70
     0
  3
___ _ _ ___ _ _ ___ _ _ ___ _ _
 72
    65
 73
     6
 40
1.25
 49
0.625
 49
-0.125
 49
0.125
 49
-0.125
 49
0.125
 49
-0.125
  0
ENDTAB
  0
TABLE
  2
LAYER
 70
     4
  0
LAYER
  2
0
 70
     0
 62
     7
  6
CONTINUOUS
  0
LAYER
  2
DEFPOINTS
 70
     0
 62
     7
  6
CONTINUOUS
  0
LAYER
  2
1
 70
     0
 62
     1
  6
CENTERX2
  0
LAYER
  2
3
 70
     0
 62
     3
  6
CONTINUOUS
  0
ENDTAB
  0
TABLE
  2
STYLE
 70
     2
  0
STYLE
  2
STANDARD
 70
     0
 40
0.0
 41
1.0
 50
0.0
 71
     0
 42
0.0
  3
txt
  4
bigfont
  0
STYLE
  2
STANDARD1
 70
     0
 40
0.0
 41
1.0
 50
0.0
 71
     0
 42
3.0
  3
txt
  4

  0
ENDTAB
  0
TABLE
  2
VIEW
 70
     0
  0
ENDTAB
  0
TABLE
  2
UCS
 70
     0
  0
ENDTAB
  0
TABLE
  2
APPID
 70
    29
  0
APPID
  2
ACAD
 70
     0
  0
APPID
  2
DCO15
 70
     0
  0
APPID
  2
GENIUS_GENOREF_13
 70
     0
  0
APPID
  2
GENIUS_GENOENT_13
 70
     0
  0
APPID
  2
GENIUS_GENBH_13
 70
     0
  0
APPID
  2
GENIUS_GENOBJ_13
 70
     0
  0
APPID
  2
GENIUS_GENODEF_13
 70
     0
  0
APPID
  2
GENIUS_GENOLIS_13
 70
     0
  0
APPID
  2
GENIUS_GENOBJ-NBEHI-BHF_13
 70
     0
  0
APPID
  2
GENIUS_GENOBJ-NBEHI-BHB_13
 70
     0
  0
APPID
  2
GENIUS_GENOBJ-F-PART_13
 70
     0
  0
APPID
  2
GENIUS_GEFSTDP_13
 70
     0
  0
APPID
  2
GENIUS_GENOBJ-N-RSSYM_13
 70
     0
  0
APPID
  2
GENIUS_GENSYMENT_13
 70
     0
  0
APPID
  2
GENIUS_GENOBJ-N-TIT_13
 70
     0
  0
APPID
  2
GENIUS_GENTITLE_13
 70
     0
  0
APPID
  2
GENIUS_GENZVEED_13
 70
     0
  0
APPID
  2
GENIUS_GENOBJ-N-LEADER_13
 70
     0
  0
APPID
  2
GENIUS_GENOBJ-N-FIL_13
 70
     0
  0
APPID
  2
GENIUS_GENOBJ-N-SEC_13
 70
     0
  0
APPID
  2
GENIUS_GENOBJ-N-CRS_13
 70
     0
  0
APPID
  2
GENIUS_GENOBJ-N-ZOO_13
 70
     0
  0
APPID
  2
GENIUS_GENZOO_13
 70
     0
  0
APPID
  2
GENIUS_GENOBJ-F-TOL_13
 70
     0
  0
APPID
  2
GENIUS_GENFIL_13
 70
     0
  0
APPID
  2
GENIUS_GENOBJ-N-CHA_13
 70
     0
  0
APPID
  2
ACAD_MLEADERVER
 70
     0
  0
APPID
  2
ACAD_NAV_VCDISPLAY
 70
     0
  0
APPID
  2
ACAD_EXEMPT_FROM_CAD_STANDARDS
 70
     0
  0
ENDTAB
  0
TABLE
  2
DIMSTYLE
 70
     1
  0
DIMSTYLE
  2
STANDARD
 70
     0
  3

  4

  5

  6

  7

 40
1.0
 41
0.18
 42
0.0625
 43
0.38
 44
0.18
 45
0.0
 46
0.0
 47
0.0
 48
0.0
140
0.18
141
0.09
142
0.0
143
25.399999999999999
144
1.0
145
0.0
146
1.0
147
0.09
 71
     0
 72
     0
 73
     1
 74
     1
 75
     0
 76
     0
 77
     0
 78
     0
170
     0
171
     2
172
     0
173
     0
174
     0
175
     0
176
     0
177
     0
178
     0
  0
ENDTAB
  0
ENDSEC
  0
SECTION
  2
BLOCKS
  0
BLOCK
  8
0
  2
$MODEL_SPACE
 70
     0
 10
0.0
 20
0.0
 30
0.0
  3
$MODEL_SPACE
  1

  0
ENDBLK
  5
E
  8
0
  0
BLOCK
 67
     1
  8
0
  2
$PAPER_SPACE
 70
     0
 10
0.0
 20
0.0
 30
0.0
  3
$PAPER_SPACE
  1

  0
ENDBLK
  5
10
 67
     1
  8
0
  0
ENDSEC
  0
SECTION
  2
ENTITIES
  0
TEXT
  5
A62
  8
0
 62
     3
 10
0.0
 20
0.0
 30
0.0
 40
10.0
  1
QLPD200NL
  7
STANDARD1
  0
LINE
  5
1033
  8
0
 10
234.42246389908709
 20
193.63007007388069
 30
0.0
 11
234.2224642388336
 21
193.83007159677931
 31
0.0
  0
LINE
  5
1034
  8
0
 10
184.62246281428261
 20
193.83007159677931
 30
0.0
 11
184.422463154029
 21
193.63007007388069
 31
0.0
  0
LINE
  5
1036
  8
0
 10
234.42246389908709
 20
175.03007093665801
 30
0.0
 11
234.42246389908709
 21
193.63007007388069
 31
0.0
  0
LINE
  5
1037
  8
0
 10
184.422463154029
 20
193.63007007388069
 30
0.0
 11
184.422463154029
 21
175.03007093665789
 31
0.0
  0
LINE
  5
1038
  8
0
 10
184.422463154029
 20
175.03007093665789
 30
0.0
 11
184.62246281428261
 21
174.83007081074311
 31
0.0
  0
LINE
  5
1039
  8
0
 10
234.2224642388336
 20
174.83007081074311
 30
0.0
 11
234.42246389908709
 21
175.03007093665789
 31
0.0
  0
LINE
  5
103A
  8
0
 10
234.42246389908709
 20
174.6300706848283
 30
0.0
 11
234.2224642388336
 21
174.83007081074311
 31
0.0
  0
LINE
  5
103B
  8
0
 10
184.62246281428261
 20
174.83007081074311
 30
0.0
 11
184.422463154029
 21
174.6300706848283
 31
0.0
  0
LINE
  5
103C
  8
0
 10
184.422463154029
 20
173.33007079770459
 30
0.0
 11
184.92246416730799
 21
172.83007071574821
 31
0.0
  0
LINE
  5
103D
  8
0
 10
233.92246288580819
 20
172.83007071574821
 30
0.0
 11
234.42246389908709
 21
173.33007079770459
 31
0.0
  0
LINE
  5
103E
  8
0
 10
234.42246389908709
 20
173.33007079770459
 30
0.0
 11
234.42246389908709
 21
174.6300706848283
 31
0.0
  0
LINE
  5
103F
  8
0
 10
184.422463154029
 20
174.6300706848283
 30
0.0
 11
184.422463154029
 21
173.33007079770459
 31
0.0
  0
LINE
  5
1040
  8
0
 10
232.92246272189541
 20
193.83007159677931
 30
0.0
 11
232.92246272189541
 21
195.08038847994499
 31
0.0
  0
LINE
  5
1041
  8
0
 10
185.92246433122079
 20
204.8300696745296
 30
0.0
 11
185.92246433122079
 21
193.83007159677931
 31
0.0
  0
ARC
  5
1042
  8
0
 10
187.92246352655809
 20
204.83007070469949
 30
0.0
 40
2.0
 50
90.0
 51
180.0
  0
ARC
  5
1043
  8
0
 10
230.92246352655809
 20
204.83007070469949
 30
0.0
 40
2.0
 50
21.859245863578671
 51
90.0
  0
LINE
  5
1044
  8
0
 10
226.42246445043011
 20
170.62983894476341
 30
0.0
 11
226.42246445043011
 21
172.83007071574821
 31
0.0
  0
LINE
  5
1045
  8
0
 10
192.4224626026861
 20
172.83007071574821
 30
0.0
 11
192.4224626026861
 21
170.62983894476341
 31
0.0
  0
LINE
  5
1046
  8
0
 10
192.4224626026861
 20
170.62983894476341
 30
0.0
 11
193.42246276659881
 21
169.6298388972659
 31
0.0
  0
LINE
  5
1047
  8
0
 10
225.42246428651731
 20
169.6298388972659
 30
0.0
 11
226.42246445043011
 21
170.62983894476341
 31
0.0
  0
LINE
  5
1048
  8
0
 10
218.4224631391279
 20
206.83007000235509
 30
0.0
 11
218.4224631391279
 21
209.12984071520759
 31
0.0
  0
LINE
  5
1049
  8
0
 10
200.42246391398831
 20
209.12984071520759
 30
0.0
 11
200.42246391398831
 21
206.83007000235509
 31
0.0
  0
LINE
  5
104A
  8
0
 10
218.4224631391279
 20
209.12984071520759
 30
0.0
 11
217.92246398849409
 21
209.62983800319631
 31
0.0
  0
LINE
  5
104B
  8
0
 10
200.92246306462209
 20
209.62983800319631
 30
0.0
 11
200.42246391398831
 21
209.12984071520759
 31
0.0
  0
LINE
  5
1065
  8
0
 10
184.62246281428261
 20
193.83007159677931
 30
0.0
 11
234.22246423883371
 21
193.83007159677919
 31
0.0
  0
LINE
  5
1066
  8
0
 10
234.42246389908721
 20
193.6300700738808
 30
0.0
 11
184.422463154029
 21
193.63007007388069
 31
0.0
  0
LINE
  5
1069
  8
0
 10
184.422463154029
 20
175.03007093665789
 30
0.0
 11
234.42246389908721
 21
175.03007093665789
 31
0.0
  0
LINE
  5
106B
  8
0
 10
234.2224642388336
 20
174.83007081074311
 30
0.0
 11
222.05633481366559
 21
174.83007081074311
 31
0.0
  0
LINE
  5
106C
  8
0
 10
234.42246389908701
 20
174.6300706848283
 30
0.0
 11
184.422463154029
 21
174.6300706848283
 31
0.0
  0
LINE
  5
106E
  8
0
 10
184.6224628142827
 20
174.83007081074311
 30
0.0
 11
234.2224642388336
 21
174.83007081074311
 31
0.0
  0
LINE
  5
1070
  8
0
 10
233.92246288580819
 20
172.83007071574821
 30
0.0
 11
184.92246416730799
 21
172.83007071574821
 31
0.0
  0
LINE
  5
1071
  8
0
 10
184.422463154029
 20
173.33007079770459
 30
0.0
 11
234.42246389908709
 21
173.33007079770459
 31
0.0
  0
LINE
  5
1072
  8
0
 10
232.76636001987379
 20
204.8300696745296
 30
0.0
 11
230.86121770455321
 21
204.8300696745296
 31
0.0
  0
POLYLINE
  5
1073
  8
0
 66
     1
 10
0.0
 20
0.0
 30
0.0
 70
   128
  0
VERTEX
  5
1742
  8
0
 10
232.76636001987379
 20
204.8300696745296
 30
0.0
  0
VERTEX
  5
1743
  8
0
 10
232.64015463514249
 20
204.12133319524719
 30
0.0
  0
VERTEX
  5
1744
  8
0
 10
232.451226537656
 20
202.70419551280929
 30
0.0
  0
VERTEX
  5
1745
  8
0
 10
232.3385253302566
 20
201.0071320667644
 30
0.0
  0
VERTEX
  5
1746
  8
0
 10
232.3531899355165
 20
199.26671369222589
 30
0.0
  0
VERTEX
  5
1747
  8
0
 10
232.4829082689993
 20
197.6661166384597
 30
0.0
  0
VERTEX
  5
1748
  8
0
 10
232.6742466293089
 20
196.33534049836589
 30
0.0
  0
VERTEX
  5
1749
  8
0
 10
232.8469827525131
 20
195.4289866819758
 30
0.0
  0
VERTEX
  5
174A
  8
0
 10
232.92199706060811
 20
195.0821584298987
 30
0.0
  0
VERTEX
  5
174B
  8
0
 10
232.9224627218953
 20
195.08038847994541
 30
0.0
  0
SEQEND
  5
174C
  8
0
  0
POLYLINE
  5
1075
  8
0
 66
     1
 10
0.0
 20
0.0
 30
0.0
 70
   128
  0
VERTEX
  5
174D
  8
0
 10
232.77866617272511
 20
205.57472615278451
 30
0.0
  0
VERTEX
  5
174E
  8
0
 10
232.7784988783113
 20
205.56882081774671
 30
0.0
  0
VERTEX
  5
174F
  8
0
 10
232.80486089510839
 20
205.16450016049339
 30
0.0
  0
VERTEX
  5
1750
  8
0
 10
232.76636001987379
 20
204.8300696745296
 30
0.0
  0
SEQEND
  5
1751
  8
0
  0
LINE
  5
1077
  8
0
 10
187.92078740695121
 20
206.8300700023552
 30
0.0
 11
230.92246425671499
 21
206.83007000235509
 31
0.0
  0
LINE
  5
107E
  8
0
 10
192.4224626026861
 20
170.62983894476341
 30
0.0
 11
226.42246445043011
 21
170.62983894476341
 31
0.0
  0
LINE
  5
1081
  8
0
 10
225.42246428651731
 20
169.62983889726581
 30
0.0
 11
193.42246276659861
 21
169.62983889726601
 31
0.0
  0
LINE
  5
1083
  8
0
 10
218.4224631391279
 20
209.12984071520759
 30
0.0
 11
200.42246391398831
 21
209.12984071520759
 31
0.0
  0
LINE
  5
1084
  8
0
 10
200.92246306462209
 20
209.6298380031962
 30
0.0
 11
217.92246398849409
 21
209.62983800319631
 31
0.0
  0
LINE
  5
1086
  8
0
 10
228.1584288050569
 20
204.8300696745296
 30
0.0
 11
185.92246433122079
 21
204.8300696745296
 31
0.0
  0
LINE
  5
1088
  8
0
 10
364.42246710156621
 20
175.03007093665789
 30
0.0
 11
364.42246710156621
 21
193.63007007388069
 31
0.0
  0
LINE
  5
1089
  8
0
 10
314.4224663565081
 20
193.63007007388069
 30
0.0
 11
314.4224663565081
 21
175.03007093665789
 31
0.0
  0
LINE
  5
108A
  8
0
 10
364.42246710156621
 20
193.63007007388069
 30
0.0
 11
364.22246744131269
 21
193.83007159677931
 31
0.0
  0
LINE
  5
108B
  8
0
 10
314.62246601676168
 20
193.83007159677931
 30
0.0
 11
314.4224663565081
 21
193.63007007388069
 31
0.0
  0
LINE
  5
108C
  8
0
 10
314.4224663565081
 20
175.03007093665789
 30
0.0
 11
314.62246601676168
 21
174.83007081074311
 31
0.0
  0
LINE
  5
108D
  8
0
 10
364.22246744131269
 20
174.83007081074311
 30
0.0
 11
364.42246710156621
 21
175.03007093665789
 31
0.0
  0
LINE
  5
108E
  8
0
 10
364.42246710156621
 20
173.33007079770459
 30
0.0
 11
364.42246710156621
 21
174.6300706848283
 31
0.0
  0
LINE
  5
108F
  8
0
 10
314.4224663565081
 20
174.6300706848283
 30
0.0
 11
314.4224663565081
 21
173.33007079770459
 31
0.0
  0
LINE
  5
1090
  8
0
 10
314.4224663565081
 20
173.33007079770459
 30
0.0
 11
314.92246736978711
 21
172.83007071574821
 31
0.0
  0
LINE
  5
1091
  8
0
 10
363.92246608828719
 20
172.83007071574821
 30
0.0
 11
364.42246710156621
 21
173.33007079770459
 31
0.0
  0
LINE
  5
1092
  8
0
 10
364.42246710156621
 20
174.6300706848283
 30
0.0
 11
364.22246744131269
 21
174.83007081074311
 31
0.0
  0
LINE
  5
1093
  8
0
 10
314.62246601676168
 20
174.83007081074311
 30
0.0
 11
314.4224663565081
 21
174.6300706848283
 31
0.0
  0
ARC
  5
1094
  8
0
 10
317.92246672903718
 20
204.83007070469949
 30
0.0
 40
2.0
 50
90.0
 51
180.0
  0
ARC
  5
1095
  8
0
 10
360.92246672903718
 20
204.83007070469949
 30
0.0
 40
2.0
 50
0.0
 51
90.0
  0
LINE
  5
1096
  8
0
 10
362.92246592437448
 20
193.83007159677931
 30
0.0
 11
362.92246592437448
 21
204.8300696745296
 31
0.0
  0
LINE
  5
1097
  8
0
 10
315.92246753369989
 20
204.8300696745296
 30
0.0
 11
315.92246753369989
 21
193.83007159677931
 31
0.0
  0
LINE
  5
1098
  8
0
 10
322.42246580516519
 20
170.62983894476341
 30
0.0
 11
323.4224659690779
 21
169.6298388972659
 31
0.0
  0
LINE
  5
1099
  8
0
 10
355.4224674889964
 20
169.6298388972659
 30
0.0
 11
356.42246765290918
 21
170.62983894476341
 31
0.0
  0
LINE
  5
109A
  8
0
 10
356.42246765290918
 20
170.62983894476341
 30
0.0
 11
356.42246765290918
 21
172.83007071574821
 31
0.0
  0
LINE
  5
109B
  8
0
 10
322.42246580516519
 20
172.83007071574821
 30
0.0
 11
322.42246580516519
 21
170.62983894476341
 31
0.0
  0
LINE
  5
10A2
  8
0
 10
340.92216487503072
 20
181.3300704791923
 30
0.0
 11
340.92216487503072
 21
182.83007165638401
 31
0.0
  0
LINE
  5
10A3
  8
0
 10
332.99230705475833
 20
182.83007165638401
 30
0.0
 11
332.99230705475833
 21
185.83007121679981
 31
0.0
  0
LINE
  5
10A4
  8
0
 10
332.99230705475833
 20
185.83007121679981
 30
0.0
 11
340.92216487503072
 21
185.83007121679981
 31
0.0
  0
LINE
  5
10A5
  8
0
 10
340.92216487503072
 20
185.83007121679981
 30
0.0
 11
340.92216487503072
 21
187.33007146266891
 31
0.0
  0
LINE
  5
10A6
  8
0
 10
332.99230705475833
 20
182.83007165638401
 30
0.0
 11
340.92216487503072
 21
182.83007165638401
 31
0.0
  0
LINE
  5
10A7
  8
0
 10
346.6010602702799
 20
180.58007082191901
 30
0.0
 11
346.6010602702799
 21
188.0800711199422
 31
0.0
  0
LINE
  5
10A8
  8
0
 10
332.24386037787821
 20
180.58007082191901
 30
0.0
 11
346.6010602702799
 21
180.58007082191901
 31
0.0
  0
LINE
  5
10AA
  8
0
 10
332.24386037787821
 20
180.58007082191901
 30
0.0
 11
332.24386037787821
 21
188.0800711199422
 31
0.0
  0
LINE
  5
10AB
  8
0
 10
332.24386037787821
 20
188.0800711199422
 30
0.0
 11
346.6010602702799
 21
188.0800711199422
 31
0.0
  0
LINE
  5
10B1
  8
0
 10
364.42246710156621
 20
193.63007007388069
 30
0.0
 11
314.4224663565081
 21
193.63007007388069
 31
0.0
  0
LINE
  5
10B3
  8
0
 10
314.4224663565081
 20
175.03007093665781
 30
0.0
 11
364.42246710156621
 21
175.03007093665789
 31
0.0
  0
LINE
  5
10B6
  8
0
 10
314.62246601676179
 20
193.83007159677939
 30
0.0
 11
364.22246744131269
 21
193.83007159677931
 31
0.0
  0
LINE
  5
10BA
  8
0
 10
314.4224663565081
 20
173.33007079770459
 30
0.0
 11
364.42246710156621
 21
173.33007079770459
 31
0.0
  0
LINE
  5
10BB
  8
0
 10
364.42246710156621
 20
174.6300706848283
 30
0.0
 11
314.4224663565081
 21
174.6300706848283
 31
0.0
  0
LINE
  5
10BC
  8
0
 10
363.92246608828719
 20
172.83007071574821
 30
0.0
 11
314.92246736978711
 21
172.83007071574821
 31
0.0
  0
LINE
  5
10BD
  8
0
 10
314.62246601676168
 20
174.83007081074311
 30
0.0
 11
364.22246744131269
 21
174.83007081074311
 31
0.0
  0
LINE
  5
10C1
  8
0
 10
317.92079060934901
 20
206.83007000235509
 30
0.0
 11
360.92246745919408
 21
206.83007000235509
 31
0.0
  0
LINE
  5
10CE
  8
0
 10
355.4224674889964
 20
169.62983889726581
 30
0.0
 11
323.42246596907819
 21
169.62983889726601
 31
0.0
  0
LINE
  5
10D0
  8
0
 10
322.42246580516519
 20
170.62983894476341
 30
0.0
 11
356.42246765290918
 21
170.62983894476341
 31
0.0
  0
LINE
  5
10D5
  8
0
 10
362.92246592437442
 20
204.83006967452951
 30
0.0
 11
353.36137539619028
 21
204.83006967452951
 31
0.0
  0
LINE
  5
10DA
  8
0
 10
54.422463154028939
 20
175.03007093665789
 30
0.0
 11
54.622462814282471
 21
174.83007081074311
 31
0.0
  0
LINE
  5
10DB
  8
0
 10
104.2224642388335
 20
174.83007081074311
 30
0.0
 11
104.42246389908701
 21
175.03007093665789
 31
0.0
  0
LINE
  5
10DC
  8
0
 10
104.42246389908701
 20
193.63007007388069
 30
0.0
 11
104.2224642388335
 21
193.83007159677931
 31
0.0
  0
LINE
  5
10DD
  8
0
 10
54.622462814282471
 20
193.83007159677931
 30
0.0
 11
54.422463154028939
 21
193.63007007388069
 31
0.0
  0
LINE
  5
10DE
  8
0
 10
104.42246389908701
 20
175.03007093665789
 30
0.0
 11
104.42246389908701
 21
193.63007007388069
 31
0.0
  0
LINE
  5
10DF
  8
0
 10
54.422463154028939
 20
193.63007007388069
 30
0.0
 11
54.422463154028939
 21
175.03007093665789
 31
0.0
  0
LINE
  5
10E0
  8
0
 10
104.42246389908701
 20
173.33007079770459
 30
0.0
 11
104.42246389908701
 21
174.6300706848283
 31
0.0
  0
LINE
  5
10E1
  8
0
 10
54.422463154028939
 20
174.6300706848283
 30
0.0
 11
54.422463154028939
 21
173.33007079770459
 31
0.0
  0
LINE
  5
10E2
  8
0
 10
54.422463154028939
 20
173.33007079770459
 30
0.0
 11
54.922464167307901
 21
172.83007071574821
 31
0.0
  0
LINE
  5
10E3
  8
0
 10
103.922462885808
 20
172.83007071574821
 30
0.0
 11
104.42246389908701
 21
173.33007079770459
 31
0.0
  0
LINE
  5
10E4
  8
0
 10
104.42246389908701
 20
174.6300706848283
 30
0.0
 11
104.2224642388335
 21
174.83007081074311
 31
0.0
  0
LINE
  5
10E5
  8
0
 10
54.622462814282471
 20
174.83007081074311
 30
0.0
 11
54.422463154028939
 21
174.6300706848283
 31
0.0
  0
LINE
  5
10E6
  8
0
 10
102.9224627218952
 20
193.83007159677931
 30
0.0
 11
102.9224627218952
 21
204.8300696745296
 31
0.0
  0
LINE
  5
10E7
  8
0
 10
55.922464331220681
 20
204.8300696745296
 30
0.0
 11
55.922464331220681
 21
193.83007159677931
 31
0.0
  0
ARC
  5
10E8
  8
0
 10
57.922463526557983
 20
204.83007070469949
 30
0.0
 40
2.0
 50
90.0
 51
180.0
  0
ARC
  5
10E9
  8
0
 10
100.922463526558
 20
204.83007070469949
 30
0.0
 40
2.0
 50
0.0
 51
90.0
  0
LINE
  5
10EA
  8
0
 10
96.422464450429985
 20
170.62983894476341
 30
0.0
 11
96.422464450429985
 21
172.83007071574821
 31
0.0
  0
LINE
  5
10EB
  8
0
 10
62.422462602685982
 20
172.83007071574821
 30
0.0
 11
62.422462602685982
 21
170.62983894476341
 31
0.0
  0
LINE
  5
10EC
  8
0
 10
62.422462602685982
 20
170.62983894476341
 30
0.0
 11
63.422462766598748
 21
169.6298388972659
 31
0.0
  0
LINE
  5
10ED
  8
0
 10
95.422464286517197
 20
169.6298388972659
 30
0.0
 11
96.422464450429985
 21
170.62983894476341
 31
0.0
  0
LINE
  5
10EE
  8
0
 10
88.422463139127785
 20
206.83007000235509
 30
0.0
 11
88.422463139127785
 21
209.12984071520759
 31
0.0
  0
LINE
  5
10EF
  8
0
 10
70.422463913988153
 20
209.12984071520759
 30
0.0
 11
70.422463913988153
 21
206.83007000235509
 31
0.0
  0
LINE
  5
10F0
  8
0
 10
88.422463139127785
 20
209.12984071520759
 30
0.0
 11
87.922463988493973
 21
209.62983800319631
 31
0.0
  0
LINE
  5
10F1
  8
0
 10
70.922463064621979
 20
209.62983800319631
 30
0.0
 11
70.422463913988153
 21
209.12984071520759
 31
0.0
  0
LINE
  5
10F2
  8
0
 10
54.422463154028939
 20
175.03007093665789
 30
0.0
 11
104.42246389908701
 21
175.03007093665789
 31
0.0
  0
LINE
  5
10F4
  8
0
 10
54.622462814282471
 20
193.83007159677931
 30
0.0
 11
104.2224642388335
 21
193.83007159677931
 31
0.0
  0
LINE
  5
10F5
  8
0
 10
104.42246389908701
 20
193.63007007388069
 30
0.0
 11
54.422463154028939
 21
193.63007007388069
 31
0.0
  0
LINE
  5
10F6
  8
0
 10
54.422463154028939
 20
173.33007079770459
 30
0.0
 11
104.42246389908701
 21
173.33007079770459
 31
0.0
  0
LINE
  5
10F7
  8
0
 10
104.42246389908701
 20
174.6300706848283
 30
0.0
 11
54.422463154028939
 21
174.6300706848283
 31
0.0
  0
LINE
  5
10F8
  8
0
 10
103.922462885808
 20
172.83007071574821
 30
0.0
 11
54.922464167307901
 21
172.83007071574821
 31
0.0
  0
LINE
  5
10F9
  8
0
 10
54.622462814282471
 20
174.83007081074311
 30
0.0
 11
104.2224642388335
 21
174.83007081074311
 31
0.0
  0
LINE
  5
10FA
  8
0
 10
57.922462796401071
 20
206.83007000235509
 30
0.0
 11
100.9224642567148
 21
206.83007000235509
 31
0.0
  0
LINE
  5
10FB
  8
0
 10
62.422462602685982
 20
170.62983894476341
 30
0.0
 11
96.422464450429985
 21
170.62983894476341
 31
0.0
  0
LINE
  5
10FC
  8
0
 10
95.422464286517311
 20
169.6298388972659
 30
0.0
 11
63.422462766598748
 21
169.62983889726581
 31
0.0
  0
LINE
  5
10FF
  8
0
 10
88.422463139127785
 20
209.12984071520759
 30
0.0
 11
70.422463913988153
 21
209.12984071520759
 31
0.0
  0
LINE
  5
1100
  8
0
 10
70.922463064621979
 20
209.62983800319631
 30
0.0
 11
87.922463988493973
 21
209.62983800319631
 31
0.0
  0
LINE
  5
1101
  8
0
 10
102.9224627218952
 20
204.8300696745296
 30
0.0
 11
55.922464331220681
 21
204.8300696745296
 31
0.0
  0
ARC
  5
1102
  8
0
 10
216.52311497500841
 20
294.62983800319779
 30
0.0
 40
3.995000000000005
 50
152.62146067563691
 51
207.37853932436309
  0
CIRCLE
  5
1133
  8
0
 10
209.42246352655809
 20
294.62983800319802
 30
0.0
 40
9.0
  0
CIRCLE
  5
1135
  8
0
 10
209.42246352655809
 20
294.62983800319779
 30
0.0
 40
6.25
  0
CIRCLE
  5
1137
  8
0
 10
209.42246352655809
 20
294.62983800319802
 30
0.0
 40
4.0
  0
ARC
  5
1138
  8
0
 10
216.52311497500841
 20
84.629832317193291
 30
0.0
 40
3.9950000000000112
 50
152.62146067563691
 51
207.37853932436309
  0
CIRCLE
  5
1160
  8
0
 10
209.42246352655809
 20
84.629832317193333
 30
0.0
 40
25.0
  0
CIRCLE
  5
1166
  8
0
 10
209.42246352655809
 20
84.629832317193291
 30
0.0
 40
17.000000000000011
  0
CIRCLE
  5
116E
  8
0
 10
218.26129829138989
 20
75.790997552361546
 30
0.0
 40
2.5
  0
CIRCLE
  5
116F
  8
0
 10
200.5836287617262
 20
75.790997552361375
 30
0.0
 40
2.5000000000000142
  0
CIRCLE
  5
1170
  8
0
 10
209.42246352655809
 20
84.629832317193291
 30
0.0
 40
6.0
  0
CIRCLE
  5
1173
  8
0
 10
200.5836287617262
 20
93.468667082025107
 30
0.0
 40
2.5
  0
CIRCLE
  5
1174
  8
0
 10
218.26129829138989
 20
93.468667082025149
 30
0.0
 40
2.5
  0
CIRCLE
  5
1175
  8
0
 10
209.42246352655809
 20
84.629832317193234
 30
0.0
 40
4.2500000000000142
  0
CIRCLE
  5
1176
  8
0
 10
209.42246352655809
 20
84.629832317193177
 30
0.0
 40
4.0
  0
LINE
  5
1188
  8
1
 10
79.42246352655809
 20
214.62983800319631
 30
0.0
 11
79.42246352655809
 21
164.63007070469951
 31
0.0
  0
CIRCLE
  5
118F
  8
3
 10
200.5836287617262
 20
93.468667082025107
 30
0.0
 40
3.0
  0
CIRCLE
  5
1190
  8
3
 10
200.5836287617262
 20
75.790997552361375
 30
0.0
 40
3.0
  0
CIRCLE
  5
1191
  8
3
 10
218.26129829138989
 20
75.790997552361546
 30
0.0
 40
3.0
  0
CIRCLE
  5
1192
  8
3
 10
218.26129829138989
 20
93.468667082025149
 30
0.0
 40
3.0
  0
CIRCLE
  5
1193
  8
0
 10
209.42246352655809
 20
84.629832317193177
 30
0.0
 40
16.0
  0
ARC
  5
1194
  8
0
 10
205.8779782220669
 20
78.490603683133259
 30
0.0
 40
3.9950000000000001
 50
32.439727165599088
 51
87.560272834402824
  0
ARC
  5
1195
  8
0
 10
205.8779782220669
 20
90.769060951253138
 30
0.0
 40
3.9949999999999992
 50
272.43972716559722
 51
327.56027283440091
  0
LINE
  5
1196
  8
1
 10
196.6945414652003
 20
71.901910255835162
 30
0.0
 11
204.4727160582523
 21
79.680084848887361
 31
0.0
  0
LINE
  5
1197
  8
1
 10
222.15038558791611
 20
71.901910255835162
 30
0.0
 11
214.3722109948641
 21
79.680084848887361
 31
0.0
  0
LINE
  5
1198
  8
1
 10
222.15038558791611
 20
97.357754378551135
 30
0.0
 11
214.3722109948641
 21
89.579579785498879
 31
0.0
  0
LINE
  5
1199
  8
1
 10
196.6945414652003
 20
97.357754378551135
 30
0.0
 11
204.4727160582523
 21
89.579579785498879
 31
0.0
  0
LINE
  5
119A
  8
1
 10
209.42246352655809
 20
54.629829114714937
 30
0.0
 11
209.42246352655809
 21
114.6298355196713
 31
0.0
  0
LINE
  5
119B
  8
1
 10
179.42246032407991
 20
84.629832317193106
 30
0.0
 11
239.42246352655809
 21
84.629832317193106
 31
0.0
  0
CIRCLE
  5
119C
  8
1
 10
209.42246352655809
 20
84.629832317193106
 30
0.0
 40
12.5
  0
LINE
  5
119D
  8
1
 10
179.42246352655809
 20
294.62983800319779
 30
0.0
 11
239.42246352655809
 21
294.62983800319802
 31
0.0
  0
LINE
  5
119E
  8
1
 10
209.42246352655809
 20
264.6298380031979
 30
0.0
 11
209.42246352655809
 21
324.62983800319807
 31
0.0
  0
ARC
  5
119F
  8
0
 10
205.8779782220669
 20
300.76906663725799
 30
0.0
 40
3.9949999999999992
 50
272.43972716559722
 51
327.56027283440091
  0
ARC
  5
11A0
  8
0
 10
205.8779782220669
 20
288.49060936913793
 30
0.0
 40
3.9949999999999868
 50
32.439727165599088
 51
87.560272834402824
  0
CIRCLE
  5
11A2
  8
0
 10
209.42246352655809
 20
294.62983800319802
 30
0.0
 40
23.5
  0
LINE
  5
11A3
  8
1
 10
221.63724567432189
 20
200.3298373781054
 30
0.0
 11
237.3442321530523
 21
200.3298373781054
 31
0.0
  0
LINE
  5
11A4
  8
1
 10
209.42246352655809
 20
214.6298380031979
 30
0.0
 11
209.42246352655809
 21
164.6298355196713
 31
0.0
  0
LINE
  5
11A5
  8
1
 10
339.42246352655809
 20
214.62983800319631
 30
0.0
 11
339.42246352655809
 21
164.63007070469931
 31
0.0
  0
LINE
  5
11A6
  8
1
 10
320.92162352394769
 20
200.33007070469921
 30
0.0
 11
357.9233099341248
 21
200.33007070469949
 31
0.0
  0
POLYLINE
  5
11B0
  8
0
 10
227.72921663270145
 20
197.95250278407127
 30
0.0
 66
     1
 70
     8
  0
VERTEX
  8
0
  5
1752
 10
227.729
 20
197.953
 30
0.000000
  70
    32
  0
VERTEX
  8
0
  5
1753
 10
227.763
 20
197.936
 30
0.000000
  70
    32
  0
VERTEX
  8
0
  5
1754
 10
227.798
 20
197.921
 30
0.000000
  70
    32
  0
VERTEX
  8
0
  5
1755
 10
227.832
 20
197.908
 30
0.000000
  70
    32
  0
VERTEX
  8
0
  5
1756
 10
227.867
 20
197.897
 30
0.000000
  70
    32
  0
VERTEX
  8
0
  5
1757
 10
227.902
 20
197.888
 30
0.000000
  70
    32
  0
VERTEX
  8
0
  5
1758
 10
227.937
 20
197.881
 30
0.000000
  70
    32
  0
VERTEX
  8
0
  5
1759
 10
227.972
 20
197.876
 30
0.000000
  70
    32
  0
VERTEX
  8
0
  5
175A
 10
228.007
 20
197.873
 30
0.000000
  70
    32
  0
VERTEX
  8
0
  5
175B
 10
228.042
 20
197.872
 30
0.000000
  70
    32
  0
VERTEX
  8
0
  5
175C
 10
228.077
 20
197.873
 30
0.000000
  70
    32
  0
VERTEX
  8
0
  5
175D
 10
228.112
 20
197.876
 30
0.000000
  70
    32
  0
VERTEX
  8
0
  5
175E
 10
228.147
 20
197.881
 30
0.000000
  70
    32
  0
VERTEX
  8
0
  5
175F
 10
228.182
 20
197.888
 30
0.000000
  70
    32
  0
VERTEX
  8
0
  5
1760
 10
228.217
 20
197.897
 30
0.000000
  70
    32
  0
VERTEX
  8
0
  5
1761
 10
228.251
 20
197.907
 30
0.000000
  70
    32
  0
VERTEX
  8
0
  5
1762
 10
228.286
 20
197.920
 30
0.000000
  70
    32
  0
VERTEX
  8
0
  5
1763
 10
228.320
 20
197.935
 30
0.000000
  70
    32
  0
VERTEX
  8
0
  5
1764
 10
228.354
 20
197.952
 30
0.000000
  70
    32
  0
VERTEX
  8
0
  5
1765
 10
228.388
 20
197.971
 30
0.000000
  70
    32
  0
VERTEX
  8
0
  5
1766
 10
228.422
 20
197.992
 30
0.000000
  70
    32
  0
VERTEX
  8
0
  5
1767
 10
228.455
 20
198.014
 30
0.000000
  70
    32
  0
VERTEX
  8
0
  5
1768
 10
228.488
 20
198.039
 30
0.000000
  70
    32
  0
VERTEX
  8
0
  5
1769
 10
228.520
 20
198.065
 30
0.000000
  70
    32
  0
VERTEX
  8
0
  5
176A
 10
228.552
 20
198.094
 30
0.000000
  70
    32
  0
VERTEX
  8
0
  5
176B
 10
228.584
 20
198.124
 30
0.000000
  70
    32
  0
VERTEX
  8
0
  5
176C
 10
228.616
 20
198.156
 30
0.000000
  70
    32
  0
VERTEX
  8
0
  5
176D
 10
228.646
 20
198.189
 30
0.000000
  70
    32
  0
VERTEX
  8
0
  5
176E
 10
228.677
 20
198.225
 30
0.000000
  70
    32
  0
VERTEX
  8
0
  5
176F
 10
228.706
 20
198.262
 30
0.000000
  70
    32
  0
VERTEX
  8
0
  5
1770
 10
228.736
 20
198.300
 30
0.000000
  70
    32
  0
VERTEX
  8
0
  5
1771
 10
228.764
 20
198.341
 30
0.000000
  70
    32
  0
VERTEX
  8
0
  5
1772
 10
228.793
 20
198.383
 30
0.000000
  70
    32
  0
VERTEX
  8
0
  5
1773
 10
228.820
 20
198.427
 30
0.000000
  70
    32
  0
VERTEX
  8
0
  5
1774
 10
228.847
 20
198.472
 30
0.000000
  70
    32
  0
VERTEX
  8
0
  5
1775
 10
228.873
 20
198.519
 30
0.000000
  70
    32
  0
VERTEX
  8
0
  5
1776
 10
228.899
 20
198.567
 30
0.000000
  70
    32
  0
VERTEX
  8
0
  5
1777
 10
228.923
 20
198.616
 30
0.000000
  70
    32
  0
VERTEX
  8
0
  5
1778
 10
228.948
 20
198.668
 30
0.000000
  70
    32
  0
VERTEX
  8
0
  5
1779
 10
228.971
 20
198.720
 30
0.000000
  70
    32
  0
VERTEX
  8
0
  5
177A
 10
228.994
 20
198.774
 30
0.000000
  70
    32
  0
VERTEX
  8
0
  5
177B
 10
229.015
 20
198.829
 30
0.000000
  70
    32
  0
VERTEX
  8
0
  5
177C
 10
229.036
 20
198.885
 30
0.000000
  70
    32
  0
VERTEX
  8
0
  5
177D
 10
229.057
 20
198.942
 30
0.000000
  70
    32
  0
VERTEX
  8
0
  5
177E
 10
229.076
 20
199.001
 30
0.000000
  70
    32
  0
VERTEX
  8
0
  5
177F
 10
229.095
 20
199.060
 30
0.000000
  70
    32
  0
VERTEX
  8
0
  5
1780
 10
229.112
 20
199.121
 30
0.000000
  70
    32
  0
VERTEX
  8
0
  5
1781
 10
229.129
 20
199.183
 30
0.000000
  70
    32
  0
VERTEX
  8
0
  5
1782
 10
229.145
 20
199.245
 30
0.000000
  70
    32
  0
VERTEX
  8
0
  5
1783
 10
229.160
 20
199.309
 30
0.000000
  70
    32
  0
VERTEX
  8
0
  5
1784
 10
229.174
 20
199.373
 30
0.000000
  70
    32
  0
VERTEX
  8
0
  5
1785
 10
229.187
 20
199.438
 30
0.000000
  70
    32
  0
VERTEX
  8
0
  5
1786
 10
229.200
 20
199.504
 30
0.000000
  70
    32
  0
VERTEX
  8
0
  5
1787
 10
229.211
 20
199.570
 30
0.000000
  70
    32
  0
VERTEX
  8
0
  5
1788
 10
229.221
 20
199.637
 30
0.000000
  70
    32
  0
VERTEX
  8
0
  5
1789
 10
229.231
 20
199.705
 30
0.000000
  70
    32
  0
VERTEX
  8
0
  5
178A
 10
229.239
 20
199.773
 30
0.000000
  70
    32
  0
VERTEX
  8
0
  5
178B
 10
229.247
 20
199.842
 30
0.000000
  70
    32
  0
VERTEX
  8
0
  5
178C
 10
229.253
 20
199.911
 30
0.000000
  70
    32
  0
VERTEX
  8
0
  5
178D
 10
229.259
 20
199.980
 30
0.000000
  70
    32
  0
VERTEX
  8
0
  5
178E
 10
229.263
 20
200.050
 30
0.000000
  70
    32
  0
VERTEX
  8
0
  5
178F
 10
229.267
 20
200.120
 30
0.000000
  70
    32
  0
VERTEX
  8
0
  5
1790
 10
229.269
 20
200.190
 30
0.000000
  70
    32
  0
VERTEX
  8
0
  5
1791
 10
229.271
 20
200.260
 30
0.000000
  70
    32
  0
VERTEX
  8
0
  5
1792
 10
229.271
 20
200.330
 30
0.000000
  70
    32
  0
VERTEX
  8
0
  5
1793
 10
229.271
 20
200.400
 30
0.000000
  70
    32
  0
VERTEX
  8
0
  5
1794
 10
229.269
 20
200.470
 30
0.000000
  70
    32
  0
VERTEX
  8
0
  5
1795
 10
229.267
 20
200.540
 30
0.000000
  70
    32
  0
VERTEX
  8
0
  5
1796
 10
229.263
 20
200.610
 30
0.000000
  70
    32
  0
VERTEX
  8
0
  5
1797
 10
229.259
 20
200.680
 30
0.000000
  70
    32
  0
VERTEX
  8
0
  5
1798
 10
229.253
 20
200.749
 30
0.000000
  70
    32
  0
VERTEX
  8
0
  5
1799
 10
229.247
 20
200.818
 30
0.000000
  70
    32
  0
VERTEX
  8
0
  5
179A
 10
229.239
 20
200.887
 30
0.000000
  70
    32
  0
VERTEX
  8
0
  5
179B
 10
229.231
 20
200.955
 30
0.000000
  70
    32
  0
VERTEX
  8
0
  5
179C
 10
229.221
 20
201.023
 30
0.000000
  70
    32
  0
VERTEX
  8
0
  5
179D
 10
229.211
 20
201.090
 30
0.000000
  70
    32
  0
VERTEX
  8
0
  5
179E
 10
229.200
 20
201.156
 30
0.000000
  70
    32
  0
VERTEX
  8
0
  5
179F
 10
229.187
 20
201.222
 30
0.000000
  70
    32
  0
VERTEX
  8
0
  5
17A0
 10
229.174
 20
201.287
 30
0.000000
  70
    32
  0
VERTEX
  8
0
  5
17A1
 10
229.160
 20
201.352
 30
0.000000
  70
    32
  0
VERTEX
  8
0
  5
17A2
 10
229.145
 20
201.415
 30
0.000000
  70
    32
  0
VERTEX
  8
0
  5
17A3
 10
229.129
 20
201.478
 30
0.000000
  70
    32
  0
VERTEX
  8
0
  5
17A4
 10
229.112
 20
201.539
 30
0.000000
  70
    32
  0
VERTEX
  8
0
  5
17A5
 10
229.095
 20
201.600
 30
0.000000
  70
    32
  0
VERTEX
  8
0
  5
17A6
 10
229.076
 20
201.659
 30
0.000000
  70
    32
  0
VERTEX
  8
0
  5
17A7
 10
229.057
 20
201.718
 30
0.000000
  70
    32
  0
VERTEX
  8
0
  5
17A8
 10
229.036
 20
201.775
 30
0.000000
  70
    32
  0
VERTEX
  8
0
  5
17A9
 10
229.015
 20
201.832
 30
0.000000
  70
    32
  0
VERTEX
  8
0
  5
17AA
 10
228.994
 20
201.887
 30
0.000000
  70
    32
  0
VERTEX
  8
0
  5
17AB
 10
228.971
 20
201.940
 30
0.000000
  70
    32
  0
VERTEX
  8
0
  5
17AC
 10
228.948
 20
201.993
 30
0.000000
  70
    32
  0
VERTEX
  8
0
  5
17AD
 10
228.923
 20
202.044
 30
0.000000
  70
    32
  0
VERTEX
  8
0
  5
17AE
 10
228.899
 20
202.093
 30
0.000000
  70
    32
  0
VERTEX
  8
0
  5
17AF
 10
228.873
 20
202.142
 30
0.000000
  70
    32
  0
VERTEX
  8
0
  5
17B0
 10
228.847
 20
202.188
 30
0.000000
  70
    32
  0
VERTEX
  8
0
  5
17B1
 10
228.820
 20
202.233
 30
0.000000
  70
    32
  0
VERTEX
  8
0
  5
17B2
 10
228.793
 20
202.277
 30
0.000000
  70
    32
  0
VERTEX
  8
0
  5
17B3
 10
228.764
 20
202.319
 30
0.000000
  70
    32
  0
VERTEX
  8
0
  5
17B4
 10
228.736
 20
202.360
 30
0.000000
  70
    32
  0
VERTEX
  8
0
  5
17B5
 10
228.706
 20
202.398
 30
0.000000
  70
    32
  0
VERTEX
  8
0
  5
17B6
 10
228.677
 20
202.436
 30
0.000000
  70
    32
  0
VERTEX
  8
0
  5
17B7
 10
228.646
 20
202.471
 30
0.000000
  70
    32
  0
VERTEX
  8
0
  5
17B8
 10
228.616
 20
202.505
 30
0.000000
  70
    32
  0
VERTEX
  8
0
  5
17B9
 10
228.584
 20
202.536
 30
0.000000
  70
    32
  0
VERTEX
  8
0
  5
17BA
 10
228.552
 20
202.567
 30
0.000000
  70
    32
  0
VERTEX
  8
0
  5
17BB
 10
228.520
 20
202.595
 30
0.000000
  70
    32
  0
VERTEX
  8
0
  5
17BC
 10
228.488
 20
202.621
 30
0.000000
  70
    32
  0
VERTEX
  8
0
  5
17BD
 10
228.455
 20
202.646
 30
0.000000
  70
    32
  0
VERTEX
  8
0
  5
17BE
 10
228.422
 20
202.668
 30
0.000000
  70
    32
  0
VERTEX
  8
0
  5
17BF
 10
228.388
 20
202.689
 30
0.000000
  70
    32
  0
VERTEX
  8
0
  5
17C0
 10
228.354
 20
202.708
 30
0.000000
  70
    32
  0
VERTEX
  8
0
  5
17C1
 10
228.320
 20
202.725
 30
0.000000
  70
    32
  0
VERTEX
  8
0
  5
17C2
 10
228.286
 20
202.740
 30
0.000000
  70
    32
  0
VERTEX
  8
0
  5
17C3
 10
228.251
 20
202.753
 30
0.000000
  70
    32
  0
VERTEX
  8
0
  5
17C4
 10
228.217
 20
202.764
 30
0.000000
  70
    32
  0
VERTEX
  8
0
  5
17C5
 10
228.182
 20
202.773
 30
0.000000
  70
    32
  0
VERTEX
  8
0
  5
17C6
 10
228.147
 20
202.780
 30
0.000000
  70
    32
  0
VERTEX
  8
0
  5
17C7
 10
228.112
 20
202.785
 30
0.000000
  70
    32
  0
VERTEX
  8
0
  5
17C8
 10
228.077
 20
202.788
 30
0.000000
  70
    32
  0
VERTEX
  8
0
  5
17C9
 10
228.042
 20
202.789
 30
0.000000
  70
    32
  0
VERTEX
  8
0
  5
17CA
 10
228.007
 20
202.788
 30
0.000000
  70
    32
  0
VERTEX
  8
0
  5
17CB
 10
227.972
 20
202.785
 30
0.000000
  70
    32
  0
VERTEX
  8
0
  5
17CC
 10
227.937
 20
202.780
 30
0.000000
  70
    32
  0
VERTEX
  8
0
  5
17CD
 10
227.902
 20
202.772
 30
0.000000
  70
    32
  0
VERTEX
  8
0
  5
17CE
 10
227.867
 20
202.763
 30
0.000000
  70
    32
  0
VERTEX
  8
0
  5
17CF
 10
227.832
 20
202.752
 30
0.000000
  70
    32
  0
VERTEX
  8
0
  5
17D0
 10
227.798
 20
202.739
 30
0.000000
  70
    32
  0
VERTEX
  8
0
  5
17D1
 10
227.763
 20
202.725
 30
0.000000
  70
    32
  0
VERTEX
  8
0
  5
17D2
 10
227.729
 20
202.708
 30
0.000000
  70
    32
  0
SEQEND
  8
0
  5
17D3
  0
POLYLINE
  5
11B1
  8
3
 10
228.90805152144296
 20
203.33006942971619
 30
0.0
 66
     1
 70
     8
  0
VERTEX
  8
3
  5
17D4
 10
228.908
 20
203.330
 30
0.000000
  70
    32
  0
VERTEX
  8
3
  5
17D5
 10
228.861
 20
203.329
 30
0.000000
  70
    32
  0
VERTEX
  8
3
  5
17D6
 10
228.813
 20
203.326
 30
0.000000
  70
    32
  0
VERTEX
  8
3
  5
17D7
 10
228.766
 20
203.322
 30
0.000000
  70
    32
  0
VERTEX
  8
3
  5
17D8
 10
228.719
 20
203.316
 30
0.000000
  70
    32
  0
VERTEX
  8
3
  5
17D9
 10
228.671
 20
203.308
 30
0.000000
  70
    32
  0
VERTEX
  8
3
  5
17DA
 10
228.624
 20
203.298
 30
0.000000
  70
    32
  0
VERTEX
  8
3
  5
17DB
 10
228.578
 20
203.286
 30
0.000000
  70
    32
  0
VERTEX
  8
3
  5
17DC
 10
228.531
 20
203.272
 30
0.000000
  70
    32
  0
VERTEX
  8
3
  5
17DD
 10
228.485
 20
203.257
 30
0.000000
  70
    32
  0
VERTEX
  8
3
  5
17DE
 10
228.438
 20
203.240
 30
0.000000
  70
    32
  0
VERTEX
  8
3
  5
17DF
 10
228.392
 20
203.221
 30
0.000000
  70
    32
  0
VERTEX
  8
3
  5
17E0
 10
228.347
 20
203.201
 30
0.000000
  70
    32
  0
VERTEX
  8
3
  5
17E1
 10
228.302
 20
203.179
 30
0.000000
  70
    32
  0
VERTEX
  8
3
  5
17E2
 10
228.257
 20
203.155
 30
0.000000
  70
    32
  0
VERTEX
  8
3
  5
17E3
 10
228.212
 20
203.129
 30
0.000000
  70
    32
  0
VERTEX
  8
3
  5
17E4
 10
228.168
 20
203.102
 30
0.000000
  70
    32
  0
VERTEX
  8
3
  5
17E5
 10
228.125
 20
203.073
 30
0.000000
  70
    32
  0
VERTEX
  8
3
  5
17E6
 10
228.082
 20
203.042
 30
0.000000
  70
    32
  0
VERTEX
  8
3
  5
17E7
 10
228.039
 20
203.010
 30
0.000000
  70
    32
  0
VERTEX
  8
3
  5
17E8
 10
227.997
 20
202.976
 30
0.000000
  70
    32
  0
VERTEX
  8
3
  5
17E9
 10
227.955
 20
202.940
 30
0.000000
  70
    32
  0
VERTEX
  8
3
  5
17EA
 10
227.914
 20
202.903
 30
0.000000
  70
    32
  0
VERTEX
  8
3
  5
17EB
 10
227.874
 20
202.865
 30
0.000000
  70
    32
  0
VERTEX
  8
3
  5
17EC
 10
227.834
 20
202.824
 30
0.000000
  70
    32
  0
VERTEX
  8
3
  5
17ED
 10
227.795
 20
202.783
 30
0.000000
  70
    32
  0
VERTEX
  8
3
  5
17EE
 10
227.757
 20
202.740
 30
0.000000
  70
    32
  0
VERTEX
  8
3
  5
17EF
 10
227.719
 20
202.695
 30
0.000000
  70
    32
  0
VERTEX
  8
3
  5
17F0
 10
227.682
 20
202.649
 30
0.000000
  70
    32
  0
VERTEX
  8
3
  5
17F1
 10
227.645
 20
202.602
 30
0.000000
  70
    32
  0
VERTEX
  8
3
  5
17F2
 10
227.610
 20
202.553
 30
0.000000
  70
    32
  0
VERTEX
  8
3
  5
17F3
 10
227.575
 20
202.503
 30
0.000000
  70
    32
  0
VERTEX
  8
3
  5
17F4
 10
227.541
 20
202.451
 30
0.000000
  70
    32
  0
VERTEX
  8
3
  5
17F5
 10
227.508
 20
202.399
 30
0.000000
  70
    32
  0
VERTEX
  8
3
  5
17F6
 10
227.476
 20
202.345
 30
0.000000
  70
    32
  0
VERTEX
  8
3
  5
17F7
 10
227.444
 20
202.290
 30
0.000000
  70
    32
  0
VERTEX
  8
3
  5
17F8
 10
227.414
 20
202.233
 30
0.000000
  70
    32
  0
VERTEX
  8
3
  5
17F9
 10
227.384
 20
202.176
 30
0.000000
  70
    32
  0
VERTEX
  8
3
  5
17FA
 10
227.355
 20
202.117
 30
0.000000
  70
    32
  0
VERTEX
  8
3
  5
17FB
 10
227.328
 20
202.057
 30
0.000000
  70
    32
  0
VERTEX
  8
3
  5
17FC
 10
227.301
 20
201.997
 30
0.000000
  70
    32
  0
VERTEX
  8
3
  5
17FD
 10
227.275
 20
201.935
 30
0.000000
  70
    32
  0
VERTEX
  8
3
  5
17FE
 10
227.250
 20
201.872
 30
0.000000
  70
    32
  0
VERTEX
  8
3
  5
17FF
 10
227.226
 20
201.809
 30
0.000000
  70
    32
  0
VERTEX
  8
3
  5
1800
 10
227.203
 20
201.744
 30
0.000000
  70
    32
  0
VERTEX
  8
3
  5
1801
 10
227.181
 20
201.679
 30
0.000000
  70
    32
  0
VERTEX
  8
3
  5
1802
 10
227.161
 20
201.613
 30
0.000000
  70
    32
  0
VERTEX
  8
3
  5
1803
 10
227.141
 20
201.546
 30
0.000000
  70
    32
  0
VERTEX
  8
3
  5
1804
 10
227.122
 20
201.478
 30
0.000000
  70
    32
  0
VERTEX
  8
3
  5
1805
 10
227.105
 20
201.410
 30
0.000000
  70
    32
  0
VERTEX
  8
3
  5
1806
 10
227.088
 20
201.341
 30
0.000000
  70
    32
  0
VERTEX
  8
3
  5
1807
 10
227.073
 20
201.271
 30
0.000000
  70
    32
  0
VERTEX
  8
3
  5
1808
 10
227.058
 20
201.201
 30
0.000000
  70
    32
  0
VERTEX
  8
3
  5
1809
 10
227.045
 20
201.130
 30
0.000000
  70
    32
  0
VERTEX
  8
3
  5
180A
 10
227.033
 20
201.059
 30
0.000000
  70
    32
  0
VERTEX
  8
3
  5
180B
 10
227.022
 20
200.987
 30
0.000000
  70
    32
  0
VERTEX
  8
3
  5
180C
 10
227.012
 20
200.915
 30
0.000000
  70
    32
  0
VERTEX
  8
3
  5
180D
 10
227.003
 20
200.843
 30
0.000000
  70
    32
  0
VERTEX
  8
3
  5
180E
 10
226.996
 20
200.770
 30
0.000000
  70
    32
  0
VERTEX
  8
3
  5
180F
 10
226.990
 20
200.697
 30
0.000000
  70
    32
  0
VERTEX
  8
3
  5
1810
 10
226.984
 20
200.624
 30
0.000000
  70
    32
  0
VERTEX
  8
3
  5
1811
 10
226.980
 20
200.551
 30
0.000000
  70
    32
  0
VERTEX
  8
3
  5
1812
 10
226.977
 20
200.477
 30
0.000000
  70
    32
  0
VERTEX
  8
3
  5
1813
 10
226.976
 20
200.404
 30
0.000000
  70
    32
  0
VERTEX
  8
3
  5
1814
 10
226.975
 20
200.330
 30
0.000000
  70
    32
  0
VERTEX
  8
3
  5
1815
 10
226.976
 20
200.256
 30
0.000000
  70
    32
  0
VERTEX
  8
3
  5
1816
 10
226.977
 20
200.183
 30
0.000000
  70
    32
  0
VERTEX
  8
3
  5
1817
 10
226.980
 20
200.109
 30
0.000000
  70
    32
  0
VERTEX
  8
3
  5
1818
 10
226.984
 20
200.036
 30
0.000000
  70
    32
  0
VERTEX
  8
3
  5
1819
 10
226.990
 20
199.963
 30
0.000000
  70
    32
  0
VERTEX
  8
3
  5
181A
 10
226.996
 20
199.890
 30
0.000000
  70
    32
  0
VERTEX
  8
3
  5
181B
 10
227.003
 20
199.817
 30
0.000000
  70
    32
  0
VERTEX
  8
3
  5
181C
 10
227.012
 20
199.745
 30
0.000000
  70
    32
  0
VERTEX
  8
3
  5
181D
 10
227.022
 20
199.673
 30
0.000000
  70
    32
  0
VERTEX
  8
3
  5
181E
 10
227.033
 20
199.601
 30
0.000000
  70
    32
  0
VERTEX
  8
3
  5
181F
 10
227.045
 20
199.530
 30
0.000000
  70
    32
  0
VERTEX
  8
3
  5
1820
 10
227.058
 20
199.459
 30
0.000000
  70
    32
  0
VERTEX
  8
3
  5
1821
 10
227.073
 20
199.389
 30
0.000000
  70
    32
  0
VERTEX
  8
3
  5
1822
 10
227.088
 20
199.319
 30
0.000000
  70
    32
  0
VERTEX
  8
3
  5
1823
 10
227.105
 20
199.250
 30
0.000000
  70
    32
  0
VERTEX
  8
3
  5
1824
 10
227.122
 20
199.182
 30
0.000000
  70
    32
  0
VERTEX
  8
3
  5
1825
 10
227.141
 20
199.114
 30
0.000000
  70
    32
  0
VERTEX
  8
3
  5
1826
 10
227.161
 20
199.047
 30
0.000000
  70
    32
  0
VERTEX
  8
3
  5
1827
 10
227.181
 20
198.981
 30
0.000000
  70
    32
  0
VERTEX
  8
3
  5
1828
 10
227.203
 20
198.916
 30
0.000000
  70
    32
  0
VERTEX
  8
3
  5
1829
 10
227.226
 20
198.851
 30
0.000000
  70
    32
  0
VERTEX
  8
3
  5
182A
 10
227.250
 20
198.788
 30
0.000000
  70
    32
  0
VERTEX
  8
3
  5
182B
 10
227.275
 20
198.725
 30
0.000000
  70
    32
  0
VERTEX
  8
3
  5
182C
 10
227.301
 20
198.663
 30
0.000000
  70
    32
  0
VERTEX
  8
3
  5
182D
 10
227.328
 20
198.603
 30
0.000000
  70
    32
  0
VERTEX
  8
3
  5
182E
 10
227.355
 20
198.543
 30
0.000000
  70
    32
  0
VERTEX
  8
3
  5
182F
 10
227.384
 20
198.484
 30
0.000000
  70
    32
  0
VERTEX
  8
3
  5
1830
 10
227.414
 20
198.427
 30
0.000000
  70
    32
  0
VERTEX
  8
3
  5
1831
 10
227.444
 20
198.371
 30
0.000000
  70
    32
  0
VERTEX
  8
3
  5
1832
 10
227.476
 20
198.315
 30
0.000000
  70
    32
  0
VERTEX
  8
3
  5
1833
 10
227.508
 20
198.261
 30
0.000000
  70
    32
  0
VERTEX
  8
3
  5
1834
 10
227.541
 20
198.209
 30
0.000000
  70
    32
  0
VERTEX
  8
3
  5
1835
 10
227.575
 20
198.157
 30
0.000000
  70
    32
  0
VERTEX
  8
3
  5
1836
 10
227.610
 20
198.107
 30
0.000000
  70
    32
  0
VERTEX
  8
3
  5
1837
 10
227.645
 20
198.058
 30
0.000000
  70
    32
  0
VERTEX
  8
3
  5
1838
 10
227.682
 20
198.011
 30
0.000000
  70
    32
  0
VERTEX
  8
3
  5
1839
 10
227.719
 20
197.965
 30
0.000000
  70
    32
  0
VERTEX
  8
3
  5
183A
 10
227.757
 20
197.920
 30
0.000000
  70
    32
  0
VERTEX
  8
3
  5
183B
 10
227.795
 20
197.877
 30
0.000000
  70
    32
  0
VERTEX
  8
3
  5
183C
 10
227.834
 20
197.836
 30
0.000000
  70
    32
  0
VERTEX
  8
3
  5
183D
 10
227.874
 20
197.796
 30
0.000000
  70
    32
  0
VERTEX
  8
3
  5
183E
 10
227.914
 20
197.757
 30
0.000000
  70
    32
  0
VERTEX
  8
3
  5
183F
 10
227.955
 20
197.720
 30
0.000000
  70
    32
  0
VERTEX
  8
3
  5
1840
 10
227.997
 20
197.684
 30
0.000000
  70
    32
  0
VERTEX
  8
3
  5
1841
 10
228.039
 20
197.650
 30
0.000000
  70
    32
  0
VERTEX
  8
3
  5
1842
 10
228.082
 20
197.618
 30
0.000000
  70
    32
  0
VERTEX
  8
3
  5
1843
 10
228.125
 20
197.587
 30
0.000000
  70
    32
  0
VERTEX
  8
3
  5
1844
 10
228.168
 20
197.558
 30
0.000000
  70
    32
  0
VERTEX
  8
3
  5
1845
 10
228.212
 20
197.531
 30
0.000000
  70
    32
  0
VERTEX
  8
3
  5
1846
 10
228.257
 20
197.505
 30
0.000000
  70
    32
  0
VERTEX
  8
3
  5
1847
 10
228.302
 20
197.481
 30
0.000000
  70
    32
  0
VERTEX
  8
3
  5
1848
 10
228.347
 20
197.459
 30
0.000000
  70
    32
  0
VERTEX
  8
3
  5
1849
 10
228.392
 20
197.439
 30
0.000000
  70
    32
  0
VERTEX
  8
3
  5
184A
 10
228.438
 20
197.420
 30
0.000000
  70
    32
  0
VERTEX
  8
3
  5
184B
 10
228.485
 20
197.403
 30
0.000000
  70
    32
  0
VERTEX
  8
3
  5
184C
 10
228.531
 20
197.388
 30
0.000000
  70
    32
  0
VERTEX
  8
3
  5
184D
 10
228.578
 20
197.374
 30
0.000000
  70
    32
  0
VERTEX
  8
3
  5
184E
 10
228.624
 20
197.363
 30
0.000000
  70
    32
  0
VERTEX
  8
3
  5
184F
 10
228.671
 20
197.353
 30
0.000000
  70
    32
  0
VERTEX
  8
3
  5
1850
 10
228.719
 20
197.345
 30
0.000000
  70
    32
  0
VERTEX
  8
3
  5
1851
 10
228.766
 20
197.338
 30
0.000000
  70
    32
  0
VERTEX
  8
3
  5
1852
 10
228.813
 20
197.334
 30
0.000000
  70
    32
  0
VERTEX
  8
3
  5
1853
 10
228.861
 20
197.331
 30
0.000000
  70
    32
  0
VERTEX
  8
3
  5
1854
 10
228.908
 20
197.330
 30
0.000000
  70
    32
  0
SEQEND
  8
3
  5
1855
  0
POLYLINE
  5
11B2
  8
3
 10
228.90805152144284
 20
197.33006942971619
 30
0.0
 66
     1
 70
     8
  0
VERTEX
  8
3
  5
1856
 10
228.908
 20
197.330
 30
0.000000
  70
    32
  0
VERTEX
  8
3
  5
1857
 10
228.934
 20
197.331
 30
0.000000
  70
    32
  0
VERTEX
  8
3
  5
1858
 10
228.960
 20
197.334
 30
0.000000
  70
    32
  0
VERTEX
  8
3
  5
1859
 10
228.987
 20
197.338
 30
0.000000
  70
    32
  0
VERTEX
  8
3
  5
185A
 10
229.013
 20
197.345
 30
0.000000
  70
    32
  0
VERTEX
  8
3
  5
185B
 10
229.039
 20
197.353
 30
0.000000
  70
    32
  0
VERTEX
  8
3
  5
185C
 10
229.065
 20
197.363
 30
0.000000
  70
    32
  0
VERTEX
  8
3
  5
185D
 10
229.090
 20
197.374
 30
0.000000
  70
    32
  0
VERTEX
  8
3
  5
185E
 10
229.116
 20
197.388
 30
0.000000
  70
    32
  0
VERTEX
  8
3
  5
185F
 10
229.142
 20
197.403
 30
0.000000
  70
    32
  0
VERTEX
  8
3
  5
1860
 10
229.167
 20
197.420
 30
0.000000
  70
    32
  0
VERTEX
  8
3
  5
1861
 10
229.193
 20
197.439
 30
0.000000
  70
    32
  0
VERTEX
  8
3
  5
1862
 10
229.218
 20
197.459
 30
0.000000
  70
    32
  0
VERTEX
  8
3
  5
1863
 10
229.243
 20
197.481
 30
0.000000
  70
    32
  0
VERTEX
  8
3
  5
1864
 10
229.268
 20
197.505
 30
0.000000
  70
    32
  0
VERTEX
  8
3
  5
1865
 10
229.292
 20
197.531
 30
0.000000
  70
    32
  0
VERTEX
  8
3
  5
1866
 10
229.316
 20
197.558
 30
0.000000
  70
    32
  0
VERTEX
  8
3
  5
1867
 10
229.340
 20
197.587
 30
0.000000
  70
    32
  0
VERTEX
  8
3
  5
1868
 10
229.364
 20
197.618
 30
0.000000
  70
    32
  0
VERTEX
  8
3
  5
1869
 10
229.388
 20
197.650
 30
0.000000
  70
    32
  0
VERTEX
  8
3
  5
186A
 10
229.411
 20
197.684
 30
0.000000
  70
    32
  0
VERTEX
  8
3
  5
186B
 10
229.434
 20
197.720
 30
0.000000
  70
    32
  0
VERTEX
  8
3
  5
186C
 10
229.457
 20
197.757
 30
0.000000
  70
    32
  0
VERTEX
  8
3
  5
186D
 10
229.479
 20
197.796
 30
0.000000
  70
    32
  0
VERTEX
  8
3
  5
186E
 10
229.501
 20
197.836
 30
0.000000
  70
    32
  0
VERTEX
  8
3
  5
186F
 10
229.522
 20
197.877
 30
0.000000
  70
    32
  0
VERTEX
  8
3
  5
1870
 10
229.544
 20
197.920
 30
0.000000
  70
    32
  0
VERTEX
  8
3
  5
1871
 10
229.564
 20
197.965
 30
0.000000
  70
    32
  0
VERTEX
  8
3
  5
1872
 10
229.585
 20
198.011
 30
0.000000
  70
    32
  0
VERTEX
  8
3
  5
1873
 10
229.605
 20
198.058
 30
0.000000
  70
    32
  0
VERTEX
  8
3
  5
1874
 10
229.625
 20
198.107
 30
0.000000
  70
    32
  0
VERTEX
  8
3
  5
1875
 10
229.644
 20
198.157
 30
0.000000
  70
    32
  0
VERTEX
  8
3
  5
1876
 10
229.663
 20
198.209
 30
0.000000
  70
    32
  0
VERTEX
  8
3
  5
1877
 10
229.681
 20
198.261
 30
0.000000
  70
    32
  0
VERTEX
  8
3
  5
1878
 10
229.699
 20
198.315
 30
0.000000
  70
    32
  0
VERTEX
  8
3
  5
1879
 10
229.716
 20
198.371
 30
0.000000
  70
    32
  0
VERTEX
  8
3
  5
187A
 10
229.733
 20
198.427
 30
0.000000
  70
    32
  0
VERTEX
  8
3
  5
187B
 10
229.749
 20
198.484
 30
0.000000
  70
    32
  0
VERTEX
  8
3
  5
187C
 10
229.765
 20
198.543
 30
0.000000
  70
    32
  0
VERTEX
  8
3
  5
187D
 10
229.780
 20
198.603
 30
0.000000
  70
    32
  0
VERTEX
  8
3
  5
187E
 10
229.795
 20
198.663
 30
0.000000
  70
    32
  0
VERTEX
  8
3
  5
187F
 10
229.809
 20
198.725
 30
0.000000
  70
    32
  0
VERTEX
  8
3
  5
1880
 10
229.823
 20
198.788
 30
0.000000
  70
    32
  0
VERTEX
  8
3
  5
1881
 10
229.836
 20
198.851
 30
0.000000
  70
    32
  0
VERTEX
  8
3
  5
1882
 10
229.849
 20
198.916
 30
0.000000
  70
    32
  0
VERTEX
  8
3
  5
1883
 10
229.861
 20
198.981
 30
0.000000
  70
    32
  0
VERTEX
  8
3
  5
1884
 10
229.873
 20
199.047
 30
0.000000
  70
    32
  0
VERTEX
  8
3
  5
1885
 10
229.884
 20
199.114
 30
0.000000
  70
    32
  0
VERTEX
  8
3
  5
1886
 10
229.894
 20
199.182
 30
0.000000
  70
    32
  0
VERTEX
  8
3
  5
1887
 10
229.904
 20
199.250
 30
0.000000
  70
    32
  0
VERTEX
  8
3
  5
1888
 10
229.913
 20
199.319
 30
0.000000
  70
    32
  0
VERTEX
  8
3
  5
1889
 10
229.921
 20
199.389
 30
0.000000
  70
    32
  0
VERTEX
  8
3
  5
188A
 10
229.929
 20
199.459
 30
0.000000
  70
    32
  0
VERTEX
  8
3
  5
188B
 10
229.936
 20
199.530
 30
0.000000
  70
    32
  0
VERTEX
  8
3
  5
188C
 10
229.943
 20
199.601
 30
0.000000
  70
    32
  0
VERTEX
  8
3
  5
188D
 10
229.949
 20
199.673
 30
0.000000
  70
    32
  0
VERTEX
  8
3
  5
188E
 10
229.955
 20
199.745
 30
0.000000
  70
    32
  0
VERTEX
  8
3
  5
188F
 10
229.959
 20
199.817
 30
0.000000
  70
    32
  0
VERTEX
  8
3
  5
1890
 10
229.963
 20
199.890
 30
0.000000
  70
    32
  0
VERTEX
  8
3
  5
1891
 10
229.967
 20
199.963
 30
0.000000
  70
    32
  0
VERTEX
  8
3
  5
1892
 10
229.970
 20
200.036
 30
0.000000
  70
    32
  0
VERTEX
  8
3
  5
1893
 10
229.972
 20
200.109
 30
0.000000
  70
    32
  0
VERTEX
  8
3
  5
1894
 10
229.974
 20
200.183
 30
0.000000
  70
    32
  0
VERTEX
  8
3
  5
1895
 10
229.975
 20
200.256
 30
0.000000
  70
    32
  0
VERTEX
  8
3
  5
1896
 10
229.975
 20
200.330
 30
0.000000
  70
    32
  0
VERTEX
  8
3
  5
1897
 10
229.975
 20
200.404
 30
0.000000
  70
    32
  0
VERTEX
  8
3
  5
1898
 10
229.974
 20
200.477
 30
0.000000
  70
    32
  0
VERTEX
  8
3
  5
1899
 10
229.972
 20
200.551
 30
0.000000
  70
    32
  0
VERTEX
  8
3
  5
189A
 10
229.970
 20
200.624
 30
0.000000
  70
    32
  0
VERTEX
  8
3
  5
189B
 10
229.967
 20
200.697
 30
0.000000
  70
    32
  0
VERTEX
  8
3
  5
189C
 10
229.963
 20
200.770
 30
0.000000
  70
    32
  0
VERTEX
  8
3
  5
189D
 10
229.959
 20
200.843
 30
0.000000
  70
    32
  0
VERTEX
  8
3
  5
189E
 10
229.955
 20
200.915
 30
0.000000
  70
    32
  0
VERTEX
  8
3
  5
189F
 10
229.949
 20
200.987
 30
0.000000
  70
    32
  0
VERTEX
  8
3
  5
18A0
 10
229.943
 20
201.059
 30
0.000000
  70
    32
  0
VERTEX
  8
3
  5
18A1
 10
229.936
 20
201.130
 30
0.000000
  70
    32
  0
VERTEX
  8
3
  5
18A2
 10
229.929
 20
201.201
 30
0.000000
  70
    32
  0
VERTEX
  8
3
  5
18A3
 10
229.921
 20
201.271
 30
0.000000
  70
    32
  0
VERTEX
  8
3
  5
18A4
 10
229.913
 20
201.341
 30
0.000000
  70
    32
  0
VERTEX
  8
3
  5
18A5
 10
229.904
 20
201.410
 30
0.000000
  70
    32
  0
VERTEX
  8
3
  5
18A6
 10
229.894
 20
201.478
 30
0.000000
  70
    32
  0
VERTEX
  8
3
  5
18A7
 10
229.884
 20
201.546
 30
0.000000
  70
    32
  0
VERTEX
  8
3
  5
18A8
 10
229.873
 20
201.613
 30
0.000000
  70
    32
  0
VERTEX
  8
3
  5
18A9
 10
229.861
 20
201.679
 30
0.000000
  70
    32
  0
VERTEX
  8
3
  5
18AA
 10
229.849
 20
201.744
 30
0.000000
  70
    32
  0
VERTEX
  8
3
  5
18AB
 10
229.836
 20
201.809
 30
0.000000
  70
    32
  0
VERTEX
  8
3
  5
18AC
 10
229.823
 20
201.872
 30
0.000000
  70
    32
  0
VERTEX
  8
3
  5
18AD
 10
229.809
 20
201.935
 30
0.000000
  70
    32
  0
VERTEX
  8
3
  5
18AE
 10
229.795
 20
201.997
 30
0.000000
  70
    32
  0
VERTEX
  8
3
  5
18AF
 10
229.780
 20
202.057
 30
0.000000
  70
    32
  0
VERTEX
  8
3
  5
18B0
 10
229.765
 20
202.117
 30
0.000000
  70
    32
  0
VERTEX
  8
3
  5
18B1
 10
229.749
 20
202.176
 30
0.000000
  70
    32
  0
VERTEX
  8
3
  5
18B2
 10
229.733
 20
202.233
 30
0.000000
  70
    32
  0
VERTEX
  8
3
  5
18B3
 10
229.716
 20
202.290
 30
0.000000
  70
    32
  0
VERTEX
  8
3
  5
18B4
 10
229.699
 20
202.345
 30
0.000000
  70
    32
  0
VERTEX
  8
3
  5
18B5
 10
229.681
 20
202.399
 30
0.000000
  70
    32
  0
VERTEX
  8
3
  5
18B6
 10
229.663
 20
202.451
 30
0.000000
  70
    32
  0
VERTEX
  8
3
  5
18B7
 10
229.644
 20
202.503
 30
0.000000
  70
    32
  0
VERTEX
  8
3
  5
18B8
 10
229.625
 20
202.553
 30
0.000000
  70
    32
  0
VERTEX
  8
3
  5
18B9
 10
229.605
 20
202.602
 30
0.000000
  70
    32
  0
VERTEX
  8
3
  5
18BA
 10
229.585
 20
202.649
 30
0.000000
  70
    32
  0
VERTEX
  8
3
  5
18BB
 10
229.564
 20
202.695
 30
0.000000
  70
    32
  0
VERTEX
  8
3
  5
18BC
 10
229.544
 20
202.740
 30
0.000000
  70
    32
  0
VERTEX
  8
3
  5
18BD
 10
229.522
 20
202.783
 30
0.000000
  70
    32
  0
VERTEX
  8
3
  5
18BE
 10
229.501
 20
202.824
 30
0.000000
  70
    32
  0
VERTEX
  8
3
  5
18BF
 10
229.479
 20
202.865
 30
0.000000
  70
    32
  0
VERTEX
  8
3
  5
18C0
 10
229.457
 20
202.903
 30
0.000000
  70
    32
  0
VERTEX
  8
3
  5
18C1
 10
229.434
 20
202.940
 30
0.000000
  70
    32
  0
VERTEX
  8
3
  5
18C2
 10
229.411
 20
202.976
 30
0.000000
  70
    32
  0
VERTEX
  8
3
  5
18C3
 10
229.388
 20
203.010
 30
0.000000
  70
    32
  0
VERTEX
  8
3
  5
18C4
 10
229.364
 20
203.042
 30
0.000000
  70
    32
  0
VERTEX
  8
3
  5
18C5
 10
229.340
 20
203.073
 30
0.000000
  70
    32
  0
VERTEX
  8
3
  5
18C6
 10
229.316
 20
203.102
 30
0.000000
  70
    32
  0
VERTEX
  8
3
  5
18C7
 10
229.292
 20
203.129
 30
0.000000
  70
    32
  0
VERTEX
  8
3
  5
18C8
 10
229.268
 20
203.155
 30
0.000000
  70
    32
  0
VERTEX
  8
3
  5
18C9
 10
229.243
 20
203.179
 30
0.000000
  70
    32
  0
VERTEX
  8
3
  5
18CA
 10
229.218
 20
203.201
 30
0.000000
  70
    32
  0
VERTEX
  8
3
  5
18CB
 10
229.193
 20
203.221
 30
0.000000
  70
    32
  0
VERTEX
  8
3
  5
18CC
 10
229.167
 20
203.240
 30
0.000000
  70
    32
  0
VERTEX
  8
3
  5
18CD
 10
229.142
 20
203.257
 30
0.000000
  70
    32
  0
VERTEX
  8
3
  5
18CE
 10
229.116
 20
203.272
 30
0.000000
  70
    32
  0
VERTEX
  8
3
  5
18CF
 10
229.090
 20
203.286
 30
0.000000
  70
    32
  0
VERTEX
  8
3
  5
18D0
 10
229.065
 20
203.298
 30
0.000000
  70
    32
  0
VERTEX
  8
3
  5
18D1
 10
229.039
 20
203.308
 30
0.000000
  70
    32
  0
VERTEX
  8
3
  5
18D2
 10
229.013
 20
203.316
 30
0.000000
  70
    32
  0
VERTEX
  8
3
  5
18D3
 10
228.987
 20
203.322
 30
0.000000
  70
    32
  0
VERTEX
  8
3
  5
18D4
 10
228.960
 20
203.326
 30
0.000000
  70
    32
  0
VERTEX
  8
3
  5
18D5
 10
228.934
 20
203.329
 30
0.000000
  70
    32
  0
VERTEX
  8
3
  5
18D6
 10
228.908
 20
203.330
 30
0.000000
  70
    32
  0
SEQEND
  8
3
  5
18D7
  0
POLYLINE
  5
11B3
  8
0
 10
229.77407651650191
 20
195.08006942971619
 30
0.0
 66
     1
 70
     8
  0
VERTEX
  8
0
  5
18D8
 10
229.774
 20
195.080
 30
0.000000
  70
    32
  0
VERTEX
  8
0
  5
18D9
 10
229.826
 20
195.082
 30
0.000000
  70
    32
  0
VERTEX
  8
0
  5
18DA
 10
229.878
 20
195.086
 30
0.000000
  70
    32
  0
VERTEX
  8
0
  5
18DB
 10
229.929
 20
195.094
 30
0.000000
  70
    32
  0
VERTEX
  8
0
  5
18DC
 10
229.981
 20
195.105
 30
0.000000
  70
    32
  0
VERTEX
  8
0
  5
18DD
 10
230.032
 20
195.120
 30
0.000000
  70
    32
  0
VERTEX
  8
0
  5
18DE
 10
230.084
 20
195.137
 30
0.000000
  70
    32
  0
VERTEX
  8
0
  5
18DF
 10
230.135
 20
195.157
 30
0.000000
  70
    32
  0
VERTEX
  8
0
  5
18E0
 10
230.186
 20
195.181
 30
0.000000
  70
    32
  0
VERTEX
  8
0
  5
18E1
 10
230.237
 20
195.208
 30
0.000000
  70
    32
  0
VERTEX
  8
0
  5
18E2
 10
230.287
 20
195.237
 30
0.000000
  70
    32
  0
VERTEX
  8
0
  5
18E3
 10
230.337
 20
195.270
 30
0.000000
  70
    32
  0
VERTEX
  8
0
  5
18E4
 10
230.387
 20
195.306
 30
0.000000
  70
    32
  0
VERTEX
  8
0
  5
18E5
 10
230.436
 20
195.345
 30
0.000000
  70
    32
  0
VERTEX
  8
0
  5
18E6
 10
230.485
 20
195.387
 30
0.000000
  70
    32
  0
VERTEX
  8
0
  5
18E7
 10
230.534
 20
195.432
 30
0.000000
  70
    32
  0
VERTEX
  8
0
  5
18E8
 10
230.582
 20
195.480
 30
0.000000
  70
    32
  0
VERTEX
  8
0
  5
18E9
 10
230.629
 20
195.530
 30
0.000000
  70
    32
  0
VERTEX
  8
0
  5
18EA
 10
230.676
 20
195.584
 30
0.000000
  70
    32
  0
VERTEX
  8
0
  5
18EB
 10
230.723
 20
195.641
 30
0.000000
  70
    32
  0
VERTEX
  8
0
  5
18EC
 10
230.769
 20
195.700
 30
0.000000
  70
    32
  0
VERTEX
  8
0
  5
18ED
 10
230.814
 20
195.762
 30
0.000000
  70
    32
  0
VERTEX
  8
0
  5
18EE
 10
230.859
 20
195.827
 30
0.000000
  70
    32
  0
VERTEX
  8
0
  5
18EF
 10
230.903
 20
195.895
 30
0.000000
  70
    32
  0
VERTEX
  8
0
  5
18F0
 10
230.947
 20
195.965
 30
0.000000
  70
    32
  0
VERTEX
  8
0
  5
18F1
 10
230.989
 20
196.038
 30
0.000000
  70
    32
  0
VERTEX
  8
0
  5
18F2
 10
231.031
 20
196.113
 30
0.000000
  70
    32
  0
VERTEX
  8
0
  5
18F3
 10
231.073
 20
196.191
 30
0.000000
  70
    32
  0
VERTEX
  8
0
  5
18F4
 10
231.113
 20
196.272
 30
0.000000
  70
    32
  0
VERTEX
  8
0
  5
18F5
 10
231.153
 20
196.355
 30
0.000000
  70
    32
  0
VERTEX
  8
0
  5
18F6
 10
231.191
 20
196.440
 30
0.000000
  70
    32
  0
VERTEX
  8
0
  5
18F7
 10
231.229
 20
196.528
 30
0.000000
  70
    32
  0
VERTEX
  8
0
  5
18F8
 10
231.267
 20
196.618
 30
0.000000
  70
    32
  0
VERTEX
  8
0
  5
18F9
 10
231.303
 20
196.710
 30
0.000000
  70
    32
  0
VERTEX
  8
0
  5
18FA
 10
231.338
 20
196.804
 30
0.000000
  70
    32
  0
VERTEX
  8
0
  5
18FB
 10
231.372
 20
196.901
 30
0.000000
  70
    32
  0
VERTEX
  8
0
  5
18FC
 10
231.406
 20
197.000
 30
0.000000
  70
    32
  0
VERTEX
  8
0
  5
18FD
 10
231.438
 20
197.100
 30
0.000000
  70
    32
  0
VERTEX
  8
0
  5
18FE
 10
231.469
 20
197.203
 30
0.000000
  70
    32
  0
VERTEX
  8
0
  5
18FF
 10
231.500
 20
197.307
 30
0.000000
  70
    32
  0
VERTEX
  8
0
  5
1900
 10
231.529
 20
197.413
 30
0.000000
  70
    32
  0
VERTEX
  8
0
  5
1901
 10
231.557
 20
197.521
 30
0.000000
  70
    32
  0
VERTEX
  8
0
  5
1902
 10
231.584
 20
197.631
 30
0.000000
  70
    32
  0
VERTEX
  8
0
  5
1903
 10
231.611
 20
197.742
 30
0.000000
  70
    32
  0
VERTEX
  8
0
  5
1904
 10
231.635
 20
197.855
 30
0.000000
  70
    32
  0
VERTEX
  8
0
  5
1905
 10
231.659
 20
197.970
 30
0.000000
  70
    32
  0
VERTEX
  8
0
  5
1906
 10
231.682
 20
198.085
 30
0.000000
  70
    32
  0
VERTEX
  8
0
  5
1907
 10
231.704
 20
198.203
 30
0.000000
  70
    32
  0
VERTEX
  8
0
  5
1908
 10
231.724
 20
198.321
 30
0.000000
  70
    32
  0
VERTEX
  8
0
  5
1909
 10
231.743
 20
198.441
 30
0.000000
  70
    32
  0
VERTEX
  8
0
  5
190A
 10
231.761
 20
198.561
 30
0.000000
  70
    32
  0
VERTEX
  8
0
  5
190B
 10
231.778
 20
198.683
 30
0.000000
  70
    32
  0
VERTEX
  8
0
  5
190C
 10
231.794
 20
198.806
 30
0.000000
  70
    32
  0
VERTEX
  8
0
  5
190D
 10
231.808
 20
198.930
 30
0.000000
  70
    32
  0
VERTEX
  8
0
  5
190E
 10
231.821
 20
199.054
 30
0.000000
  70
    32
  0
VERTEX
  8
0
  5
190F
 10
231.833
 20
199.180
 30
0.000000
  70
    32
  0
VERTEX
  8
0
  5
1910
 10
231.844
 20
199.306
 30
0.000000
  70
    32
  0
VERTEX
  8
0
  5
1911
 10
231.854
 20
199.433
 30
0.000000
  70
    32
  0
VERTEX
  8
0
  5
1912
 10
231.862
 20
199.560
 30
0.000000
  70
    32
  0
VERTEX
  8
0
  5
1913
 10
231.869
 20
199.687
 30
0.000000
  70
    32
  0
VERTEX
  8
0
  5
1914
 10
231.875
 20
199.815
 30
0.000000
  70
    32
  0
VERTEX
  8
0
  5
1915
 10
231.879
 20
199.944
 30
0.000000
  70
    32
  0
VERTEX
  8
0
  5
1916
 10
231.882
 20
200.072
 30
0.000000
  70
    32
  0
VERTEX
  8
0
  5
1917
 10
231.884
 20
200.201
 30
0.000000
  70
    32
  0
VERTEX
  8
0
  5
1918
 10
231.885
 20
200.330
 30
0.000000
  70
    32
  0
VERTEX
  8
0
  5
1919
 10
231.884
 20
200.459
 30
0.000000
  70
    32
  0
VERTEX
  8
0
  5
191A
 10
231.882
 20
200.588
 30
0.000000
  70
    32
  0
VERTEX
  8
0
  5
191B
 10
231.879
 20
200.716
 30
0.000000
  70
    32
  0
VERTEX
  8
0
  5
191C
 10
231.875
 20
200.845
 30
0.000000
  70
    32
  0
VERTEX
  8
0
  5
191D
 10
231.869
 20
200.973
 30
0.000000
  70
    32
  0
VERTEX
  8
0
  5
191E
 10
231.862
 20
201.100
 30
0.000000
  70
    32
  0
VERTEX
  8
0
  5
191F
 10
231.854
 20
201.228
 30
0.000000
  70
    32
  0
VERTEX
  8
0
  5
1920
 10
231.844
 20
201.354
 30
0.000000
  70
    32
  0
VERTEX
  8
0
  5
1921
 10
231.833
 20
201.480
 30
0.000000
  70
    32
  0
VERTEX
  8
0
  5
1922
 10
231.821
 20
201.606
 30
0.000000
  70
    32
  0
VERTEX
  8
0
  5
1923
 10
231.808
 20
201.730
 30
0.000000
  70
    32
  0
VERTEX
  8
0
  5
1924
 10
231.794
 20
201.854
 30
0.000000
  70
    32
  0
VERTEX
  8
0
  5
1925
 10
231.778
 20
201.977
 30
0.000000
  70
    32
  0
VERTEX
  8
0
  5
1926
 10
231.761
 20
202.099
 30
0.000000
  70
    32
  0
VERTEX
  8
0
  5
1927
 10
231.743
 20
202.220
 30
0.000000
  70
    32
  0
VERTEX
  8
0
  5
1928
 10
231.724
 20
202.339
 30
0.000000
  70
    32
  0
VERTEX
  8
0
  5
1929
 10
231.704
 20
202.458
 30
0.000000
  70
    32
  0
VERTEX
  8
0
  5
192A
 10
231.682
 20
202.575
 30
0.000000
  70
    32
  0
VERTEX
  8
0
  5
192B
 10
231.659
 20
202.691
 30
0.000000
  70
    32
  0
VERTEX
  8
0
  5
192C
 10
231.635
 20
202.805
 30
0.000000
  70
    32
  0
VERTEX
  8
0
  5
192D
 10
231.611
 20
202.918
 30
0.000000
  70
    32
  0
VERTEX
  8
0
  5
192E
 10
231.584
 20
203.029
 30
0.000000
  70
    32
  0
VERTEX
  8
0
  5
192F
 10
231.557
 20
203.139
 30
0.000000
  70
    32
  0
VERTEX
  8
0
  5
1930
 10
231.529
 20
203.247
 30
0.000000
  70
    32
  0
VERTEX
  8
0
  5
1931
 10
231.500
 20
203.353
 30
0.000000
  70
    32
  0
VERTEX
  8
0
  5
1932
 10
231.469
 20
203.457
 30
0.000000
  70
    32
  0
VERTEX
  8
0
  5
1933
 10
231.438
 20
203.560
 30
0.000000
  70
    32
  0
VERTEX
  8
0
  5
1934
 10
231.406
 20
203.661
 30
0.000000
  70
    32
  0
VERTEX
  8
0
  5
1935
 10
231.372
 20
203.759
 30
0.000000
  70
    32
  0
VERTEX
  8
0
  5
1936
 10
231.338
 20
203.856
 30
0.000000
  70
    32
  0
VERTEX
  8
0
  5
1937
 10
231.303
 20
203.950
 30
0.000000
  70
    32
  0
VERTEX
  8
0
  5
1938
 10
231.267
 20
204.042
 30
0.000000
  70
    32
  0
VERTEX
  8
0
  5
1939
 10
231.229
 20
204.132
 30
0.000000
  70
    32
  0
VERTEX
  8
0
  5
193A
 10
231.191
 20
204.220
 30
0.000000
  70
    32
  0
VERTEX
  8
0
  5
193B
 10
231.153
 20
204.305
 30
0.000000
  70
    32
  0
VERTEX
  8
0
  5
193C
 10
231.113
 20
204.388
 30
0.000000
  70
    32
  0
VERTEX
  8
0
  5
193D
 10
231.073
 20
204.469
 30
0.000000
  70
    32
  0
VERTEX
  8
0
  5
193E
 10
231.031
 20
204.547
 30
0.000000
  70
    32
  0
VERTEX
  8
0
  5
193F
 10
230.989
 20
204.622
 30
0.000000
  70
    32
  0
VERTEX
  8
0
  5
1940
 10
230.947
 20
204.695
 30
0.000000
  70
    32
  0
VERTEX
  8
0
  5
1941
 10
230.903
 20
204.766
 30
0.000000
  70
    32
  0
VERTEX
  8
0
  5
1942
 10
230.859
 20
204.833
 30
0.000000
  70
    32
  0
VERTEX
  8
0
  5
1943
 10
230.814
 20
204.898
 30
0.000000
  70
    32
  0
VERTEX
  8
0
  5
1944
 10
230.769
 20
204.960
 30
0.000000
  70
    32
  0
VERTEX
  8
0
  5
1945
 10
230.723
 20
205.019
 30
0.000000
  70
    32
  0
VERTEX
  8
0
  5
1946
 10
230.676
 20
205.076
 30
0.000000
  70
    32
  0
VERTEX
  8
0
  5
1947
 10
230.629
 20
205.130
 30
0.000000
  70
    32
  0
VERTEX
  8
0
  5
1948
 10
230.582
 20
205.180
 30
0.000000
  70
    32
  0
VERTEX
  8
0
  5
1949
 10
230.534
 20
205.228
 30
0.000000
  70
    32
  0
VERTEX
  8
0
  5
194A
 10
230.485
 20
205.273
 30
0.000000
  70
    32
  0
VERTEX
  8
0
  5
194B
 10
230.436
 20
205.315
 30
0.000000
  70
    32
  0
VERTEX
  8
0
  5
194C
 10
230.387
 20
205.354
 30
0.000000
  70
    32
  0
VERTEX
  8
0
  5
194D
 10
230.337
 20
205.390
 30
0.000000
  70
    32
  0
VERTEX
  8
0
  5
194E
 10
230.287
 20
205.423
 30
0.000000
  70
    32
  0
VERTEX
  8
0
  5
194F
 10
230.237
 20
205.453
 30
0.000000
  70
    32
  0
VERTEX
  8
0
  5
1950
 10
230.186
 20
205.479
 30
0.000000
  70
    32
  0
VERTEX
  8
0
  5
1951
 10
230.135
 20
205.503
 30
0.000000
  70
    32
  0
VERTEX
  8
0
  5
1952
 10
230.084
 20
205.523
 30
0.000000
  70
    32
  0
VERTEX
  8
0
  5
1953
 10
230.032
 20
205.541
 30
0.000000
  70
    32
  0
VERTEX
  8
0
  5
1954
 10
229.981
 20
205.555
 30
0.000000
  70
    32
  0
VERTEX
  8
0
  5
1955
 10
229.929
 20
205.566
 30
0.000000
  70
    32
  0
VERTEX
  8
0
  5
1956
 10
229.878
 20
205.574
 30
0.000000
  70
    32
  0
VERTEX
  8
0
  5
1957
 10
229.826
 20
205.578
 30
0.000000
  70
    32
  0
VERTEX
  8
0
  5
1958
 10
229.774
 20
205.580
 30
0.000000
  70
    32
  0
SEQEND
  8
0
  5
1959
  0
POLYLINE
  5
11B4
  8
0
 10
229.77407651650191
 20
205.58006942971619
 30
0.0
 66
     1
 70
     8
  0
VERTEX
  8
0
  5
195A
 10
229.774
 20
205.580
 30
0.000000
  70
    32
  0
VERTEX
  8
0
  5
195B
 10
229.697
 20
205.578
 30
0.000000
  70
    32
  0
VERTEX
  8
0
  5
195C
 10
229.620
 20
205.574
 30
0.000000
  70
    32
  0
VERTEX
  8
0
  5
195D
 10
229.543
 20
205.566
 30
0.000000
  70
    32
  0
VERTEX
  8
0
  5
195E
 10
229.467
 20
205.555
 30
0.000000
  70
    32
  0
VERTEX
  8
0
  5
195F
 10
229.390
 20
205.541
 30
0.000000
  70
    32
  0
VERTEX
  8
0
  5
1960
 10
229.314
 20
205.523
 30
0.000000
  70
    32
  0
VERTEX
  8
0
  5
1961
 10
229.238
 20
205.503
 30
0.000000
  70
    32
  0
VERTEX
  8
0
  5
1962
 10
229.162
 20
205.479
 30
0.000000
  70
    32
  0
VERTEX
  8
0
  5
1963
 10
229.087
 20
205.453
 30
0.000000
  70
    32
  0
VERTEX
  8
0
  5
1964
 10
229.012
 20
205.423
 30
0.000000
  70
    32
  0
VERTEX
  8
0
  5
1965
 10
228.937
 20
205.390
 30
0.000000
  70
    32
  0
VERTEX
  8
0
  5
1966
 10
228.864
 20
205.354
 30
0.000000
  70
    32
  0
VERTEX
  8
0
  5
1967
 10
228.790
 20
205.315
 30
0.000000
  70
    32
  0
VERTEX
  8
0
  5
1968
 10
228.717
 20
205.273
 30
0.000000
  70
    32
  0
VERTEX
  8
0
  5
1969
 10
228.645
 20
205.228
 30
0.000000
  70
    32
  0
VERTEX
  8
0
  5
196A
 10
228.574
 20
205.180
 30
0.000000
  70
    32
  0
VERTEX
  8
0
  5
196B
 10
228.503
 20
205.130
 30
0.000000
  70
    32
  0
VERTEX
  8
0
  5
196C
 10
228.433
 20
205.076
 30
0.000000
  70
    32
  0
VERTEX
  8
0
  5
196D
 10
228.364
 20
205.019
 30
0.000000
  70
    32
  0
VERTEX
  8
0
  5
196E
 10
228.295
 20
204.960
 30
0.000000
  70
    32
  0
VERTEX
  8
0
  5
196F
 10
228.228
 20
204.898
 30
0.000000
  70
    32
  0
VERTEX
  8
0
  5
1970
 10
228.161
 20
204.833
 30
0.000000
  70
    32
  0
VERTEX
  8
0
  5
1971
 10
228.096
 20
204.766
 30
0.000000
  70
    32
  0
VERTEX
  8
0
  5
1972
 10
228.031
 20
204.695
 30
0.000000
  70
    32
  0
VERTEX
  8
0
  5
1973
 10
227.968
 20
204.622
 30
0.000000
  70
    32
  0
VERTEX
  8
0
  5
1974
 10
227.906
 20
204.547
 30
0.000000
  70
    32
  0
VERTEX
  8
0
  5
1975
 10
227.844
 20
204.469
 30
0.000000
  70
    32
  0
VERTEX
  8
0
  5
1976
 10
227.784
 20
204.388
 30
0.000000
  70
    32
  0
VERTEX
  8
0
  5
1977
 10
227.725
 20
204.305
 30
0.000000
  70
    32
  0
VERTEX
  8
0
  5
1978
 10
227.668
 20
204.220
 30
0.000000
  70
    32
  0
VERTEX
  8
0
  5
1979
 10
227.611
 20
204.132
 30
0.000000
  70
    32
  0
VERTEX
  8
0
  5
197A
 10
227.556
 20
204.042
 30
0.000000
  70
    32
  0
VERTEX
  8
0
  5
197B
 10
227.502
 20
203.950
 30
0.000000
  70
    32
  0
VERTEX
  8
0
  5
197C
 10
227.450
 20
203.856
 30
0.000000
  70
    32
  0
VERTEX
  8
0
  5
197D
 10
227.399
 20
203.759
 30
0.000000
  70
    32
  0
VERTEX
  8
0
  5
197E
 10
227.349
 20
203.661
 30
0.000000
  70
    32
  0
VERTEX
  8
0
  5
197F
 10
227.301
 20
203.560
 30
0.000000
  70
    32
  0
VERTEX
  8
0
  5
1980
 10
227.255
 20
203.457
 30
0.000000
  70
    32
  0
VERTEX
  8
0
  5
1981
 10
227.210
 20
203.353
 30
0.000000
  70
    32
  0
VERTEX
  8
0
  5
1982
 10
227.166
 20
203.247
 30
0.000000
  70
    32
  0
VERTEX
  8
0
  5
1983
 10
227.124
 20
203.139
 30
0.000000
  70
    32
  0
VERTEX
  8
0
  5
1984
 10
227.084
 20
203.029
 30
0.000000
  70
    32
  0
VERTEX
  8
0
  5
1985
 10
227.045
 20
202.918
 30
0.000000
  70
    32
  0
VERTEX
  8
0
  5
1986
 10
227.008
 20
202.805
 30
0.000000
  70
    32
  0
VERTEX
  8
0
  5
1987
 10
226.972
 20
202.691
 30
0.000000
  70
    32
  0
VERTEX
  8
0
  5
1988
 10
226.939
 20
202.575
 30
0.000000
  70
    32
  0
VERTEX
  8
0
  5
1989
 10
226.906
 20
202.458
 30
0.000000
  70
    32
  0
VERTEX
  8
0
  5
198A
 10
226.876
 20
202.339
 30
0.000000
  70
    32
  0
VERTEX
  8
0
  5
198B
 10
226.848
 20
202.220
 30
0.000000
  70
    32
  0
VERTEX
  8
0
  5
198C
 10
226.821
 20
202.099
 30
0.000000
  70
    32
  0
VERTEX
  8
0
  5
198D
 10
226.796
 20
201.977
 30
0.000000
  70
    32
  0
VERTEX
  8
0
  5
198E
 10
226.772
 20
201.854
 30
0.000000
  70
    32
  0
VERTEX
  8
0
  5
198F
 10
226.751
 20
201.730
 30
0.000000
  70
    32
  0
VERTEX
  8
0
  5
1990
 10
226.731
 20
201.606
 30
0.000000
  70
    32
  0
VERTEX
  8
0
  5
1991
 10
226.714
 20
201.480
 30
0.000000
  70
    32
  0
VERTEX
  8
0
  5
1992
 10
226.698
 20
201.354
 30
0.000000
  70
    32
  0
VERTEX
  8
0
  5
1993
 10
226.684
 20
201.228
 30
0.000000
  70
    32
  0
VERTEX
  8
0
  5
1994
 10
226.671
 20
201.100
 30
0.000000
  70
    32
  0
VERTEX
  8
0
  5
1995
 10
226.661
 20
200.973
 30
0.000000
  70
    32
  0
VERTEX
  8
0
  5
1996
 10
226.652
 20
200.845
 30
0.000000
  70
    32
  0
VERTEX
  8
0
  5
1997
 10
226.646
 20
200.716
 30
0.000000
  70
    32
  0
VERTEX
  8
0
  5
1998
 10
226.641
 20
200.588
 30
0.000000
  70
    32
  0
VERTEX
  8
0
  5
1999
 10
226.638
 20
200.459
 30
0.000000
  70
    32
  0
VERTEX
  8
0
  5
199A
 10
226.637
 20
200.330
 30
0.000000
  70
    32
  0
VERTEX
  8
0
  5
199B
 10
226.638
 20
200.201
 30
0.000000
  70
    32
  0
VERTEX
  8
0
  5
199C
 10
226.641
 20
200.072
 30
0.000000
  70
    32
  0
VERTEX
  8
0
  5
199D
 10
226.646
 20
199.944
 30
0.000000
  70
    32
  0
VERTEX
  8
0
  5
199E
 10
226.652
 20
199.815
 30
0.000000
  70
    32
  0
VERTEX
  8
0
  5
199F
 10
226.661
 20
199.687
 30
0.000000
  70
    32
  0
VERTEX
  8
0
  5
19A0
 10
226.671
 20
199.560
 30
0.000000
  70
    32
  0
VERTEX
  8
0
  5
19A1
 10
226.684
 20
199.433
 30
0.000000
  70
    32
  0
VERTEX
  8
0
  5
19A2
 10
226.698
 20
199.306
 30
0.000000
  70
    32
  0
VERTEX
  8
0
  5
19A3
 10
226.714
 20
199.180
 30
0.000000
  70
    32
  0
VERTEX
  8
0
  5
19A4
 10
226.731
 20
199.054
 30
0.000000
  70
    32
  0
VERTEX
  8
0
  5
19A5
 10
226.751
 20
198.930
 30
0.000000
  70
    32
  0
VERTEX
  8
0
  5
19A6
 10
226.772
 20
198.806
 30
0.000000
  70
    32
  0
VERTEX
  8
0
  5
19A7
 10
226.796
 20
198.683
 30
0.000000
  70
    32
  0
VERTEX
  8
0
  5
19A8
 10
226.821
 20
198.561
 30
0.000000
  70
    32
  0
VERTEX
  8
0
  5
19A9
 10
226.848
 20
198.441
 30
0.000000
  70
    32
  0
VERTEX
  8
0
  5
19AA
 10
226.876
 20
198.321
 30
0.000000
  70
    32
  0
VERTEX
  8
0
  5
19AB
 10
226.906
 20
198.203
 30
0.000000
  70
    32
  0
VERTEX
  8
0
  5
19AC
 10
226.939
 20
198.085
 30
0.000000
  70
    32
  0
VERTEX
  8
0
  5
19AD
 10
226.972
 20
197.970
 30
0.000000
  70
    32
  0
VERTEX
  8
0
  5
19AE
 10
227.008
 20
197.855
 30
0.000000
  70
    32
  0
VERTEX
  8
0
  5
19AF
 10
227.045
 20
197.742
 30
0.000000
  70
    32
  0
VERTEX
  8
0
  5
19B0
 10
227.084
 20
197.631
 30
0.000000
  70
    32
  0
VERTEX
  8
0
  5
19B1
 10
227.124
 20
197.521
 30
0.000000
  70
    32
  0
VERTEX
  8
0
  5
19B2
 10
227.166
 20
197.413
 30
0.000000
  70
    32
  0
VERTEX
  8
0
  5
19B3
 10
227.210
 20
197.307
 30
0.000000
  70
    32
  0
VERTEX
  8
0
  5
19B4
 10
227.255
 20
197.203
 30
0.000000
  70
    32
  0
VERTEX
  8
0
  5
19B5
 10
227.301
 20
197.100
 30
0.000000
  70
    32
  0
VERTEX
  8
0
  5
19B6
 10
227.349
 20
197.000
 30
0.000000
  70
    32
  0
VERTEX
  8
0
  5
19B7
 10
227.399
 20
196.901
 30
0.000000
  70
    32
  0
VERTEX
  8
0
  5
19B8
 10
227.450
 20
196.804
 30
0.000000
  70
    32
  0
VERTEX
  8
0
  5
19B9
 10
227.502
 20
196.710
 30
0.000000
  70
    32
  0
VERTEX
  8
0
  5
19BA
 10
227.556
 20
196.618
 30
0.000000
  70
    32
  0
VERTEX
  8
0
  5
19BB
 10
227.611
 20
196.528
 30
0.000000
  70
    32
  0
VERTEX
  8
0
  5
19BC
 10
227.668
 20
196.440
 30
0.000000
  70
    32
  0
VERTEX
  8
0
  5
19BD
 10
227.725
 20
196.355
 30
0.000000
  70
    32
  0
VERTEX
  8
0
  5
19BE
 10
227.784
 20
196.272
 30
0.000000
  70
    32
  0
VERTEX
  8
0
  5
19BF
 10
227.844
 20
196.191
 30
0.000000
  70
    32
  0
VERTEX
  8
0
  5
19C0
 10
227.906
 20
196.113
 30
0.000000
  70
    32
  0
VERTEX
  8
0
  5
19C1
 10
227.968
 20
196.038
 30
0.000000
  70
    32
  0
VERTEX
  8
0
  5
19C2
 10
228.031
 20
195.965
 30
0.000000
  70
    32
  0
VERTEX
  8
0
  5
19C3
 10
228.096
 20
195.895
 30
0.000000
  70
    32
  0
VERTEX
  8
0
  5
19C4
 10
228.161
 20
195.827
 30
0.000000
  70
    32
  0
VERTEX
  8
0
  5
19C5
 10
228.228
 20
195.762
 30
0.000000
  70
    32
  0
VERTEX
  8
0
  5
19C6
 10
228.295
 20
195.700
 30
0.000000
  70
    32
  0
VERTEX
  8
0
  5
19C7
 10
228.364
 20
195.641
 30
0.000000
  70
    32
  0
VERTEX
  8
0
  5
19C8
 10
228.433
 20
195.584
 30
0.000000
  70
    32
  0
VERTEX
  8
0
  5
19C9
 10
228.503
 20
195.530
 30
0.000000
  70
    32
  0
VERTEX
  8
0
  5
19CA
 10
228.574
 20
195.480
 30
0.000000
  70
    32
  0
VERTEX
  8
0
  5
19CB
 10
228.645
 20
195.432
 30
0.000000
  70
    32
  0
VERTEX
  8
0
  5
19CC
 10
228.717
 20
195.387
 30
0.000000
  70
    32
  0
VERTEX
  8
0
  5
19CD
 10
228.790
 20
195.345
 30
0.000000
  70
    32
  0
VERTEX
  8
0
  5
19CE
 10
228.864
 20
195.306
 30
0.000000
  70
    32
  0
VERTEX
  8
0
  5
19CF
 10
228.937
 20
195.270
 30
0.000000
  70
    32
  0
VERTEX
  8
0
  5
19D0
 10
229.012
 20
195.237
 30
0.000000
  70
    32
  0
VERTEX
  8
0
  5
19D1
 10
229.087
 20
195.208
 30
0.000000
  70
    32
  0
VERTEX
  8
0
  5
19D2
 10
229.162
 20
195.181
 30
0.000000
  70
    32
  0
VERTEX
  8
0
  5
19D3
 10
229.238
 20
195.157
 30
0.000000
  70
    32
  0
VERTEX
  8
0
  5
19D4
 10
229.314
 20
195.137
 30
0.000000
  70
    32
  0
VERTEX
  8
0
  5
19D5
 10
229.390
 20
195.120
 30
0.000000
  70
    32
  0
VERTEX
  8
0
  5
19D6
 10
229.467
 20
195.105
 30
0.000000
  70
    32
  0
VERTEX
  8
0
  5
19D7
 10
229.543
 20
195.094
 30
0.000000
  70
    32
  0
VERTEX
  8
0
  5
19D8
 10
229.620
 20
195.086
 30
0.000000
  70
    32
  0
VERTEX
  8
0
  5
19D9
 10
229.697
 20
195.082
 30
0.000000
  70
    32
  0
VERTEX
  8
0
  5
19DA
 10
229.774
 20
195.080
 30
0.000000
  70
    32
  0
SEQEND
  8
0
  5
19DB
  0
LINE
  5
11B5
  8
0
 10
345.85261359339972
 20
184.33007097093059
 30
0.0
 11
340.92216487503072
 21
181.3300704791923
 31
0.0
  0
LINE
  5
11B6
  8
0
 10
345.85261359339972
 20
184.33007097093059
 30
0.0
 11
340.92216509228609
 21
187.330071819724
 31
0.0
  0
CIRCLE
  5
1330
  8
0
 10
209.42246352655809
 20
294.62983800319802
 30
0.0
 40
25.0
  0
POLYLINE
  5
133B
  8
0
 10
327.67246352655809
 20
205.58007070469938
 30
0.0
 66
     1
 70
     8
  0
VERTEX
  8
0
  5
19DC
 10
327.672
 20
205.580
 30
0.000000
  70
    32
  0
VERTEX
  8
0
  5
19DD
 10
327.791
 20
205.578
 30
0.000000
  70
    32
  0
VERTEX
  8
0
  5
19DE
 10
327.910
 20
205.574
 30
0.000000
  70
    32
  0
VERTEX
  8
0
  5
19DF
 10
328.029
 20
205.566
 30
0.000000
  70
    32
  0
VERTEX
  8
0
  5
19E0
 10
328.147
 20
205.555
 30
0.000000
  70
    32
  0
VERTEX
  8
0
  5
19E1
 10
328.265
 20
205.541
 30
0.000000
  70
    32
  0
VERTEX
  8
0
  5
19E2
 10
328.383
 20
205.523
 30
0.000000
  70
    32
  0
VERTEX
  8
0
  5
19E3
 10
328.500
 20
205.503
 30
0.000000
  70
    32
  0
VERTEX
  8
0
  5
19E4
 10
328.617
 20
205.479
 30
0.000000
  70
    32
  0
VERTEX
  8
0
  5
19E5
 10
328.733
 20
205.453
 30
0.000000
  70
    32
  0
VERTEX
  8
0
  5
19E6
 10
328.849
 20
205.423
 30
0.000000
  70
    32
  0
VERTEX
  8
0
  5
19E7
 10
328.964
 20
205.390
 30
0.000000
  70
    32
  0
VERTEX
  8
0
  5
19E8
 10
329.078
 20
205.354
 30
0.000000
  70
    32
  0
VERTEX
  8
0
  5
19E9
 10
329.191
 20
205.315
 30
0.000000
  70
    32
  0
VERTEX
  8
0
  5
19EA
 10
329.304
 20
205.273
 30
0.000000
  70
    32
  0
VERTEX
  8
0
  5
19EB
 10
329.415
 20
205.228
 30
0.000000
  70
    32
  0
VERTEX
  8
0
  5
19EC
 10
329.525
 20
205.180
 30
0.000000
  70
    32
  0
VERTEX
  8
0
  5
19ED
 10
329.635
 20
205.130
 30
0.000000
  70
    32
  0
VERTEX
  8
0
  5
19EE
 10
329.743
 20
205.076
 30
0.000000
  70
    32
  0
VERTEX
  8
0
  5
19EF
 10
329.850
 20
205.019
 30
0.000000
  70
    32
  0
VERTEX
  8
0
  5
19F0
 10
329.955
 20
204.960
 30
0.000000
  70
    32
  0
VERTEX
  8
0
  5
19F1
 10
330.059
 20
204.898
 30
0.000000
  70
    32
  0
VERTEX
  8
0
  5
19F2
 10
330.162
 20
204.833
 30
0.000000
  70
    32
  0
VERTEX
  8
0
  5
19F3
 10
330.263
 20
204.766
 30
0.000000
  70
    32
  0
VERTEX
  8
0
  5
19F4
 10
330.363
 20
204.695
 30
0.000000
  70
    32
  0
VERTEX
  8
0
  5
19F5
 10
330.461
 20
204.622
 30
0.000000
  70
    32
  0
VERTEX
  8
0
  5
19F6
 10
330.557
 20
204.547
 30
0.000000
  70
    32
  0
VERTEX
  8
0
  5
19F7
 10
330.651
 20
204.469
 30
0.000000
  70
    32
  0
VERTEX
  8
0
  5
19F8
 10
330.744
 20
204.388
 30
0.000000
  70
    32
  0
VERTEX
  8
0
  5
19F9
 10
330.835
 20
204.305
 30
0.000000
  70
    32
  0
VERTEX
  8
0
  5
19FA
 10
330.924
 20
204.220
 30
0.000000
  70
    32
  0
VERTEX
  8
0
  5
19FB
 10
331.011
 20
204.132
 30
0.000000
  70
    32
  0
VERTEX
  8
0
  5
19FC
 10
331.096
 20
204.042
 30
0.000000
  70
    32
  0
VERTEX
  8
0
  5
19FD
 10
331.179
 20
203.950
 30
0.000000
  70
    32
  0
VERTEX
  8
0
  5
19FE
 10
331.260
 20
203.856
 30
0.000000
  70
    32
  0
VERTEX
  8
0
  5
19FF
 10
331.339
 20
203.759
 30
0.000000
  70
    32
  0
VERTEX
  8
0
  5
1A00
 10
331.415
 20
203.661
 30
0.000000
  70
    32
  0
VERTEX
  8
0
  5
1A01
 10
331.490
 20
203.560
 30
0.000000
  70
    32
  0
VERTEX
  8
0
  5
1A02
 10
331.562
 20
203.457
 30
0.000000
  70
    32
  0
VERTEX
  8
0
  5
1A03
 10
331.631
 20
203.353
 30
0.000000
  70
    32
  0
VERTEX
  8
0
  5
1A04
 10
331.698
 20
203.247
 30
0.000000
  70
    32
  0
VERTEX
  8
0
  5
1A05
 10
331.763
 20
203.139
 30
0.000000
  70
    32
  0
VERTEX
  8
0
  5
1A06
 10
331.826
 20
203.029
 30
0.000000
  70
    32
  0
VERTEX
  8
0
  5
1A07
 10
331.885
 20
202.918
 30
0.000000
  70
    32
  0
VERTEX
  8
0
  5
1A08
 10
331.943
 20
202.805
 30
0.000000
  70
    32
  0
VERTEX
  8
0
  5
1A09
 10
331.998
 20
202.691
 30
0.000000
  70
    32
  0
VERTEX
  8
0
  5
1A0A
 10
332.050
 20
202.575
 30
0.000000
  70
    32
  0
VERTEX
  8
0
  5
1A0B
 10
332.099
 20
202.458
 30
0.000000
  70
    32
  0
VERTEX
  8
0
  5
1A0C
 10
332.146
 20
202.339
 30
0.000000
  70
    32
  0
VERTEX
  8
0
  5
1A0D
 10
332.190
 20
202.220
 30
0.000000
  70
    32
  0
VERTEX
  8
0
  5
1A0E
 10
332.231
 20
202.099
 30
0.000000
  70
    32
  0
VERTEX
  8
0
  5
1A0F
 10
332.270
 20
201.977
 30
0.000000
  70
    32
  0
VERTEX
  8
0
  5
1A10
 10
332.306
 20
201.854
 30
0.000000
  70
    32
  0
VERTEX
  8
0
  5
1A11
 10
332.339
 20
201.730
 30
0.000000
  70
    32
  0
VERTEX
  8
0
  5
1A12
 10
332.369
 20
201.606
 30
0.000000
  70
    32
  0
VERTEX
  8
0
  5
1A13
 10
332.397
 20
201.480
 30
0.000000
  70
    32
  0
VERTEX
  8
0
  5
1A14
 10
332.421
 20
201.354
 30
0.000000
  70
    32
  0
VERTEX
  8
0
  5
1A15
 10
332.443
 20
201.228
 30
0.000000
  70
    32
  0
VERTEX
  8
0
  5
1A16
 10
332.462
 20
201.100
 30
0.000000
  70
    32
  0
VERTEX
  8
0
  5
1A17
 10
332.478
 20
200.973
 30
0.000000
  70
    32
  0
VERTEX
  8
0
  5
1A18
 10
332.491
 20
200.845
 30
0.000000
  70
    32
  0
VERTEX
  8
0
  5
1A19
 10
332.501
 20
200.716
 30
0.000000
  70
    32
  0
VERTEX
  8
0
  5
1A1A
 10
332.509
 20
200.588
 30
0.000000
  70
    32
  0
VERTEX
  8
0
  5
1A1B
 10
332.513
 20
200.459
 30
0.000000
  70
    32
  0
VERTEX
  8
0
  5
1A1C
 10
332.515
 20
200.330
 30
0.000000
  70
    32
  0
VERTEX
  8
0
  5
1A1D
 10
332.513
 20
200.201
 30
0.000000
  70
    32
  0
VERTEX
  8
0
  5
1A1E
 10
332.509
 20
200.072
 30
0.000000
  70
    32
  0
VERTEX
  8
0
  5
1A1F
 10
332.501
 20
199.944
 30
0.000000
  70
    32
  0
VERTEX
  8
0
  5
1A20
 10
332.491
 20
199.815
 30
0.000000
  70
    32
  0
VERTEX
  8
0
  5
1A21
 10
332.478
 20
199.687
 30
0.000000
  70
    32
  0
VERTEX
  8
0
  5
1A22
 10
332.462
 20
199.560
 30
0.000000
  70
    32
  0
VERTEX
  8
0
  5
1A23
 10
332.443
 20
199.433
 30
0.000000
  70
    32
  0
VERTEX
  8
0
  5
1A24
 10
332.421
 20
199.306
 30
0.000000
  70
    32
  0
VERTEX
  8
0
  5
1A25
 10
332.397
 20
199.180
 30
0.000000
  70
    32
  0
VERTEX
  8
0
  5
1A26
 10
332.369
 20
199.054
 30
0.000000
  70
    32
  0
VERTEX
  8
0
  5
1A27
 10
332.339
 20
198.930
 30
0.000000
  70
    32
  0
VERTEX
  8
0
  5
1A28
 10
332.306
 20
198.806
 30
0.000000
  70
    32
  0
VERTEX
  8
0
  5
1A29
 10
332.270
 20
198.683
 30
0.000000
  70
    32
  0
VERTEX
  8
0
  5
1A2A
 10
332.231
 20
198.561
 30
0.000000
  70
    32
  0
VERTEX
  8
0
  5
1A2B
 10
332.190
 20
198.441
 30
0.000000
  70
    32
  0
VERTEX
  8
0
  5
1A2C
 10
332.146
 20
198.321
 30
0.000000
  70
    32
  0
VERTEX
  8
0
  5
1A2D
 10
332.099
 20
198.203
 30
0.000000
  70
    32
  0
VERTEX
  8
0
  5
1A2E
 10
332.050
 20
198.085
 30
0.000000
  70
    32
  0
VERTEX
  8
0
  5
1A2F
 10
331.998
 20
197.970
 30
0.000000
  70
    32
  0
VERTEX
  8
0
  5
1A30
 10
331.943
 20
197.855
 30
0.000000
  70
    32
  0
VERTEX
  8
0
  5
1A31
 10
331.885
 20
197.742
 30
0.000000
  70
    32
  0
VERTEX
  8
0
  5
1A32
 10
331.826
 20
197.631
 30
0.000000
  70
    32
  0
VERTEX
  8
0
  5
1A33
 10
331.763
 20
197.521
 30
0.000000
  70
    32
  0
VERTEX
  8
0
  5
1A34
 10
331.698
 20
197.413
 30
0.000000
  70
    32
  0
VERTEX
  8
0
  5
1A35
 10
331.631
 20
197.307
 30
0.000000
  70
    32
  0
VERTEX
  8
0
  5
1A36
 10
331.562
 20
197.203
 30
0.000000
  70
    32
  0
VERTEX
  8
0
  5
1A37
 10
331.490
 20
197.100
 30
0.000000
  70
    32
  0
VERTEX
  8
0
  5
1A38
 10
331.415
 20
197.000
 30
0.000000
  70
    32
  0
VERTEX
  8
0
  5
1A39
 10
331.339
 20
196.901
 30
0.000000
  70
    32
  0
VERTEX
  8
0
  5
1A3A
 10
331.260
 20
196.804
 30
0.000000
  70
    32
  0
VERTEX
  8
0
  5
1A3B
 10
331.179
 20
196.710
 30
0.000000
  70
    32
  0
VERTEX
  8
0
  5
1A3C
 10
331.096
 20
196.618
 30
0.000000
  70
    32
  0
VERTEX
  8
0
  5
1A3D
 10
331.011
 20
196.528
 30
0.000000
  70
    32
  0
VERTEX
  8
0
  5
1A3E
 10
330.924
 20
196.440
 30
0.000000
  70
    32
  0
VERTEX
  8
0
  5
1A3F
 10
330.835
 20
196.355
 30
0.000000
  70
    32
  0
VERTEX
  8
0
  5
1A40
 10
330.744
 20
196.272
 30
0.000000
  70
    32
  0
VERTEX
  8
0
  5
1A41
 10
330.651
 20
196.191
 30
0.000000
  70
    32
  0
VERTEX
  8
0
  5
1A42
 10
330.557
 20
196.113
 30
0.000000
  70
    32
  0
VERTEX
  8
0
  5
1A43
 10
330.461
 20
196.038
 30
0.000000
  70
    32
  0
VERTEX
  8
0
  5
1A44
 10
330.363
 20
195.965
 30
0.000000
  70
    32
  0
VERTEX
  8
0
  5
1A45
 10
330.263
 20
195.895
 30
0.000000
  70
    32
  0
VERTEX
  8
0
  5
1A46
 10
330.162
 20
195.827
 30
0.000000
  70
    32
  0
VERTEX
  8
0
  5
1A47
 10
330.059
 20
195.762
 30
0.000000
  70
    32
  0
VERTEX
  8
0
  5
1A48
 10
329.955
 20
195.700
 30
0.000000
  70
    32
  0
VERTEX
  8
0
  5
1A49
 10
329.850
 20
195.641
 30
0.000000
  70
    32
  0
VERTEX
  8
0
  5
1A4A
 10
329.743
 20
195.584
 30
0.000000
  70
    32
  0
VERTEX
  8
0
  5
1A4B
 10
329.635
 20
195.530
 30
0.000000
  70
    32
  0
VERTEX
  8
0
  5
1A4C
 10
329.525
 20
195.480
 30
0.000000
  70
    32
  0
VERTEX
  8
0
  5
1A4D
 10
329.415
 20
195.432
 30
0.000000
  70
    32
  0
VERTEX
  8
0
  5
1A4E
 10
329.304
 20
195.387
 30
0.000000
  70
    32
  0
VERTEX
  8
0
  5
1A4F
 10
329.191
 20
195.345
 30
0.000000
  70
    32
  0
VERTEX
  8
0
  5
1A50
 10
329.078
 20
195.306
 30
0.000000
  70
    32
  0
VERTEX
  8
0
  5
1A51
 10
328.964
 20
195.270
 30
0.000000
  70
    32
  0
VERTEX
  8
0
  5
1A52
 10
328.849
 20
195.237
 30
0.000000
  70
    32
  0
VERTEX
  8
0
  5
1A53
 10
328.733
 20
195.208
 30
0.000000
  70
    32
  0
VERTEX
  8
0
  5
1A54
 10
328.617
 20
195.181
 30
0.000000
  70
    32
  0
VERTEX
  8
0
  5
1A55
 10
328.500
 20
195.157
 30
0.000000
  70
    32
  0
VERTEX
  8
0
  5
1A56
 10
328.383
 20
195.137
 30
0.000000
  70
    32
  0
VERTEX
  8
0
  5
1A57
 10
328.265
 20
195.120
 30
0.000000
  70
    32
  0
VERTEX
  8
0
  5
1A58
 10
328.147
 20
195.105
 30
0.000000
  70
    32
  0
VERTEX
  8
0
  5
1A59
 10
328.029
 20
195.094
 30
0.000000
  70
    32
  0
VERTEX
  8
0
  5
1A5A
 10
327.910
 20
195.086
 30
0.000000
  70
    32
  0
VERTEX
  8
0
  5
1A5B
 10
327.791
 20
195.082
 30
0.000000
  70
    32
  0
VERTEX
  8
0
  5
1A5C
 10
327.672
 20
195.080
 30
0.000000
  70
    32
  0
SEQEND
  8
0
  5
1A5D
  0
POLYLINE
  5
133C
  8
0
 10
327.67246352655809
 20
195.08007070469944
 30
0.0
 66
     1
 70
     8
  0
VERTEX
  8
0
  5
1A5E
 10
327.672
 20
195.080
 30
0.000000
  70
    32
  0
VERTEX
  8
0
  5
1A5F
 10
327.568
 20
195.082
 30
0.000000
  70
    32
  0
VERTEX
  8
0
  5
1A60
 10
327.464
 20
195.086
 30
0.000000
  70
    32
  0
VERTEX
  8
0
  5
1A61
 10
327.360
 20
195.094
 30
0.000000
  70
    32
  0
VERTEX
  8
0
  5
1A62
 10
327.256
 20
195.105
 30
0.000000
  70
    32
  0
VERTEX
  8
0
  5
1A63
 10
327.152
 20
195.120
 30
0.000000
  70
    32
  0
VERTEX
  8
0
  5
1A64
 10
327.049
 20
195.137
 30
0.000000
  70
    32
  0
VERTEX
  8
0
  5
1A65
 10
326.946
 20
195.157
 30
0.000000
  70
    32
  0
VERTEX
  8
0
  5
1A66
 10
326.843
 20
195.181
 30
0.000000
  70
    32
  0
VERTEX
  8
0
  5
1A67
 10
326.741
 20
195.208
 30
0.000000
  70
    32
  0
VERTEX
  8
0
  5
1A68
 10
326.640
 20
195.237
 30
0.000000
  70
    32
  0
VERTEX
  8
0
  5
1A69
 10
326.539
 20
195.270
 30
0.000000
  70
    32
  0
VERTEX
  8
0
  5
1A6A
 10
326.439
 20
195.306
 30
0.000000
  70
    32
  0
VERTEX
  8
0
  5
1A6B
 10
326.339
 20
195.345
 30
0.000000
  70
    32
  0
VERTEX
  8
0
  5
1A6C
 10
326.241
 20
195.387
 30
0.000000
  70
    32
  0
VERTEX
  8
0
  5
1A6D
 10
326.143
 20
195.432
 30
0.000000
  70
    32
  0
VERTEX
  8
0
  5
1A6E
 10
326.046
 20
195.480
 30
0.000000
  70
    32
  0
VERTEX
  8
0
  5
1A6F
 10
325.950
 20
195.530
 30
0.000000
  70
    32
  0
VERTEX
  8
0
  5
1A70
 10
325.855
 20
195.584
 30
0.000000
  70
    32
  0
VERTEX
  8
0
  5
1A71
 10
325.762
 20
195.641
 30
0.000000
  70
    32
  0
VERTEX
  8
0
  5
1A72
 10
325.669
 20
195.700
 30
0.000000
  70
    32
  0
VERTEX
  8
0
  5
1A73
 10
325.578
 20
195.762
 30
0.000000
  70
    32
  0
VERTEX
  8
0
  5
1A74
 10
325.488
 20
195.827
 30
0.000000
  70
    32
  0
VERTEX
  8
0
  5
1A75
 10
325.399
 20
195.895
 30
0.000000
  70
    32
  0
VERTEX
  8
0
  5
1A76
 10
325.311
 20
195.965
 30
0.000000
  70
    32
  0
VERTEX
  8
0
  5
1A77
 10
325.225
 20
196.038
 30
0.000000
  70
    32
  0
VERTEX
  8
0
  5
1A78
 10
325.141
 20
196.113
 30
0.000000
  70
    32
  0
VERTEX
  8
0
  5
1A79
 10
325.058
 20
196.191
 30
0.000000
  70
    32
  0
VERTEX
  8
0
  5
1A7A
 10
324.977
 20
196.272
 30
0.000000
  70
    32
  0
VERTEX
  8
0
  5
1A7B
 10
324.897
 20
196.355
 30
0.000000
  70
    32
  0
VERTEX
  8
0
  5
1A7C
 10
324.819
 20
196.440
 30
0.000000
  70
    32
  0
VERTEX
  8
0
  5
1A7D
 10
324.742
 20
196.528
 30
0.000000
  70
    32
  0
VERTEX
  8
0
  5
1A7E
 10
324.667
 20
196.618
 30
0.000000
  70
    32
  0
VERTEX
  8
0
  5
1A7F
 10
324.595
 20
196.710
 30
0.000000
  70
    32
  0
VERTEX
  8
0
  5
1A80
 10
324.524
 20
196.804
 30
0.000000
  70
    32
  0
VERTEX
  8
0
  5
1A81
 10
324.455
 20
196.901
 30
0.000000
  70
    32
  0
VERTEX
  8
0
  5
1A82
 10
324.387
 20
197.000
 30
0.000000
  70
    32
  0
VERTEX
  8
0
  5
1A83
 10
324.322
 20
197.100
 30
0.000000
  70
    32
  0
VERTEX
  8
0
  5
1A84
 10
324.259
 20
197.203
 30
0.000000
  70
    32
  0
VERTEX
  8
0
  5
1A85
 10
324.198
 20
197.307
 30
0.000000
  70
    32
  0
VERTEX
  8
0
  5
1A86
 10
324.139
 20
197.413
 30
0.000000
  70
    32
  0
VERTEX
  8
0
  5
1A87
 10
324.082
 20
197.521
 30
0.000000
  70
    32
  0
VERTEX
  8
0
  5
1A88
 10
324.027
 20
197.631
 30
0.000000
  70
    32
  0
VERTEX
  8
0
  5
1A89
 10
323.975
 20
197.742
 30
0.000000
  70
    32
  0
VERTEX
  8
0
  5
1A8A
 10
323.925
 20
197.855
 30
0.000000
  70
    32
  0
VERTEX
  8
0
  5
1A8B
 10
323.877
 20
197.970
 30
0.000000
  70
    32
  0
VERTEX
  8
0
  5
1A8C
 10
323.831
 20
198.085
 30
0.000000
  70
    32
  0
VERTEX
  8
0
  5
1A8D
 10
323.787
 20
198.203
 30
0.000000
  70
    32
  0
VERTEX
  8
0
  5
1A8E
 10
323.746
 20
198.321
 30
0.000000
  70
    32
  0
VERTEX
  8
0
  5
1A8F
 10
323.708
 20
198.441
 30
0.000000
  70
    32
  0
VERTEX
  8
0
  5
1A90
 10
323.671
 20
198.561
 30
0.000000
  70
    32
  0
VERTEX
  8
0
  5
1A91
 10
323.637
 20
198.683
 30
0.000000
  70
    32
  0
VERTEX
  8
0
  5
1A92
 10
323.606
 20
198.806
 30
0.000000
  70
    32
  0
VERTEX
  8
0
  5
1A93
 10
323.577
 20
198.930
 30
0.000000
  70
    32
  0
VERTEX
  8
0
  5
1A94
 10
323.550
 20
199.054
 30
0.000000
  70
    32
  0
VERTEX
  8
0
  5
1A95
 10
323.526
 20
199.180
 30
0.000000
  70
    32
  0
VERTEX
  8
0
  5
1A96
 10
323.504
 20
199.306
 30
0.000000
  70
    32
  0
VERTEX
  8
0
  5
1A97
 10
323.485
 20
199.433
 30
0.000000
  70
    32
  0
VERTEX
  8
0
  5
1A98
 10
323.469
 20
199.560
 30
0.000000
  70
    32
  0
VERTEX
  8
0
  5
1A99
 10
323.455
 20
199.687
 30
0.000000
  70
    32
  0
VERTEX
  8
0
  5
1A9A
 10
323.443
 20
199.815
 30
0.000000
  70
    32
  0
VERTEX
  8
0
  5
1A9B
 10
323.434
 20
199.944
 30
0.000000
  70
    32
  0
VERTEX
  8
0
  5
1A9C
 10
323.428
 20
200.072
 30
0.000000
  70
    32
  0
VERTEX
  8
0
  5
1A9D
 10
323.424
 20
200.201
 30
0.000000
  70
    32
  0
VERTEX
  8
0
  5
1A9E
 10
323.423
 20
200.330
 30
0.000000
  70
    32
  0
VERTEX
  8
0
  5
1A9F
 10
323.424
 20
200.459
 30
0.000000
  70
    32
  0
VERTEX
  8
0
  5
1AA0
 10
323.428
 20
200.588
 30
0.000000
  70
    32
  0
VERTEX
  8
0
  5
1AA1
 10
323.434
 20
200.716
 30
0.000000
  70
    32
  0
VERTEX
  8
0
  5
1AA2
 10
323.443
 20
200.845
 30
0.000000
  70
    32
  0
VERTEX
  8
0
  5
1AA3
 10
323.455
 20
200.973
 30
0.000000
  70
    32
  0
VERTEX
  8
0
  5
1AA4
 10
323.469
 20
201.100
 30
0.000000
  70
    32
  0
VERTEX
  8
0
  5
1AA5
 10
323.485
 20
201.228
 30
0.000000
  70
    32
  0
VERTEX
  8
0
  5
1AA6
 10
323.504
 20
201.354
 30
0.000000
  70
    32
  0
VERTEX
  8
0
  5
1AA7
 10
323.526
 20
201.480
 30
0.000000
  70
    32
  0
VERTEX
  8
0
  5
1AA8
 10
323.550
 20
201.606
 30
0.000000
  70
    32
  0
VERTEX
  8
0
  5
1AA9
 10
323.577
 20
201.730
 30
0.000000
  70
    32
  0
VERTEX
  8
0
  5
1AAA
 10
323.606
 20
201.854
 30
0.000000
  70
    32
  0
VERTEX
  8
0
  5
1AAB
 10
323.637
 20
201.977
 30
0.000000
  70
    32
  0
VERTEX
  8
0
  5
1AAC
 10
323.671
 20
202.099
 30
0.000000
  70
    32
  0
VERTEX
  8
0
  5
1AAD
 10
323.708
 20
202.220
 30
0.000000
  70
    32
  0
VERTEX
  8
0
  5
1AAE
 10
323.746
 20
202.339
 30
0.000000
  70
    32
  0
VERTEX
  8
0
  5
1AAF
 10
323.787
 20
202.458
 30
0.000000
  70
    32
  0
VERTEX
  8
0
  5
1AB0
 10
323.831
 20
202.575
 30
0.000000
  70
    32
  0
VERTEX
  8
0
  5
1AB1
 10
323.877
 20
202.691
 30
0.000000
  70
    32
  0
VERTEX
  8
0
  5
1AB2
 10
323.925
 20
202.805
 30
0.000000
  70
    32
  0
VERTEX
  8
0
  5
1AB3
 10
323.975
 20
202.918
 30
0.000000
  70
    32
  0
VERTEX
  8
0
  5
1AB4
 10
324.027
 20
203.029
 30
0.000000
  70
    32
  0
VERTEX
  8
0
  5
1AB5
 10
324.082
 20
203.139
 30
0.000000
  70
    32
  0
VERTEX
  8
0
  5
1AB6
 10
324.139
 20
203.247
 30
0.000000
  70
    32
  0
VERTEX
  8
0
  5
1AB7
 10
324.198
 20
203.353
 30
0.000000
  70
    32
  0
VERTEX
  8
0
  5
1AB8
 10
324.259
 20
203.457
 30
0.000000
  70
    32
  0
VERTEX
  8
0
  5
1AB9
 10
324.322
 20
203.560
 30
0.000000
  70
    32
  0
VERTEX
  8
0
  5
1ABA
 10
324.387
 20
203.661
 30
0.000000
  70
    32
  0
VERTEX
  8
0
  5
1ABB
 10
324.455
 20
203.759
 30
0.000000
  70
    32
  0
VERTEX
  8
0
  5
1ABC
 10
324.524
 20
203.856
 30
0.000000
  70
    32
  0
VERTEX
  8
0
  5
1ABD
 10
324.595
 20
203.950
 30
0.000000
  70
    32
  0
VERTEX
  8
0
  5
1ABE
 10
324.667
 20
204.042
 30
0.000000
  70
    32
  0
VERTEX
  8
0
  5
1ABF
 10
324.742
 20
204.132
 30
0.000000
  70
    32
  0
VERTEX
  8
0
  5
1AC0
 10
324.819
 20
204.220
 30
0.000000
  70
    32
  0
VERTEX
  8
0
  5
1AC1
 10
324.897
 20
204.305
 30
0.000000
  70
    32
  0
VERTEX
  8
0
  5
1AC2
 10
324.977
 20
204.388
 30
0.000000
  70
    32
  0
VERTEX
  8
0
  5
1AC3
 10
325.058
 20
204.469
 30
0.000000
  70
    32
  0
VERTEX
  8
0
  5
1AC4
 10
325.141
 20
204.547
 30
0.000000
  70
    32
  0
VERTEX
  8
0
  5
1AC5
 10
325.225
 20
204.622
 30
0.000000
  70
    32
  0
VERTEX
  8
0
  5
1AC6
 10
325.311
 20
204.695
 30
0.000000
  70
    32
  0
VERTEX
  8
0
  5
1AC7
 10
325.399
 20
204.766
 30
0.000000
  70
    32
  0
VERTEX
  8
0
  5
1AC8
 10
325.488
 20
204.833
 30
0.000000
  70
    32
  0
VERTEX
  8
0
  5
1AC9
 10
325.578
 20
204.898
 30
0.000000
  70
    32
  0
VERTEX
  8
0
  5
1ACA
 10
325.669
 20
204.960
 30
0.000000
  70
    32
  0
VERTEX
  8
0
  5
1ACB
 10
325.762
 20
205.019
 30
0.000000
  70
    32
  0
VERTEX
  8
0
  5
1ACC
 10
325.855
 20
205.076
 30
0.000000
  70
    32
  0
VERTEX
  8
0
  5
1ACD
 10
325.950
 20
205.130
 30
0.000000
  70
    32
  0
VERTEX
  8
0
  5
1ACE
 10
326.046
 20
205.180
 30
0.000000
  70
    32
  0
VERTEX
  8
0
  5
1ACF
 10
326.143
 20
205.228
 30
0.000000
  70
    32
  0
VERTEX
  8
0
  5
1AD0
 10
326.241
 20
205.273
 30
0.000000
  70
    32
  0
VERTEX
  8
0
  5
1AD1
 10
326.339
 20
205.315
 30
0.000000
  70
    32
  0
VERTEX
  8
0
  5
1AD2
 10
326.439
 20
205.354
 30
0.000000
  70
    32
  0
VERTEX
  8
0
  5
1AD3
 10
326.539
 20
205.390
 30
0.000000
  70
    32
  0
VERTEX
  8
0
  5
1AD4
 10
326.640
 20
205.423
 30
0.000000
  70
    32
  0
VERTEX
  8
0
  5
1AD5
 10
326.741
 20
205.453
 30
0.000000
  70
    32
  0
VERTEX
  8
0
  5
1AD6
 10
326.843
 20
205.479
 30
0.000000
  70
    32
  0
VERTEX
  8
0
  5
1AD7
 10
326.946
 20
205.503
 30
0.000000
  70
    32
  0
VERTEX
  8
0
  5
1AD8
 10
327.049
 20
205.523
 30
0.000000
  70
    32
  0
VERTEX
  8
0
  5
1AD9
 10
327.152
 20
205.541
 30
0.000000
  70
    32
  0
VERTEX
  8
0
  5
1ADA
 10
327.256
 20
205.555
 30
0.000000
  70
    32
  0
VERTEX
  8
0
  5
1ADB
 10
327.360
 20
205.566
 30
0.000000
  70
    32
  0
VERTEX
  8
0
  5
1ADC
 10
327.464
 20
205.574
 30
0.000000
  70
    32
  0
VERTEX
  8
0
  5
1ADD
 10
327.568
 20
205.578
 30
0.000000
  70
    32
  0
VERTEX
  8
0
  5
1ADE
 10
327.672
 20
205.580
 30
0.000000
  70
    32
  0
SEQEND
  8
0
  5
1ADF
  0
POLYLINE
  5
133D
  8
3
 10
328.67246330869557
 20
203.33007070469938
 30
0.0
 66
     1
 70
     8
  0
VERTEX
  8
3
  5
1AE0
 10
328.672
 20
203.330
 30
0.000000
  70
    32
  0
VERTEX
  8
3
  5
1AE1
 10
328.730
 20
203.329
 30
0.000000
  70
    32
  0
VERTEX
  8
3
  5
1AE2
 10
328.787
 20
203.326
 30
0.000000
  70
    32
  0
VERTEX
  8
3
  5
1AE3
 10
328.844
 20
203.322
 30
0.000000
  70
    32
  0
VERTEX
  8
3
  5
1AE4
 10
328.901
 20
203.316
 30
0.000000
  70
    32
  0
VERTEX
  8
3
  5
1AE5
 10
328.957
 20
203.308
 30
0.000000
  70
    32
  0
VERTEX
  8
3
  5
1AE6
 10
329.014
 20
203.298
 30
0.000000
  70
    32
  0
VERTEX
  8
3
  5
1AE7
 10
329.070
 20
203.286
 30
0.000000
  70
    32
  0
VERTEX
  8
3
  5
1AE8
 10
329.127
 20
203.272
 30
0.000000
  70
    32
  0
VERTEX
  8
3
  5
1AE9
 10
329.182
 20
203.257
 30
0.000000
  70
    32
  0
VERTEX
  8
3
  5
1AEA
 10
329.238
 20
203.240
 30
0.000000
  70
    32
  0
VERTEX
  8
3
  5
1AEB
 10
329.293
 20
203.221
 30
0.000000
  70
    32
  0
VERTEX
  8
3
  5
1AEC
 10
329.348
 20
203.201
 30
0.000000
  70
    32
  0
VERTEX
  8
3
  5
1AED
 10
329.403
 20
203.179
 30
0.000000
  70
    32
  0
VERTEX
  8
3
  5
1AEE
 10
329.457
 20
203.155
 30
0.000000
  70
    32
  0
VERTEX
  8
3
  5
1AEF
 10
329.510
 20
203.129
 30
0.000000
  70
    32
  0
VERTEX
  8
3
  5
1AF0
 10
329.563
 20
203.102
 30
0.000000
  70
    32
  0
VERTEX
  8
3
  5
1AF1
 10
329.616
 20
203.073
 30
0.000000
  70
    32
  0
VERTEX
  8
3
  5
1AF2
 10
329.668
 20
203.042
 30
0.000000
  70
    32
  0
VERTEX
  8
3
  5
1AF3
 10
329.719
 20
203.010
 30
0.000000
  70
    32
  0
VERTEX
  8
3
  5
1AF4
 10
329.770
 20
202.976
 30
0.000000
  70
    32
  0
VERTEX
  8
3
  5
1AF5
 10
329.820
 20
202.940
 30
0.000000
  70
    32
  0
VERTEX
  8
3
  5
1AF6
 10
329.869
 20
202.903
 30
0.000000
  70
    32
  0
VERTEX
  8
3
  5
1AF7
 10
329.918
 20
202.865
 30
0.000000
  70
    32
  0
VERTEX
  8
3
  5
1AF8
 10
329.965
 20
202.824
 30
0.000000
  70
    32
  0
VERTEX
  8
3
  5
1AF9
 10
330.013
 20
202.783
 30
0.000000
  70
    32
  0
VERTEX
  8
3
  5
1AFA
 10
330.059
 20
202.740
 30
0.000000
  70
    32
  0
VERTEX
  8
3
  5
1AFB
 10
330.104
 20
202.695
 30
0.000000
  70
    32
  0
VERTEX
  8
3
  5
1AFC
 10
330.149
 20
202.649
 30
0.000000
  70
    32
  0
VERTEX
  8
3
  5
1AFD
 10
330.193
 20
202.602
 30
0.000000
  70
    32
  0
VERTEX
  8
3
  5
1AFE
 10
330.235
 20
202.553
 30
0.000000
  70
    32
  0
VERTEX
  8
3
  5
1AFF
 10
330.277
 20
202.503
 30
0.000000
  70
    32
  0
VERTEX
  8
3
  5
1B00
 10
330.318
 20
202.451
 30
0.000000
  70
    32
  0
VERTEX
  8
3
  5
1B01
 10
330.358
 20
202.399
 30
0.000000
  70
    32
  0
VERTEX
  8
3
  5
1B02
 10
330.397
 20
202.345
 30
0.000000
  70
    32
  0
VERTEX
  8
3
  5
1B03
 10
330.435
 20
202.290
 30
0.000000
  70
    32
  0
VERTEX
  8
3
  5
1B04
 10
330.472
 20
202.233
 30
0.000000
  70
    32
  0
VERTEX
  8
3
  5
1B05
 10
330.507
 20
202.176
 30
0.000000
  70
    32
  0
VERTEX
  8
3
  5
1B06
 10
330.542
 20
202.117
 30
0.000000
  70
    32
  0
VERTEX
  8
3
  5
1B07
 10
330.575
 20
202.057
 30
0.000000
  70
    32
  0
VERTEX
  8
3
  5
1B08
 10
330.608
 20
201.997
 30
0.000000
  70
    32
  0
VERTEX
  8
3
  5
1B09
 10
330.639
 20
201.935
 30
0.000000
  70
    32
  0
VERTEX
  8
3
  5
1B0A
 10
330.669
 20
201.872
 30
0.000000
  70
    32
  0
VERTEX
  8
3
  5
1B0B
 10
330.697
 20
201.809
 30
0.000000
  70
    32
  0
VERTEX
  8
3
  5
1B0C
 10
330.725
 20
201.744
 30
0.000000
  70
    32
  0
VERTEX
  8
3
  5
1B0D
 10
330.751
 20
201.679
 30
0.000000
  70
    32
  0
VERTEX
  8
3
  5
1B0E
 10
330.776
 20
201.613
 30
0.000000
  70
    32
  0
VERTEX
  8
3
  5
1B0F
 10
330.800
 20
201.546
 30
0.000000
  70
    32
  0
VERTEX
  8
3
  5
1B10
 10
330.823
 20
201.478
 30
0.000000
  70
    32
  0
VERTEX
  8
3
  5
1B11
 10
330.844
 20
201.410
 30
0.000000
  70
    32
  0
VERTEX
  8
3
  5
1B12
 10
330.864
 20
201.341
 30
0.000000
  70
    32
  0
VERTEX
  8
3
  5
1B13
 10
330.882
 20
201.271
 30
0.000000
  70
    32
  0
VERTEX
  8
3
  5
1B14
 10
330.900
 20
201.201
 30
0.000000
  70
    32
  0
VERTEX
  8
3
  5
1B15
 10
330.915
 20
201.130
 30
0.000000
  70
    32
  0
VERTEX
  8
3
  5
1B16
 10
330.930
 20
201.059
 30
0.000000
  70
    32
  0
VERTEX
  8
3
  5
1B17
 10
330.943
 20
200.987
 30
0.000000
  70
    32
  0
VERTEX
  8
3
  5
1B18
 10
330.955
 20
200.915
 30
0.000000
  70
    32
  0
VERTEX
  8
3
  5
1B19
 10
330.966
 20
200.843
 30
0.000000
  70
    32
  0
VERTEX
  8
3
  5
1B1A
 10
330.975
 20
200.770
 30
0.000000
  70
    32
  0
VERTEX
  8
3
  5
1B1B
 10
330.982
 20
200.697
 30
0.000000
  70
    32
  0
VERTEX
  8
3
  5
1B1C
 10
330.989
 20
200.624
 30
0.000000
  70
    32
  0
VERTEX
  8
3
  5
1B1D
 10
330.993
 20
200.551
 30
0.000000
  70
    32
  0
VERTEX
  8
3
  5
1B1E
 10
330.997
 20
200.477
 30
0.000000
  70
    32
  0
VERTEX
  8
3
  5
1B1F
 10
330.999
 20
200.404
 30
0.000000
  70
    32
  0
VERTEX
  8
3
  5
1B20
 10
331.000
 20
200.330
 30
0.000000
  70
    32
  0
VERTEX
  8
3
  5
1B21
 10
330.999
 20
200.256
 30
0.000000
  70
    32
  0
VERTEX
  8
3
  5
1B22
 10
330.997
 20
200.183
 30
0.000000
  70
    32
  0
VERTEX
  8
3
  5
1B23
 10
330.993
 20
200.109
 30
0.000000
  70
    32
  0
VERTEX
  8
3
  5
1B24
 10
330.989
 20
200.036
 30
0.000000
  70
    32
  0
VERTEX
  8
3
  5
1B25
 10
330.982
 20
199.963
 30
0.000000
  70
    32
  0
VERTEX
  8
3
  5
1B26
 10
330.975
 20
199.890
 30
0.000000
  70
    32
  0
VERTEX
  8
3
  5
1B27
 10
330.966
 20
199.817
 30
0.000000
  70
    32
  0
VERTEX
  8
3
  5
1B28
 10
330.955
 20
199.745
 30
0.000000
  70
    32
  0
VERTEX
  8
3
  5
1B29
 10
330.943
 20
199.673
 30
0.000000
  70
    32
  0
VERTEX
  8
3
  5
1B2A
 10
330.930
 20
199.601
 30
0.000000
  70
    32
  0
VERTEX
  8
3
  5
1B2B
 10
330.915
 20
199.530
 30
0.000000
  70
    32
  0
VERTEX
  8
3
  5
1B2C
 10
330.900
 20
199.459
 30
0.000000
  70
    32
  0
VERTEX
  8
3
  5
1B2D
 10
330.882
 20
199.389
 30
0.000000
  70
    32
  0
VERTEX
  8
3
  5
1B2E
 10
330.864
 20
199.319
 30
0.000000
  70
    32
  0
VERTEX
  8
3
  5
1B2F
 10
330.844
 20
199.250
 30
0.000000
  70
    32
  0
VERTEX
  8
3
  5
1B30
 10
330.823
 20
199.182
 30
0.000000
  70
    32
  0
VERTEX
  8
3
  5
1B31
 10
330.800
 20
199.114
 30
0.000000
  70
    32
  0
VERTEX
  8
3
  5
1B32
 10
330.776
 20
199.047
 30
0.000000
  70
    32
  0
VERTEX
  8
3
  5
1B33
 10
330.751
 20
198.981
 30
0.000000
  70
    32
  0
VERTEX
  8
3
  5
1B34
 10
330.725
 20
198.916
 30
0.000000
  70
    32
  0
VERTEX
  8
3
  5
1B35
 10
330.697
 20
198.851
 30
0.000000
  70
    32
  0
VERTEX
  8
3
  5
1B36
 10
330.669
 20
198.788
 30
0.000000
  70
    32
  0
VERTEX
  8
3
  5
1B37
 10
330.639
 20
198.725
 30
0.000000
  70
    32
  0
VERTEX
  8
3
  5
1B38
 10
330.608
 20
198.663
 30
0.000000
  70
    32
  0
VERTEX
  8
3
  5
1B39
 10
330.575
 20
198.603
 30
0.000000
  70
    32
  0
VERTEX
  8
3
  5
1B3A
 10
330.542
 20
198.543
 30
0.000000
  70
    32
  0
VERTEX
  8
3
  5
1B3B
 10
330.507
 20
198.484
 30
0.000000
  70
    32
  0
VERTEX
  8
3
  5
1B3C
 10
330.472
 20
198.427
 30
0.000000
  70
    32
  0
VERTEX
  8
3
  5
1B3D
 10
330.435
 20
198.371
 30
0.000000
  70
    32
  0
VERTEX
  8
3
  5
1B3E
 10
330.397
 20
198.315
 30
0.000000
  70
    32
  0
VERTEX
  8
3
  5
1B3F
 10
330.358
 20
198.261
 30
0.000000
  70
    32
  0
VERTEX
  8
3
  5
1B40
 10
330.318
 20
198.209
 30
0.000000
  70
    32
  0
VERTEX
  8
3
  5
1B41
 10
330.277
 20
198.157
 30
0.000000
  70
    32
  0
VERTEX
  8
3
  5
1B42
 10
330.235
 20
198.107
 30
0.000000
  70
    32
  0
VERTEX
  8
3
  5
1B43
 10
330.193
 20
198.058
 30
0.000000
  70
    32
  0
VERTEX
  8
3
  5
1B44
 10
330.149
 20
198.011
 30
0.000000
  70
    32
  0
VERTEX
  8
3
  5
1B45
 10
330.104
 20
197.965
 30
0.000000
  70
    32
  0
VERTEX
  8
3
  5
1B46
 10
330.059
 20
197.920
 30
0.000000
  70
    32
  0
VERTEX
  8
3
  5
1B47
 10
330.013
 20
197.877
 30
0.000000
  70
    32
  0
VERTEX
  8
3
  5
1B48
 10
329.965
 20
197.836
 30
0.000000
  70
    32
  0
VERTEX
  8
3
  5
1B49
 10
329.918
 20
197.796
 30
0.000000
  70
    32
  0
VERTEX
  8
3
  5
1B4A
 10
329.869
 20
197.757
 30
0.000000
  70
    32
  0
VERTEX
  8
3
  5
1B4B
 10
329.820
 20
197.720
 30
0.000000
  70
    32
  0
VERTEX
  8
3
  5
1B4C
 10
329.770
 20
197.684
 30
0.000000
  70
    32
  0
VERTEX
  8
3
  5
1B4D
 10
329.719
 20
197.650
 30
0.000000
  70
    32
  0
VERTEX
  8
3
  5
1B4E
 10
329.668
 20
197.618
 30
0.000000
  70
    32
  0
VERTEX
  8
3
  5
1B4F
 10
329.616
 20
197.587
 30
0.000000
  70
    32
  0
VERTEX
  8
3
  5
1B50
 10
329.563
 20
197.558
 30
0.000000
  70
    32
  0
VERTEX
  8
3
  5
1B51
 10
329.510
 20
197.531
 30
0.000000
  70
    32
  0
VERTEX
  8
3
  5
1B52
 10
329.457
 20
197.505
 30
0.000000
  70
    32
  0
VERTEX
  8
3
  5
1B53
 10
329.403
 20
197.481
 30
0.000000
  70
    32
  0
VERTEX
  8
3
  5
1B54
 10
329.348
 20
197.459
 30
0.000000
  70
    32
  0
VERTEX
  8
3
  5
1B55
 10
329.293
 20
197.439
 30
0.000000
  70
    32
  0
VERTEX
  8
3
  5
1B56
 10
329.238
 20
197.420
 30
0.000000
  70
    32
  0
VERTEX
  8
3
  5
1B57
 10
329.182
 20
197.403
 30
0.000000
  70
    32
  0
VERTEX
  8
3
  5
1B58
 10
329.127
 20
197.388
 30
0.000000
  70
    32
  0
VERTEX
  8
3
  5
1B59
 10
329.070
 20
197.374
 30
0.000000
  70
    32
  0
VERTEX
  8
3
  5
1B5A
 10
329.014
 20
197.363
 30
0.000000
  70
    32
  0
VERTEX
  8
3
  5
1B5B
 10
328.957
 20
197.353
 30
0.000000
  70
    32
  0
VERTEX
  8
3
  5
1B5C
 10
328.901
 20
197.345
 30
0.000000
  70
    32
  0
VERTEX
  8
3
  5
1B5D
 10
328.844
 20
197.338
 30
0.000000
  70
    32
  0
VERTEX
  8
3
  5
1B5E
 10
328.787
 20
197.334
 30
0.000000
  70
    32
  0
VERTEX
  8
3
  5
1B5F
 10
328.730
 20
197.331
 30
0.000000
  70
    32
  0
VERTEX
  8
3
  5
1B60
 10
328.672
 20
197.330
 30
0.000000
  70
    32
  0
SEQEND
  8
3
  5
1B61
  0
POLYLINE
  5
133E
  8
3
 10
328.67246330869546
 20
197.33007070469944
 30
0.0
 66
     1
 70
     8
  0
VERTEX
  8
3
  5
1B62
 10
328.672
 20
197.330
 30
0.000000
  70
    32
  0
VERTEX
  8
3
  5
1B63
 10
328.602
 20
197.331
 30
0.000000
  70
    32
  0
VERTEX
  8
3
  5
1B64
 10
328.532
 20
197.334
 30
0.000000
  70
    32
  0
VERTEX
  8
3
  5
1B65
 10
328.461
 20
197.338
 30
0.000000
  70
    32
  0
VERTEX
  8
3
  5
1B66
 10
328.391
 20
197.345
 30
0.000000
  70
    32
  0
VERTEX
  8
3
  5
1B67
 10
328.321
 20
197.353
 30
0.000000
  70
    32
  0
VERTEX
  8
3
  5
1B68
 10
328.252
 20
197.363
 30
0.000000
  70
    32
  0
VERTEX
  8
3
  5
1B69
 10
328.182
 20
197.374
 30
0.000000
  70
    32
  0
VERTEX
  8
3
  5
1B6A
 10
328.113
 20
197.388
 30
0.000000
  70
    32
  0
VERTEX
  8
3
  5
1B6B
 10
328.044
 20
197.403
 30
0.000000
  70
    32
  0
VERTEX
  8
3
  5
1B6C
 10
327.975
 20
197.420
 30
0.000000
  70
    32
  0
VERTEX
  8
3
  5
1B6D
 10
327.907
 20
197.439
 30
0.000000
  70
    32
  0
VERTEX
  8
3
  5
1B6E
 10
327.840
 20
197.459
 30
0.000000
  70
    32
  0
VERTEX
  8
3
  5
1B6F
 10
327.773
 20
197.481
 30
0.000000
  70
    32
  0
VERTEX
  8
3
  5
1B70
 10
327.706
 20
197.505
 30
0.000000
  70
    32
  0
VERTEX
  8
3
  5
1B71
 10
327.640
 20
197.531
 30
0.000000
  70
    32
  0
VERTEX
  8
3
  5
1B72
 10
327.575
 20
197.558
 30
0.000000
  70
    32
  0
VERTEX
  8
3
  5
1B73
 10
327.510
 20
197.587
 30
0.000000
  70
    32
  0
VERTEX
  8
3
  5
1B74
 10
327.446
 20
197.618
 30
0.000000
  70
    32
  0
VERTEX
  8
3
  5
1B75
 10
327.383
 20
197.650
 30
0.000000
  70
    32
  0
VERTEX
  8
3
  5
1B76
 10
327.320
 20
197.684
 30
0.000000
  70
    32
  0
VERTEX
  8
3
  5
1B77
 10
327.258
 20
197.720
 30
0.000000
  70
    32
  0
VERTEX
  8
3
  5
1B78
 10
327.198
 20
197.757
 30
0.000000
  70
    32
  0
VERTEX
  8
3
  5
1B79
 10
327.138
 20
197.796
 30
0.000000
  70
    32
  0
VERTEX
  8
3
  5
1B7A
 10
327.079
 20
197.836
 30
0.000000
  70
    32
  0
VERTEX
  8
3
  5
1B7B
 10
327.021
 20
197.877
 30
0.000000
  70
    32
  0
VERTEX
  8
3
  5
1B7C
 10
326.964
 20
197.920
 30
0.000000
  70
    32
  0
VERTEX
  8
3
  5
1B7D
 10
326.907
 20
197.965
 30
0.000000
  70
    32
  0
VERTEX
  8
3
  5
1B7E
 10
326.852
 20
198.011
 30
0.000000
  70
    32
  0
VERTEX
  8
3
  5
1B7F
 10
326.799
 20
198.058
 30
0.000000
  70
    32
  0
VERTEX
  8
3
  5
1B80
 10
326.746
 20
198.107
 30
0.000000
  70
    32
  0
VERTEX
  8
3
  5
1B81
 10
326.694
 20
198.157
 30
0.000000
  70
    32
  0
VERTEX
  8
3
  5
1B82
 10
326.644
 20
198.209
 30
0.000000
  70
    32
  0
VERTEX
  8
3
  5
1B83
 10
326.595
 20
198.261
 30
0.000000
  70
    32
  0
VERTEX
  8
3
  5
1B84
 10
326.547
 20
198.315
 30
0.000000
  70
    32
  0
VERTEX
  8
3
  5
1B85
 10
326.500
 20
198.371
 30
0.000000
  70
    32
  0
VERTEX
  8
3
  5
1B86
 10
326.455
 20
198.427
 30
0.000000
  70
    32
  0
VERTEX
  8
3
  5
1B87
 10
326.411
 20
198.484
 30
0.000000
  70
    32
  0
VERTEX
  8
3
  5
1B88
 10
326.368
 20
198.543
 30
0.000000
  70
    32
  0
VERTEX
  8
3
  5
1B89
 10
326.327
 20
198.603
 30
0.000000
  70
    32
  0
VERTEX
  8
3
  5
1B8A
 10
326.287
 20
198.663
 30
0.000000
  70
    32
  0
VERTEX
  8
3
  5
1B8B
 10
326.249
 20
198.725
 30
0.000000
  70
    32
  0
VERTEX
  8
3
  5
1B8C
 10
326.212
 20
198.788
 30
0.000000
  70
    32
  0
VERTEX
  8
3
  5
1B8D
 10
326.176
 20
198.851
 30
0.000000
  70
    32
  0
VERTEX
  8
3
  5
1B8E
 10
326.142
 20
198.916
 30
0.000000
  70
    32
  0
VERTEX
  8
3
  5
1B8F
 10
326.110
 20
198.981
 30
0.000000
  70
    32
  0
VERTEX
  8
3
  5
1B90
 10
326.079
 20
199.047
 30
0.000000
  70
    32
  0
VERTEX
  8
3
  5
1B91
 10
326.050
 20
199.114
 30
0.000000
  70
    32
  0
VERTEX
  8
3
  5
1B92
 10
326.022
 20
199.182
 30
0.000000
  70
    32
  0
VERTEX
  8
3
  5
1B93
 10
325.996
 20
199.250
 30
0.000000
  70
    32
  0
VERTEX
  8
3
  5
1B94
 10
325.971
 20
199.319
 30
0.000000
  70
    32
  0
VERTEX
  8
3
  5
1B95
 10
325.948
 20
199.389
 30
0.000000
  70
    32
  0
VERTEX
  8
3
  5
1B96
 10
325.927
 20
199.459
 30
0.000000
  70
    32
  0
VERTEX
  8
3
  5
1B97
 10
325.908
 20
199.530
 30
0.000000
  70
    32
  0
VERTEX
  8
3
  5
1B98
 10
325.890
 20
199.601
 30
0.000000
  70
    32
  0
VERTEX
  8
3
  5
1B99
 10
325.873
 20
199.673
 30
0.000000
  70
    32
  0
VERTEX
  8
3
  5
1B9A
 10
325.859
 20
199.745
 30
0.000000
  70
    32
  0
VERTEX
  8
3
  5
1B9B
 10
325.846
 20
199.817
 30
0.000000
  70
    32
  0
VERTEX
  8
3
  5
1B9C
 10
325.835
 20
199.890
 30
0.000000
  70
    32
  0
VERTEX
  8
3
  5
1B9D
 10
325.825
 20
199.963
 30
0.000000
  70
    32
  0
VERTEX
  8
3
  5
1B9E
 10
325.817
 20
200.036
 30
0.000000
  70
    32
  0
VERTEX
  8
3
  5
1B9F
 10
325.811
 20
200.109
 30
0.000000
  70
    32
  0
VERTEX
  8
3
  5
1BA0
 10
325.807
 20
200.183
 30
0.000000
  70
    32
  0
VERTEX
  8
3
  5
1BA1
 10
325.805
 20
200.256
 30
0.000000
  70
    32
  0
VERTEX
  8
3
  5
1BA2
 10
325.804
 20
200.330
 30
0.000000
  70
    32
  0
VERTEX
  8
3
  5
1BA3
 10
325.805
 20
200.404
 30
0.000000
  70
    32
  0
VERTEX
  8
3
  5
1BA4
 10
325.807
 20
200.477
 30
0.000000
  70
    32
  0
VERTEX
  8
3
  5
1BA5
 10
325.811
 20
200.551
 30
0.000000
  70
    32
  0
VERTEX
  8
3
  5
1BA6
 10
325.817
 20
200.624
 30
0.000000
  70
    32
  0
VERTEX
  8
3
  5
1BA7
 10
325.825
 20
200.697
 30
0.000000
  70
    32
  0
VERTEX
  8
3
  5
1BA8
 10
325.835
 20
200.770
 30
0.000000
  70
    32
  0
VERTEX
  8
3
  5
1BA9
 10
325.846
 20
200.843
 30
0.000000
  70
    32
  0
VERTEX
  8
3
  5
1BAA
 10
325.859
 20
200.915
 30
0.000000
  70
    32
  0
VERTEX
  8
3
  5
1BAB
 10
325.873
 20
200.987
 30
0.000000
  70
    32
  0
VERTEX
  8
3
  5
1BAC
 10
325.890
 20
201.059
 30
0.000000
  70
    32
  0
VERTEX
  8
3
  5
1BAD
 10
325.908
 20
201.130
 30
0.000000
  70
    32
  0
VERTEX
  8
3
  5
1BAE
 10
325.927
 20
201.201
 30
0.000000
  70
    32
  0
VERTEX
  8
3
  5
1BAF
 10
325.948
 20
201.271
 30
0.000000
  70
    32
  0
VERTEX
  8
3
  5
1BB0
 10
325.971
 20
201.341
 30
0.000000
  70
    32
  0
VERTEX
  8
3
  5
1BB1
 10
325.996
 20
201.410
 30
0.000000
  70
    32
  0
VERTEX
  8
3
  5
1BB2
 10
326.022
 20
201.478
 30
0.000000
  70
    32
  0
VERTEX
  8
3
  5
1BB3
 10
326.050
 20
201.546
 30
0.000000
  70
    32
  0
VERTEX
  8
3
  5
1BB4
 10
326.079
 20
201.613
 30
0.000000
  70
    32
  0
VERTEX
  8
3
  5
1BB5
 10
326.110
 20
201.679
 30
0.000000
  70
    32
  0
VERTEX
  8
3
  5
1BB6
 10
326.142
 20
201.744
 30
0.000000
  70
    32
  0
VERTEX
  8
3
  5
1BB7
 10
326.176
 20
201.809
 30
0.000000
  70
    32
  0
VERTEX
  8
3
  5
1BB8
 10
326.212
 20
201.872
 30
0.000000
  70
    32
  0
VERTEX
  8
3
  5
1BB9
 10
326.249
 20
201.935
 30
0.000000
  70
    32
  0
VERTEX
  8
3
  5
1BBA
 10
326.287
 20
201.997
 30
0.000000
  70
    32
  0
VERTEX
  8
3
  5
1BBB
 10
326.327
 20
202.057
 30
0.000000
  70
    32
  0
VERTEX
  8
3
  5
1BBC
 10
326.368
 20
202.117
 30
0.000000
  70
    32
  0
VERTEX
  8
3
  5
1BBD
 10
326.411
 20
202.176
 30
0.000000
  70
    32
  0
VERTEX
  8
3
  5
1BBE
 10
326.455
 20
202.233
 30
0.000000
  70
    32
  0
VERTEX
  8
3
  5
1BBF
 10
326.500
 20
202.290
 30
0.000000
  70
    32
  0
VERTEX
  8
3
  5
1BC0
 10
326.547
 20
202.345
 30
0.000000
  70
    32
  0
VERTEX
  8
3
  5
1BC1
 10
326.595
 20
202.399
 30
0.000000
  70
    32
  0
VERTEX
  8
3
  5
1BC2
 10
326.644
 20
202.451
 30
0.000000
  70
    32
  0
VERTEX
  8
3
  5
1BC3
 10
326.694
 20
202.503
 30
0.000000
  70
    32
  0
VERTEX
  8
3
  5
1BC4
 10
326.746
 20
202.553
 30
0.000000
  70
    32
  0
VERTEX
  8
3
  5
1BC5
 10
326.799
 20
202.602
 30
0.000000
  70
    32
  0
VERTEX
  8
3
  5
1BC6
 10
326.852
 20
202.649
 30
0.000000
  70
    32
  0
VERTEX
  8
3
  5
1BC7
 10
326.907
 20
202.695
 30
0.000000
  70
    32
  0
VERTEX
  8
3
  5
1BC8
 10
326.964
 20
202.740
 30
0.000000
  70
    32
  0
VERTEX
  8
3
  5
1BC9
 10
327.021
 20
202.783
 30
0.000000
  70
    32
  0
VERTEX
  8
3
  5
1BCA
 10
327.079
 20
202.824
 30
0.000000
  70
    32
  0
VERTEX
  8
3
  5
1BCB
 10
327.138
 20
202.865
 30
0.000000
  70
    32
  0
VERTEX
  8
3
  5
1BCC
 10
327.198
 20
202.903
 30
0.000000
  70
    32
  0
VERTEX
  8
3
  5
1BCD
 10
327.258
 20
202.940
 30
0.000000
  70
    32
  0
VERTEX
  8
3
  5
1BCE
 10
327.320
 20
202.976
 30
0.000000
  70
    32
  0
VERTEX
  8
3
  5
1BCF
 10
327.383
 20
203.010
 30
0.000000
  70
    32
  0
VERTEX
  8
3
  5
1BD0
 10
327.446
 20
203.042
 30
0.000000
  70
    32
  0
VERTEX
  8
3
  5
1BD1
 10
327.510
 20
203.073
 30
0.000000
  70
    32
  0
VERTEX
  8
3
  5
1BD2
 10
327.575
 20
203.102
 30
0.000000
  70
    32
  0
VERTEX
  8
3
  5
1BD3
 10
327.640
 20
203.129
 30
0.000000
  70
    32
  0
VERTEX
  8
3
  5
1BD4
 10
327.706
 20
203.155
 30
0.000000
  70
    32
  0
VERTEX
  8
3
  5
1BD5
 10
327.773
 20
203.179
 30
0.000000
  70
    32
  0
VERTEX
  8
3
  5
1BD6
 10
327.840
 20
203.201
 30
0.000000
  70
    32
  0
VERTEX
  8
3
  5
1BD7
 10
327.907
 20
203.221
 30
0.000000
  70
    32
  0
VERTEX
  8
3
  5
1BD8
 10
327.975
 20
203.240
 30
0.000000
  70
    32
  0
VERTEX
  8
3
  5
1BD9
 10
328.044
 20
203.257
 30
0.000000
  70
    32
  0
VERTEX
  8
3
  5
1BDA
 10
328.113
 20
203.272
 30
0.000000
  70
    32
  0
VERTEX
  8
3
  5
1BDB
 10
328.182
 20
203.286
 30
0.000000
  70
    32
  0
VERTEX
  8
3
  5
1BDC
 10
328.252
 20
203.298
 30
0.000000
  70
    32
  0
VERTEX
  8
3
  5
1BDD
 10
328.321
 20
203.308
 30
0.000000
  70
    32
  0
VERTEX
  8
3
  5
1BDE
 10
328.391
 20
203.316
 30
0.000000
  70
    32
  0
VERTEX
  8
3
  5
1BDF
 10
328.461
 20
203.322
 30
0.000000
  70
    32
  0
VERTEX
  8
3
  5
1BE0
 10
328.532
 20
203.326
 30
0.000000
  70
    32
  0
VERTEX
  8
3
  5
1BE1
 10
328.602
 20
203.329
 30
0.000000
  70
    32
  0
VERTEX
  8
3
  5
1BE2
 10
328.672
 20
203.330
 30
0.000000
  70
    32
  0
SEQEND
  8
3
  5
1BE3
  0
POLYLINE
  5
133F
  8
0
 10
328.67246330869551
 20
202.7885707046994
 30
0.0
 66
     1
 70
     8
  0
VERTEX
  8
0
  5
1BE4
 10
328.672
 20
202.789
 30
0.000000
  70
    32
  0
VERTEX
  8
0
  5
1BE5
 10
328.777
 20
202.786
 30
0.000000
  70
    32
  0
VERTEX
  8
0
  5
1BE6
 10
328.881
 20
202.777
 30
0.000000
  70
    32
  0
VERTEX
  8
0
  5
1BE7
 10
328.985
 20
202.762
 30
0.000000
  70
    32
  0
VERTEX
  8
0
  5
1BE8
 10
329.088
 20
202.741
 30
0.000000
  70
    32
  0
VERTEX
  8
0
  5
1BE9
 10
329.190
 20
202.715
 30
0.000000
  70
    32
  0
VERTEX
  8
0
  5
1BEA
 10
329.291
 20
202.683
 30
0.000000
  70
    32
  0
VERTEX
  8
0
  5
1BEB
 10
329.390
 20
202.645
 30
0.000000
  70
    32
  0
VERTEX
  8
0
  5
1BEC
 10
329.487
 20
202.601
 30
0.000000
  70
    32
  0
VERTEX
  8
0
  5
1BED
 10
329.583
 20
202.553
 30
0.000000
  70
    32
  0
VERTEX
  8
0
  5
1BEE
 10
329.676
 20
202.498
 30
0.000000
  70
    32
  0
VERTEX
  8
0
  5
1BEF
 10
329.767
 20
202.439
 30
0.000000
  70
    32
  0
VERTEX
  8
0
  5
1BF0
 10
329.855
 20
202.374
 30
0.000000
  70
    32
  0
VERTEX
  8
0
  5
1BF1
 10
329.941
 20
202.305
 30
0.000000
  70
    32
  0
VERTEX
  8
0
  5
1BF2
 10
330.023
 20
202.231
 30
0.000000
  70
    32
  0
VERTEX
  8
0
  5
1BF3
 10
330.102
 20
202.152
 30
0.000000
  70
    32
  0
VERTEX
  8
0
  5
1BF4
 10
330.178
 20
202.068
 30
0.000000
  70
    32
  0
VERTEX
  8
0
  5
1BF5
 10
330.250
 20
201.981
 30
0.000000
  70
    32
  0
VERTEX
  8
0
  5
1BF6
 10
330.318
 20
201.890
 30
0.000000
  70
    32
  0
VERTEX
  8
0
  5
1BF7
 10
330.383
 20
201.795
 30
0.000000
  70
    32
  0
VERTEX
  8
0
  5
1BF8
 10
330.443
 20
201.696
 30
0.000000
  70
    32
  0
VERTEX
  8
0
  5
1BF9
 10
330.499
 20
201.594
 30
0.000000
  70
    32
  0
VERTEX
  8
0
  5
1BFA
 10
330.550
 20
201.489
 30
0.000000
  70
    32
  0
VERTEX
  8
0
  5
1BFB
 10
330.597
 20
201.381
 30
0.000000
  70
    32
  0
VERTEX
  8
0
  5
1BFC
 10
330.640
 20
201.271
 30
0.000000
  70
    32
  0
VERTEX
  8
0
  5
1BFD
 10
330.677
 20
201.158
 30
0.000000
  70
    32
  0
VERTEX
  8
0
  5
1BFE
 10
330.710
 20
201.044
 30
0.000000
  70
    32
  0
VERTEX
  8
0
  5
1BFF
 10
330.738
 20
200.927
 30
0.000000
  70
    32
  0
VERTEX
  8
0
  5
1C00
 10
330.761
 20
200.810
 30
0.000000
  70
    32
  0
VERTEX
  8
0
  5
1C01
 10
330.779
 20
200.691
 30
0.000000
  70
    32
  0
VERTEX
  8
0
  5
1C02
 10
330.791
 20
200.571
 30
0.000000
  70
    32
  0
VERTEX
  8
0
  5
1C03
 10
330.799
 20
200.451
 30
0.000000
  70
    32
  0
VERTEX
  8
0
  5
1C04
 10
330.802
 20
200.330
 30
0.000000
  70
    32
  0
VERTEX
  8
0
  5
1C05
 10
330.799
 20
200.209
 30
0.000000
  70
    32
  0
VERTEX
  8
0
  5
1C06
 10
330.791
 20
200.089
 30
0.000000
  70
    32
  0
VERTEX
  8
0
  5
1C07
 10
330.779
 20
199.969
 30
0.000000
  70
    32
  0
VERTEX
  8
0
  5
1C08
 10
330.761
 20
199.850
 30
0.000000
  70
    32
  0
VERTEX
  8
0
  5
1C09
 10
330.738
 20
199.733
 30
0.000000
  70
    32
  0
VERTEX
  8
0
  5
1C0A
 10
330.710
 20
199.616
 30
0.000000
  70
    32
  0
VERTEX
  8
0
  5
1C0B
 10
330.677
 20
199.502
 30
0.000000
  70
    32
  0
VERTEX
  8
0
  5
1C0C
 10
330.640
 20
199.389
 30
0.000000
  70
    32
  0
VERTEX
  8
0
  5
1C0D
 10
330.597
 20
199.279
 30
0.000000
  70
    32
  0
VERTEX
  8
0
  5
1C0E
 10
330.550
 20
199.171
 30
0.000000
  70
    32
  0
VERTEX
  8
0
  5
1C0F
 10
330.499
 20
199.066
 30
0.000000
  70
    32
  0
VERTEX
  8
0
  5
1C10
 10
330.443
 20
198.964
 30
0.000000
  70
    32
  0
VERTEX
  8
0
  5
1C11
 10
330.383
 20
198.866
 30
0.000000
  70
    32
  0
VERTEX
  8
0
  5
1C12
 10
330.318
 20
198.770
 30
0.000000
  70
    32
  0
VERTEX
  8
0
  5
1C13
 10
330.250
 20
198.679
 30
0.000000
  70
    32
  0
VERTEX
  8
0
  5
1C14
 10
330.178
 20
198.592
 30
0.000000
  70
    32
  0
VERTEX
  8
0
  5
1C15
 10
330.102
 20
198.508
 30
0.000000
  70
    32
  0
VERTEX
  8
0
  5
1C16
 10
330.023
 20
198.430
 30
0.000000
  70
    32
  0
VERTEX
  8
0
  5
1C17
 10
329.941
 20
198.355
 30
0.000000
  70
    32
  0
VERTEX
  8
0
  5
1C18
 10
329.855
 20
198.286
 30
0.000000
  70
    32
  0
VERTEX
  8
0
  5
1C19
 10
329.767
 20
198.221
 30
0.000000
  70
    32
  0
VERTEX
  8
0
  5
1C1A
 10
329.676
 20
198.162
 30
0.000000
  70
    32
  0
VERTEX
  8
0
  5
1C1B
 10
329.583
 20
198.108
 30
0.000000
  70
    32
  0
VERTEX
  8
0
  5
1C1C
 10
329.487
 20
198.059
 30
0.000000
  70
    32
  0
VERTEX
  8
0
  5
1C1D
 10
329.390
 20
198.015
 30
0.000000
  70
    32
  0
VERTEX
  8
0
  5
1C1E
 10
329.291
 20
197.977
 30
0.000000
  70
    32
  0
VERTEX
  8
0
  5
1C1F
 10
329.190
 20
197.945
 30
0.000000
  70
    32
  0
VERTEX
  8
0
  5
1C20
 10
329.088
 20
197.919
 30
0.000000
  70
    32
  0
VERTEX
  8
0
  5
1C21
 10
328.985
 20
197.898
 30
0.000000
  70
    32
  0
VERTEX
  8
0
  5
1C22
 10
328.881
 20
197.883
 30
0.000000
  70
    32
  0
VERTEX
  8
0
  5
1C23
 10
328.777
 20
197.875
 30
0.000000
  70
    32
  0
VERTEX
  8
0
  5
1C24
 10
328.672
 20
197.872
 30
0.000000
  70
    32
  0
VERTEX
  8
0
  5
1C25
 10
328.568
 20
197.875
 30
0.000000
  70
    32
  0
VERTEX
  8
0
  5
1C26
 10
328.464
 20
197.883
 30
0.000000
  70
    32
  0
VERTEX
  8
0
  5
1C27
 10
328.360
 20
197.898
 30
0.000000
  70
    32
  0
VERTEX
  8
0
  5
1C28
 10
328.257
 20
197.919
 30
0.000000
  70
    32
  0
VERTEX
  8
0
  5
1C29
 10
328.155
 20
197.945
 30
0.000000
  70
    32
  0
VERTEX
  8
0
  5
1C2A
 10
328.054
 20
197.977
 30
0.000000
  70
    32
  0
VERTEX
  8
0
  5
1C2B
 10
327.955
 20
198.015
 30
0.000000
  70
    32
  0
VERTEX
  8
0
  5
1C2C
 10
327.858
 20
198.059
 30
0.000000
  70
    32
  0
VERTEX
  8
0
  5
1C2D
 10
327.762
 20
198.108
 30
0.000000
  70
    32
  0
VERTEX
  8
0
  5
1C2E
 10
327.669
 20
198.162
 30
0.000000
  70
    32
  0
VERTEX
  8
0
  5
1C2F
 10
327.578
 20
198.221
 30
0.000000
  70
    32
  0
VERTEX
  8
0
  5
1C30
 10
327.490
 20
198.286
 30
0.000000
  70
    32
  0
VERTEX
  8
0
  5
1C31
 10
327.404
 20
198.355
 30
0.000000
  70
    32
  0
VERTEX
  8
0
  5
1C32
 10
327.322
 20
198.430
 30
0.000000
  70
    32
  0
VERTEX
  8
0
  5
1C33
 10
327.243
 20
198.508
 30
0.000000
  70
    32
  0
VERTEX
  8
0
  5
1C34
 10
327.167
 20
198.592
 30
0.000000
  70
    32
  0
VERTEX
  8
0
  5
1C35
 10
327.095
 20
198.679
 30
0.000000
  70
    32
  0
VERTEX
  8
0
  5
1C36
 10
327.027
 20
198.770
 30
0.000000
  70
    32
  0
VERTEX
  8
0
  5
1C37
 10
326.962
 20
198.866
 30
0.000000
  70
    32
  0
VERTEX
  8
0
  5
1C38
 10
326.902
 20
198.964
 30
0.000000
  70
    32
  0
VERTEX
  8
0
  5
1C39
 10
326.846
 20
199.066
 30
0.000000
  70
    32
  0
VERTEX
  8
0
  5
1C3A
 10
326.795
 20
199.171
 30
0.000000
  70
    32
  0
VERTEX
  8
0
  5
1C3B
 10
326.748
 20
199.279
 30
0.000000
  70
    32
  0
VERTEX
  8
0
  5
1C3C
 10
326.705
 20
199.389
 30
0.000000
  70
    32
  0
VERTEX
  8
0
  5
1C3D
 10
326.668
 20
199.502
 30
0.000000
  70
    32
  0
VERTEX
  8
0
  5
1C3E
 10
326.635
 20
199.616
 30
0.000000
  70
    32
  0
VERTEX
  8
0
  5
1C3F
 10
326.607
 20
199.733
 30
0.000000
  70
    32
  0
VERTEX
  8
0
  5
1C40
 10
326.584
 20
199.850
 30
0.000000
  70
    32
  0
VERTEX
  8
0
  5
1C41
 10
326.566
 20
199.969
 30
0.000000
  70
    32
  0
VERTEX
  8
0
  5
1C42
 10
326.554
 20
200.089
 30
0.000000
  70
    32
  0
VERTEX
  8
0
  5
1C43
 10
326.546
 20
200.209
 30
0.000000
  70
    32
  0
VERTEX
  8
0
  5
1C44
 10
326.543
 20
200.330
 30
0.000000
  70
    32
  0
VERTEX
  8
0
  5
1C45
 10
326.546
 20
200.451
 30
0.000000
  70
    32
  0
VERTEX
  8
0
  5
1C46
 10
326.554
 20
200.571
 30
0.000000
  70
    32
  0
VERTEX
  8
0
  5
1C47
 10
326.566
 20
200.691
 30
0.000000
  70
    32
  0
VERTEX
  8
0
  5
1C48
 10
326.584
 20
200.810
 30
0.000000
  70
    32
  0
VERTEX
  8
0
  5
1C49
 10
326.607
 20
200.927
 30
0.000000
  70
    32
  0
VERTEX
  8
0
  5
1C4A
 10
326.635
 20
201.044
 30
0.000000
  70
    32
  0
VERTEX
  8
0
  5
1C4B
 10
326.668
 20
201.158
 30
0.000000
  70
    32
  0
VERTEX
  8
0
  5
1C4C
 10
326.705
 20
201.271
 30
0.000000
  70
    32
  0
VERTEX
  8
0
  5
1C4D
 10
326.748
 20
201.381
 30
0.000000
  70
    32
  0
VERTEX
  8
0
  5
1C4E
 10
326.795
 20
201.489
 30
0.000000
  70
    32
  0
VERTEX
  8
0
  5
1C4F
 10
326.846
 20
201.594
 30
0.000000
  70
    32
  0
VERTEX
  8
0
  5
1C50
 10
326.902
 20
201.696
 30
0.000000
  70
    32
  0
VERTEX
  8
0
  5
1C51
 10
326.962
 20
201.795
 30
0.000000
  70
    32
  0
VERTEX
  8
0
  5
1C52
 10
327.027
 20
201.890
 30
0.000000
  70
    32
  0
VERTEX
  8
0
  5
1C53
 10
327.095
 20
201.981
 30
0.000000
  70
    32
  0
VERTEX
  8
0
  5
1C54
 10
327.167
 20
202.068
 30
0.000000
  70
    32
  0
VERTEX
  8
0
  5
1C55
 10
327.243
 20
202.152
 30
0.000000
  70
    32
  0
VERTEX
  8
0
  5
1C56
 10
327.322
 20
202.231
 30
0.000000
  70
    32
  0
VERTEX
  8
0
  5
1C57
 10
327.404
 20
202.305
 30
0.000000
  70
    32
  0
VERTEX
  8
0
  5
1C58
 10
327.490
 20
202.374
 30
0.000000
  70
    32
  0
VERTEX
  8
0
  5
1C59
 10
327.578
 20
202.439
 30
0.000000
  70
    32
  0
VERTEX
  8
0
  5
1C5A
 10
327.669
 20
202.498
 30
0.000000
  70
    32
  0
VERTEX
  8
0
  5
1C5B
 10
327.762
 20
202.553
 30
0.000000
  70
    32
  0
VERTEX
  8
0
  5
1C5C
 10
327.858
 20
202.601
 30
0.000000
  70
    32
  0
VERTEX
  8
0
  5
1C5D
 10
327.955
 20
202.645
 30
0.000000
  70
    32
  0
VERTEX
  8
0
  5
1C5E
 10
328.054
 20
202.683
 30
0.000000
  70
    32
  0
VERTEX
  8
0
  5
1C5F
 10
328.155
 20
202.715
 30
0.000000
  70
    32
  0
VERTEX
  8
0
  5
1C60
 10
328.257
 20
202.741
 30
0.000000
  70
    32
  0
VERTEX
  8
0
  5
1C61
 10
328.360
 20
202.762
 30
0.000000
  70
    32
  0
VERTEX
  8
0
  5
1C62
 10
328.464
 20
202.777
 30
0.000000
  70
    32
  0
VERTEX
  8
0
  5
1C63
 10
328.568
 20
202.786
 30
0.000000
  70
    32
  0
VERTEX
  8
0
  5
1C64
 10
328.672
 20
202.789
 30
0.000000
  70
    32
  0
SEQEND
  8
0
  5
1C65
  0
POLYLINE
  5
1340
  8
0
 10
350.17246374442072
 20
202.7885707046994
 30
0.0
 66
     1
 70
     8
  0
VERTEX
  8
0
  5
1C66
 10
350.172
 20
202.789
 30
0.000000
  70
    32
  0
VERTEX
  8
0
  5
1C67
 10
350.068
 20
202.786
 30
0.000000
  70
    32
  0
VERTEX
  8
0
  5
1C68
 10
349.964
 20
202.777
 30
0.000000
  70
    32
  0
VERTEX
  8
0
  5
1C69
 10
349.860
 20
202.762
 30
0.000000
  70
    32
  0
VERTEX
  8
0
  5
1C6A
 10
349.757
 20
202.741
 30
0.000000
  70
    32
  0
VERTEX
  8
0
  5
1C6B
 10
349.655
 20
202.715
 30
0.000000
  70
    32
  0
VERTEX
  8
0
  5
1C6C
 10
349.554
 20
202.683
 30
0.000000
  70
    32
  0
VERTEX
  8
0
  5
1C6D
 10
349.455
 20
202.645
 30
0.000000
  70
    32
  0
VERTEX
  8
0
  5
1C6E
 10
349.358
 20
202.601
 30
0.000000
  70
    32
  0
VERTEX
  8
0
  5
1C6F
 10
349.262
 20
202.553
 30
0.000000
  70
    32
  0
VERTEX
  8
0
  5
1C70
 10
349.169
 20
202.498
 30
0.000000
  70
    32
  0
VERTEX
  8
0
  5
1C71
 10
349.078
 20
202.439
 30
0.000000
  70
    32
  0
VERTEX
  8
0
  5
1C72
 10
348.990
 20
202.374
 30
0.000000
  70
    32
  0
VERTEX
  8
0
  5
1C73
 10
348.904
 20
202.305
 30
0.000000
  70
    32
  0
VERTEX
  8
0
  5
1C74
 10
348.822
 20
202.231
 30
0.000000
  70
    32
  0
VERTEX
  8
0
  5
1C75
 10
348.743
 20
202.152
 30
0.000000
  70
    32
  0
VERTEX
  8
0
  5
1C76
 10
348.667
 20
202.068
 30
0.000000
  70
    32
  0
VERTEX
  8
0
  5
1C77
 10
348.595
 20
201.981
 30
0.000000
  70
    32
  0
VERTEX
  8
0
  5
1C78
 10
348.527
 20
201.890
 30
0.000000
  70
    32
  0
VERTEX
  8
0
  5
1C79
 10
348.462
 20
201.795
 30
0.000000
  70
    32
  0
VERTEX
  8
0
  5
1C7A
 10
348.402
 20
201.696
 30
0.000000
  70
    32
  0
VERTEX
  8
0
  5
1C7B
 10
348.346
 20
201.594
 30
0.000000
  70
    32
  0
VERTEX
  8
0
  5
1C7C
 10
348.295
 20
201.489
 30
0.000000
  70
    32
  0
VERTEX
  8
0
  5
1C7D
 10
348.248
 20
201.381
 30
0.000000
  70
    32
  0
VERTEX
  8
0
  5
1C7E
 10
348.205
 20
201.271
 30
0.000000
  70
    32
  0
VERTEX
  8
0
  5
1C7F
 10
348.168
 20
201.158
 30
0.000000
  70
    32
  0
VERTEX
  8
0
  5
1C80
 10
348.135
 20
201.044
 30
0.000000
  70
    32
  0
VERTEX
  8
0
  5
1C81
 10
348.107
 20
200.927
 30
0.000000
  70
    32
  0
VERTEX
  8
0
  5
1C82
 10
348.084
 20
200.810
 30
0.000000
  70
    32
  0
VERTEX
  8
0
  5
1C83
 10
348.066
 20
200.691
 30
0.000000
  70
    32
  0
VERTEX
  8
0
  5
1C84
 10
348.054
 20
200.571
 30
0.000000
  70
    32
  0
VERTEX
  8
0
  5
1C85
 10
348.046
 20
200.451
 30
0.000000
  70
    32
  0
VERTEX
  8
0
  5
1C86
 10
348.043
 20
200.330
 30
0.000000
  70
    32
  0
VERTEX
  8
0
  5
1C87
 10
348.046
 20
200.209
 30
0.000000
  70
    32
  0
VERTEX
  8
0
  5
1C88
 10
348.054
 20
200.089
 30
0.000000
  70
    32
  0
VERTEX
  8
0
  5
1C89
 10
348.066
 20
199.969
 30
0.000000
  70
    32
  0
VERTEX
  8
0
  5
1C8A
 10
348.084
 20
199.850
 30
0.000000
  70
    32
  0
VERTEX
  8
0
  5
1C8B
 10
348.107
 20
199.733
 30
0.000000
  70
    32
  0
VERTEX
  8
0
  5
1C8C
 10
348.135
 20
199.616
 30
0.000000
  70
    32
  0
VERTEX
  8
0
  5
1C8D
 10
348.168
 20
199.502
 30
0.000000
  70
    32
  0
VERTEX
  8
0
  5
1C8E
 10
348.205
 20
199.389
 30
0.000000
  70
    32
  0
VERTEX
  8
0
  5
1C8F
 10
348.248
 20
199.279
 30
0.000000
  70
    32
  0
VERTEX
  8
0
  5
1C90
 10
348.295
 20
199.171
 30
0.000000
  70
    32
  0
VERTEX
  8
0
  5
1C91
 10
348.346
 20
199.066
 30
0.000000
  70
    32
  0
VERTEX
  8
0
  5
1C92
 10
348.402
 20
198.964
 30
0.000000
  70
    32
  0
VERTEX
  8
0
  5
1C93
 10
348.462
 20
198.866
 30
0.000000
  70
    32
  0
VERTEX
  8
0
  5
1C94
 10
348.527
 20
198.770
 30
0.000000
  70
    32
  0
VERTEX
  8
0
  5
1C95
 10
348.595
 20
198.679
 30
0.000000
  70
    32
  0
VERTEX
  8
0
  5
1C96
 10
348.667
 20
198.592
 30
0.000000
  70
    32
  0
VERTEX
  8
0
  5
1C97
 10
348.743
 20
198.508
 30
0.000000
  70
    32
  0
VERTEX
  8
0
  5
1C98
 10
348.822
 20
198.430
 30
0.000000
  70
    32
  0
VERTEX
  8
0
  5
1C99
 10
348.904
 20
198.355
 30
0.000000
  70
    32
  0
VERTEX
  8
0
  5
1C9A
 10
348.990
 20
198.286
 30
0.000000
  70
    32
  0
VERTEX
  8
0
  5
1C9B
 10
349.078
 20
198.221
 30
0.000000
  70
    32
  0
VERTEX
  8
0
  5
1C9C
 10
349.169
 20
198.162
 30
0.000000
  70
    32
  0
VERTEX
  8
0
  5
1C9D
 10
349.262
 20
198.108
 30
0.000000
  70
    32
  0
VERTEX
  8
0
  5
1C9E
 10
349.358
 20
198.059
 30
0.000000
  70
    32
  0
VERTEX
  8
0
  5
1C9F
 10
349.455
 20
198.015
 30
0.000000
  70
    32
  0
VERTEX
  8
0
  5
1CA0
 10
349.554
 20
197.977
 30
0.000000
  70
    32
  0
VERTEX
  8
0
  5
1CA1
 10
349.655
 20
197.945
 30
0.000000
  70
    32
  0
VERTEX
  8
0
  5
1CA2
 10
349.757
 20
197.919
 30
0.000000
  70
    32
  0
VERTEX
  8
0
  5
1CA3
 10
349.860
 20
197.898
 30
0.000000
  70
    32
  0
VERTEX
  8
0
  5
1CA4
 10
349.964
 20
197.883
 30
0.000000
  70
    32
  0
VERTEX
  8
0
  5
1CA5
 10
350.068
 20
197.875
 30
0.000000
  70
    32
  0
VERTEX
  8
0
  5
1CA6
 10
350.172
 20
197.872
 30
0.000000
  70
    32
  0
VERTEX
  8
0
  5
1CA7
 10
350.277
 20
197.875
 30
0.000000
  70
    32
  0
VERTEX
  8
0
  5
1CA8
 10
350.381
 20
197.883
 30
0.000000
  70
    32
  0
VERTEX
  8
0
  5
1CA9
 10
350.485
 20
197.898
 30
0.000000
  70
    32
  0
VERTEX
  8
0
  5
1CAA
 10
350.588
 20
197.919
 30
0.000000
  70
    32
  0
VERTEX
  8
0
  5
1CAB
 10
350.690
 20
197.945
 30
0.000000
  70
    32
  0
VERTEX
  8
0
  5
1CAC
 10
350.791
 20
197.977
 30
0.000000
  70
    32
  0
VERTEX
  8
0
  5
1CAD
 10
350.890
 20
198.015
 30
0.000000
  70
    32
  0
VERTEX
  8
0
  5
1CAE
 10
350.987
 20
198.059
 30
0.000000
  70
    32
  0
VERTEX
  8
0
  5
1CAF
 10
351.083
 20
198.108
 30
0.000000
  70
    32
  0
VERTEX
  8
0
  5
1CB0
 10
351.176
 20
198.162
 30
0.000000
  70
    32
  0
VERTEX
  8
0
  5
1CB1
 10
351.267
 20
198.221
 30
0.000000
  70
    32
  0
VERTEX
  8
0
  5
1CB2
 10
351.355
 20
198.286
 30
0.000000
  70
    32
  0
VERTEX
  8
0
  5
1CB3
 10
351.441
 20
198.355
 30
0.000000
  70
    32
  0
VERTEX
  8
0
  5
1CB4
 10
351.523
 20
198.430
 30
0.000000
  70
    32
  0
VERTEX
  8
0
  5
1CB5
 10
351.602
 20
198.508
 30
0.000000
  70
    32
  0
VERTEX
  8
0
  5
1CB6
 10
351.678
 20
198.592
 30
0.000000
  70
    32
  0
VERTEX
  8
0
  5
1CB7
 10
351.750
 20
198.679
 30
0.000000
  70
    32
  0
VERTEX
  8
0
  5
1CB8
 10
351.818
 20
198.770
 30
0.000000
  70
    32
  0
VERTEX
  8
0
  5
1CB9
 10
351.883
 20
198.866
 30
0.000000
  70
    32
  0
VERTEX
  8
0
  5
1CBA
 10
351.943
 20
198.964
 30
0.000000
  70
    32
  0
VERTEX
  8
0
  5
1CBB
 10
351.999
 20
199.066
 30
0.000000
  70
    32
  0
VERTEX
  8
0
  5
1CBC
 10
352.050
 20
199.171
 30
0.000000
  70
    32
  0
VERTEX
  8
0
  5
1CBD
 10
352.097
 20
199.279
 30
0.000000
  70
    32
  0
VERTEX
  8
0
  5
1CBE
 10
352.140
 20
199.389
 30
0.000000
  70
    32
  0
VERTEX
  8
0
  5
1CBF
 10
352.177
 20
199.502
 30
0.000000
  70
    32
  0
VERTEX
  8
0
  5
1CC0
 10
352.210
 20
199.616
 30
0.000000
  70
    32
  0
VERTEX
  8
0
  5
1CC1
 10
352.238
 20
199.733
 30
0.000000
  70
    32
  0
VERTEX
  8
0
  5
1CC2
 10
352.261
 20
199.850
 30
0.000000
  70
    32
  0
VERTEX
  8
0
  5
1CC3
 10
352.279
 20
199.969
 30
0.000000
  70
    32
  0
VERTEX
  8
0
  5
1CC4
 10
352.291
 20
200.089
 30
0.000000
  70
    32
  0
VERTEX
  8
0
  5
1CC5
 10
352.299
 20
200.209
 30
0.000000
  70
    32
  0
VERTEX
  8
0
  5
1CC6
 10
352.302
 20
200.330
 30
0.000000
  70
    32
  0
VERTEX
  8
0
  5
1CC7
 10
352.299
 20
200.451
 30
0.000000
  70
    32
  0
VERTEX
  8
0
  5
1CC8
 10
352.291
 20
200.571
 30
0.000000
  70
    32
  0
VERTEX
  8
0
  5
1CC9
 10
352.279
 20
200.691
 30
0.000000
  70
    32
  0
VERTEX
  8
0
  5
1CCA
 10
352.261
 20
200.810
 30
0.000000
  70
    32
  0
VERTEX
  8
0
  5
1CCB
 10
352.238
 20
200.927
 30
0.000000
  70
    32
  0
VERTEX
  8
0
  5
1CCC
 10
352.210
 20
201.044
 30
0.000000
  70
    32
  0
VERTEX
  8
0
  5
1CCD
 10
352.177
 20
201.158
 30
0.000000
  70
    32
  0
VERTEX
  8
0
  5
1CCE
 10
352.140
 20
201.271
 30
0.000000
  70
    32
  0
VERTEX
  8
0
  5
1CCF
 10
352.097
 20
201.381
 30
0.000000
  70
    32
  0
VERTEX
  8
0
  5
1CD0
 10
352.050
 20
201.489
 30
0.000000
  70
    32
  0
VERTEX
  8
0
  5
1CD1
 10
351.999
 20
201.594
 30
0.000000
  70
    32
  0
VERTEX
  8
0
  5
1CD2
 10
351.943
 20
201.696
 30
0.000000
  70
    32
  0
VERTEX
  8
0
  5
1CD3
 10
351.883
 20
201.795
 30
0.000000
  70
    32
  0
VERTEX
  8
0
  5
1CD4
 10
351.818
 20
201.890
 30
0.000000
  70
    32
  0
VERTEX
  8
0
  5
1CD5
 10
351.750
 20
201.981
 30
0.000000
  70
    32
  0
VERTEX
  8
0
  5
1CD6
 10
351.678
 20
202.068
 30
0.000000
  70
    32
  0
VERTEX
  8
0
  5
1CD7
 10
351.602
 20
202.152
 30
0.000000
  70
    32
  0
VERTEX
  8
0
  5
1CD8
 10
351.523
 20
202.231
 30
0.000000
  70
    32
  0
VERTEX
  8
0
  5
1CD9
 10
351.441
 20
202.305
 30
0.000000
  70
    32
  0
VERTEX
  8
0
  5
1CDA
 10
351.355
 20
202.374
 30
0.000000
  70
    32
  0
VERTEX
  8
0
  5
1CDB
 10
351.267
 20
202.439
 30
0.000000
  70
    32
  0
VERTEX
  8
0
  5
1CDC
 10
351.176
 20
202.498
 30
0.000000
  70
    32
  0
VERTEX
  8
0
  5
1CDD
 10
351.083
 20
202.553
 30
0.000000
  70
    32
  0
VERTEX
  8
0
  5
1CDE
 10
350.987
 20
202.601
 30
0.000000
  70
    32
  0
VERTEX
  8
0
  5
1CDF
 10
350.890
 20
202.645
 30
0.000000
  70
    32
  0
VERTEX
  8
0
  5
1CE0
 10
350.791
 20
202.683
 30
0.000000
  70
    32
  0
VERTEX
  8
0
  5
1CE1
 10
350.690
 20
202.715
 30
0.000000
  70
    32
  0
VERTEX
  8
0
  5
1CE2
 10
350.588
 20
202.741
 30
0.000000
  70
    32
  0
VERTEX
  8
0
  5
1CE3
 10
350.485
 20
202.762
 30
0.000000
  70
    32
  0
VERTEX
  8
0
  5
1CE4
 10
350.381
 20
202.777
 30
0.000000
  70
    32
  0
VERTEX
  8
0
  5
1CE5
 10
350.277
 20
202.786
 30
0.000000
  70
    32
  0
VERTEX
  8
0
  5
1CE6
 10
350.172
 20
202.789
 30
0.000000
  70
    32
  0
SEQEND
  8
0
  5
1CE7
  0
POLYLINE
  5
1341
  8
3
 10
350.17246374442078
 20
197.33007070469944
 30
0.0
 66
     1
 70
     8
  0
VERTEX
  8
3
  5
1CE8
 10
350.172
 20
197.330
 30
0.000000
  70
    32
  0
VERTEX
  8
3
  5
1CE9
 10
350.243
 20
197.331
 30
0.000000
  70
    32
  0
VERTEX
  8
3
  5
1CEA
 10
350.313
 20
197.334
 30
0.000000
  70
    32
  0
VERTEX
  8
3
  5
1CEB
 10
350.384
 20
197.338
 30
0.000000
  70
    32
  0
VERTEX
  8
3
  5
1CEC
 10
350.454
 20
197.345
 30
0.000000
  70
    32
  0
VERTEX
  8
3
  5
1CED
 10
350.524
 20
197.353
 30
0.000000
  70
    32
  0
VERTEX
  8
3
  5
1CEE
 10
350.593
 20
197.363
 30
0.000000
  70
    32
  0
VERTEX
  8
3
  5
1CEF
 10
350.663
 20
197.374
 30
0.000000
  70
    32
  0
VERTEX
  8
3
  5
1CF0
 10
350.732
 20
197.388
 30
0.000000
  70
    32
  0
VERTEX
  8
3
  5
1CF1
 10
350.801
 20
197.403
 30
0.000000
  70
    32
  0
VERTEX
  8
3
  5
1CF2
 10
350.870
 20
197.420
 30
0.000000
  70
    32
  0
VERTEX
  8
3
  5
1CF3
 10
350.938
 20
197.439
 30
0.000000
  70
    32
  0
VERTEX
  8
3
  5
1CF4
 10
351.005
 20
197.459
 30
0.000000
  70
    32
  0
VERTEX
  8
3
  5
1CF5
 10
351.072
 20
197.481
 30
0.000000
  70
    32
  0
VERTEX
  8
3
  5
1CF6
 10
351.139
 20
197.505
 30
0.000000
  70
    32
  0
VERTEX
  8
3
  5
1CF7
 10
351.205
 20
197.531
 30
0.000000
  70
    32
  0
VERTEX
  8
3
  5
1CF8
 10
351.270
 20
197.558
 30
0.000000
  70
    32
  0
VERTEX
  8
3
  5
1CF9
 10
351.335
 20
197.587
 30
0.000000
  70
    32
  0
VERTEX
  8
3
  5
1CFA
 10
351.399
 20
197.618
 30
0.000000
  70
    32
  0
VERTEX
  8
3
  5
1CFB
 10
351.462
 20
197.650
 30
0.000000
  70
    32
  0
VERTEX
  8
3
  5
1CFC
 10
351.525
 20
197.684
 30
0.000000
  70
    32
  0
VERTEX
  8
3
  5
1CFD
 10
351.587
 20
197.720
 30
0.000000
  70
    32
  0
VERTEX
  8
3
  5
1CFE
 10
351.647
 20
197.757
 30
0.000000
  70
    32
  0
VERTEX
  8
3
  5
1CFF
 10
351.707
 20
197.796
 30
0.000000
  70
    32
  0
VERTEX
  8
3
  5
1D00
 10
351.766
 20
197.836
 30
0.000000
  70
    32
  0
VERTEX
  8
3
  5
1D01
 10
351.824
 20
197.877
 30
0.000000
  70
    32
  0
VERTEX
  8
3
  5
1D02
 10
351.881
 20
197.920
 30
0.000000
  70
    32
  0
VERTEX
  8
3
  5
1D03
 10
351.937
 20
197.965
 30
0.000000
  70
    32
  0
VERTEX
  8
3
  5
1D04
 10
351.992
 20
198.011
 30
0.000000
  70
    32
  0
VERTEX
  8
3
  5
1D05
 10
352.046
 20
198.058
 30
0.000000
  70
    32
  0
VERTEX
  8
3
  5
1D06
 10
352.099
 20
198.107
 30
0.000000
  70
    32
  0
VERTEX
  8
3
  5
1D07
 10
352.151
 20
198.157
 30
0.000000
  70
    32
  0
VERTEX
  8
3
  5
1D08
 10
352.201
 20
198.209
 30
0.000000
  70
    32
  0
VERTEX
  8
3
  5
1D09
 10
352.250
 20
198.261
 30
0.000000
  70
    32
  0
VERTEX
  8
3
  5
1D0A
 10
352.298
 20
198.315
 30
0.000000
  70
    32
  0
VERTEX
  8
3
  5
1D0B
 10
352.345
 20
198.371
 30
0.000000
  70
    32
  0
VERTEX
  8
3
  5
1D0C
 10
352.390
 20
198.427
 30
0.000000
  70
    32
  0
VERTEX
  8
3
  5
1D0D
 10
352.434
 20
198.484
 30
0.000000
  70
    32
  0
VERTEX
  8
3
  5
1D0E
 10
352.477
 20
198.543
 30
0.000000
  70
    32
  0
VERTEX
  8
3
  5
1D0F
 10
352.518
 20
198.603
 30
0.000000
  70
    32
  0
VERTEX
  8
3
  5
1D10
 10
352.558
 20
198.663
 30
0.000000
  70
    32
  0
VERTEX
  8
3
  5
1D11
 10
352.596
 20
198.725
 30
0.000000
  70
    32
  0
VERTEX
  8
3
  5
1D12
 10
352.633
 20
198.788
 30
0.000000
  70
    32
  0
VERTEX
  8
3
  5
1D13
 10
352.669
 20
198.851
 30
0.000000
  70
    32
  0
VERTEX
  8
3
  5
1D14
 10
352.703
 20
198.916
 30
0.000000
  70
    32
  0
VERTEX
  8
3
  5
1D15
 10
352.735
 20
198.981
 30
0.000000
  70
    32
  0
VERTEX
  8
3
  5
1D16
 10
352.766
 20
199.047
 30
0.000000
  70
    32
  0
VERTEX
  8
3
  5
1D17
 10
352.795
 20
199.114
 30
0.000000
  70
    32
  0
VERTEX
  8
3
  5
1D18
 10
352.823
 20
199.182
 30
0.000000
  70
    32
  0
VERTEX
  8
3
  5
1D19
 10
352.849
 20
199.250
 30
0.000000
  70
    32
  0
VERTEX
  8
3
  5
1D1A
 10
352.874
 20
199.319
 30
0.000000
  70
    32
  0
VERTEX
  8
3
  5
1D1B
 10
352.896
 20
199.389
 30
0.000000
  70
    32
  0
VERTEX
  8
3
  5
1D1C
 10
352.918
 20
199.459
 30
0.000000
  70
    32
  0
VERTEX
  8
3
  5
1D1D
 10
352.937
 20
199.530
 30
0.000000
  70
    32
  0
VERTEX
  8
3
  5
1D1E
 10
352.955
 20
199.601
 30
0.000000
  70
    32
  0
VERTEX
  8
3
  5
1D1F
 10
352.972
 20
199.673
 30
0.000000
  70
    32
  0
VERTEX
  8
3
  5
1D20
 10
352.986
 20
199.745
 30
0.000000
  70
    32
  0
VERTEX
  8
3
  5
1D21
 10
352.999
 20
199.817
 30
0.000000
  70
    32
  0
VERTEX
  8
3
  5
1D22
 10
353.010
 20
199.890
 30
0.000000
  70
    32
  0
VERTEX
  8
3
  5
1D23
 10
353.020
 20
199.963
 30
0.000000
  70
    32
  0
VERTEX
  8
3
  5
1D24
 10
353.027
 20
200.036
 30
0.000000
  70
    32
  0
VERTEX
  8
3
  5
1D25
 10
353.034
 20
200.109
 30
0.000000
  70
    32
  0
VERTEX
  8
3
  5
1D26
 10
353.038
 20
200.183
 30
0.000000
  70
    32
  0
VERTEX
  8
3
  5
1D27
 10
353.040
 20
200.256
 30
0.000000
  70
    32
  0
VERTEX
  8
3
  5
1D28
 10
353.041
 20
200.330
 30
0.000000
  70
    32
  0
VERTEX
  8
3
  5
1D29
 10
353.040
 20
200.404
 30
0.000000
  70
    32
  0
VERTEX
  8
3
  5
1D2A
 10
353.038
 20
200.477
 30
0.000000
  70
    32
  0
VERTEX
  8
3
  5
1D2B
 10
353.034
 20
200.551
 30
0.000000
  70
    32
  0
VERTEX
  8
3
  5
1D2C
 10
353.027
 20
200.624
 30
0.000000
  70
    32
  0
VERTEX
  8
3
  5
1D2D
 10
353.020
 20
200.697
 30
0.000000
  70
    32
  0
VERTEX
  8
3
  5
1D2E
 10
353.010
 20
200.770
 30
0.000000
  70
    32
  0
VERTEX
  8
3
  5
1D2F
 10
352.999
 20
200.843
 30
0.000000
  70
    32
  0
VERTEX
  8
3
  5
1D30
 10
352.986
 20
200.915
 30
0.000000
  70
    32
  0
VERTEX
  8
3
  5
1D31
 10
352.972
 20
200.987
 30
0.000000
  70
    32
  0
VERTEX
  8
3
  5
1D32
 10
352.955
 20
201.059
 30
0.000000
  70
    32
  0
VERTEX
  8
3
  5
1D33
 10
352.937
 20
201.130
 30
0.000000
  70
    32
  0
VERTEX
  8
3
  5
1D34
 10
352.918
 20
201.201
 30
0.000000
  70
    32
  0
VERTEX
  8
3
  5
1D35
 10
352.896
 20
201.271
 30
0.000000
  70
    32
  0
VERTEX
  8
3
  5
1D36
 10
352.874
 20
201.341
 30
0.000000
  70
    32
  0
VERTEX
  8
3
  5
1D37
 10
352.849
 20
201.410
 30
0.000000
  70
    32
  0
VERTEX
  8
3
  5
1D38
 10
352.823
 20
201.478
 30
0.000000
  70
    32
  0
VERTEX
  8
3
  5
1D39
 10
352.795
 20
201.546
 30
0.000000
  70
    32
  0
VERTEX
  8
3
  5
1D3A
 10
352.766
 20
201.613
 30
0.000000
  70
    32
  0
VERTEX
  8
3
  5
1D3B
 10
352.735
 20
201.679
 30
0.000000
  70
    32
  0
VERTEX
  8
3
  5
1D3C
 10
352.703
 20
201.744
 30
0.000000
  70
    32
  0
VERTEX
  8
3
  5
1D3D
 10
352.669
 20
201.809
 30
0.000000
  70
    32
  0
VERTEX
  8
3
  5
1D3E
 10
352.633
 20
201.872
 30
0.000000
  70
    32
  0
VERTEX
  8
3
  5
1D3F
 10
352.596
 20
201.935
 30
0.000000
  70
    32
  0
VERTEX
  8
3
  5
1D40
 10
352.558
 20
201.997
 30
0.000000
  70
    32
  0
VERTEX
  8
3
  5
1D41
 10
352.518
 20
202.057
 30
0.000000
  70
    32
  0
VERTEX
  8
3
  5
1D42
 10
352.477
 20
202.117
 30
0.000000
  70
    32
  0
VERTEX
  8
3
  5
1D43
 10
352.434
 20
202.176
 30
0.000000
  70
    32
  0
VERTEX
  8
3
  5
1D44
 10
352.390
 20
202.233
 30
0.000000
  70
    32
  0
VERTEX
  8
3
  5
1D45
 10
352.345
 20
202.290
 30
0.000000
  70
    32
  0
VERTEX
  8
3
  5
1D46
 10
352.298
 20
202.345
 30
0.000000
  70
    32
  0
VERTEX
  8
3
  5
1D47
 10
352.250
 20
202.399
 30
0.000000
  70
    32
  0
VERTEX
  8
3
  5
1D48
 10
352.201
 20
202.451
 30
0.000000
  70
    32
  0
VERTEX
  8
3
  5
1D49
 10
352.151
 20
202.503
 30
0.000000
  70
    32
  0
VERTEX
  8
3
  5
1D4A
 10
352.099
 20
202.553
 30
0.000000
  70
    32
  0
VERTEX
  8
3
  5
1D4B
 10
352.046
 20
202.602
 30
0.000000
  70
    32
  0
VERTEX
  8
3
  5
1D4C
 10
351.992
 20
202.649
 30
0.000000
  70
    32
  0
VERTEX
  8
3
  5
1D4D
 10
351.937
 20
202.695
 30
0.000000
  70
    32
  0
VERTEX
  8
3
  5
1D4E
 10
351.881
 20
202.740
 30
0.000000
  70
    32
  0
VERTEX
  8
3
  5
1D4F
 10
351.824
 20
202.783
 30
0.000000
  70
    32
  0
VERTEX
  8
3
  5
1D50
 10
351.766
 20
202.824
 30
0.000000
  70
    32
  0
VERTEX
  8
3
  5
1D51
 10
351.707
 20
202.865
 30
0.000000
  70
    32
  0
VERTEX
  8
3
  5
1D52
 10
351.647
 20
202.903
 30
0.000000
  70
    32
  0
VERTEX
  8
3
  5
1D53
 10
351.587
 20
202.940
 30
0.000000
  70
    32
  0
VERTEX
  8
3
  5
1D54
 10
351.525
 20
202.976
 30
0.000000
  70
    32
  0
VERTEX
  8
3
  5
1D55
 10
351.462
 20
203.010
 30
0.000000
  70
    32
  0
VERTEX
  8
3
  5
1D56
 10
351.399
 20
203.042
 30
0.000000
  70
    32
  0
VERTEX
  8
3
  5
1D57
 10
351.335
 20
203.073
 30
0.000000
  70
    32
  0
VERTEX
  8
3
  5
1D58
 10
351.270
 20
203.102
 30
0.000000
  70
    32
  0
VERTEX
  8
3
  5
1D59
 10
351.205
 20
203.129
 30
0.000000
  70
    32
  0
VERTEX
  8
3
  5
1D5A
 10
351.139
 20
203.155
 30
0.000000
  70
    32
  0
VERTEX
  8
3
  5
1D5B
 10
351.072
 20
203.179
 30
0.000000
  70
    32
  0
VERTEX
  8
3
  5
1D5C
 10
351.005
 20
203.201
 30
0.000000
  70
    32
  0
VERTEX
  8
3
  5
1D5D
 10
350.938
 20
203.221
 30
0.000000
  70
    32
  0
VERTEX
  8
3
  5
1D5E
 10
350.870
 20
203.240
 30
0.000000
  70
    32
  0
VERTEX
  8
3
  5
1D5F
 10
350.801
 20
203.257
 30
0.000000
  70
    32
  0
VERTEX
  8
3
  5
1D60
 10
350.732
 20
203.272
 30
0.000000
  70
    32
  0
VERTEX
  8
3
  5
1D61
 10
350.663
 20
203.286
 30
0.000000
  70
    32
  0
VERTEX
  8
3
  5
1D62
 10
350.593
 20
203.298
 30
0.000000
  70
    32
  0
VERTEX
  8
3
  5
1D63
 10
350.524
 20
203.308
 30
0.000000
  70
    32
  0
VERTEX
  8
3
  5
1D64
 10
350.454
 20
203.316
 30
0.000000
  70
    32
  0
VERTEX
  8
3
  5
1D65
 10
350.384
 20
203.322
 30
0.000000
  70
    32
  0
VERTEX
  8
3
  5
1D66
 10
350.313
 20
203.326
 30
0.000000
  70
    32
  0
VERTEX
  8
3
  5
1D67
 10
350.243
 20
203.329
 30
0.000000
  70
    32
  0
VERTEX
  8
3
  5
1D68
 10
350.172
 20
203.330
 30
0.000000
  70
    32
  0
SEQEND
  8
3
  5
1D69
  0
POLYLINE
  5
1342
  8
3
 10
350.17246374442067
 20
203.33007070469938
 30
0.0
 66
     1
 70
     8
  0
VERTEX
  8
3
  5
1D6A
 10
350.172
 20
203.330
 30
0.000000
  70
    32
  0
VERTEX
  8
3
  5
1D6B
 10
350.115
 20
203.329
 30
0.000000
  70
    32
  0
VERTEX
  8
3
  5
1D6C
 10
350.058
 20
203.326
 30
0.000000
  70
    32
  0
VERTEX
  8
3
  5
1D6D
 10
350.001
 20
203.322
 30
0.000000
  70
    32
  0
VERTEX
  8
3
  5
1D6E
 10
349.944
 20
203.316
 30
0.000000
  70
    32
  0
VERTEX
  8
3
  5
1D6F
 10
349.888
 20
203.308
 30
0.000000
  70
    32
  0
VERTEX
  8
3
  5
1D70
 10
349.831
 20
203.298
 30
0.000000
  70
    32
  0
VERTEX
  8
3
  5
1D71
 10
349.775
 20
203.286
 30
0.000000
  70
    32
  0
VERTEX
  8
3
  5
1D72
 10
349.718
 20
203.272
 30
0.000000
  70
    32
  0
VERTEX
  8
3
  5
1D73
 10
349.663
 20
203.257
 30
0.000000
  70
    32
  0
VERTEX
  8
3
  5
1D74
 10
349.607
 20
203.240
 30
0.000000
  70
    32
  0
VERTEX
  8
3
  5
1D75
 10
349.552
 20
203.221
 30
0.000000
  70
    32
  0
VERTEX
  8
3
  5
1D76
 10
349.497
 20
203.201
 30
0.000000
  70
    32
  0
VERTEX
  8
3
  5
1D77
 10
349.442
 20
203.179
 30
0.000000
  70
    32
  0
VERTEX
  8
3
  5
1D78
 10
349.388
 20
203.155
 30
0.000000
  70
    32
  0
VERTEX
  8
3
  5
1D79
 10
349.335
 20
203.129
 30
0.000000
  70
    32
  0
VERTEX
  8
3
  5
1D7A
 10
349.282
 20
203.102
 30
0.000000
  70
    32
  0
VERTEX
  8
3
  5
1D7B
 10
349.229
 20
203.073
 30
0.000000
  70
    32
  0
VERTEX
  8
3
  5
1D7C
 10
349.177
 20
203.042
 30
0.000000
  70
    32
  0
VERTEX
  8
3
  5
1D7D
 10
349.126
 20
203.010
 30
0.000000
  70
    32
  0
VERTEX
  8
3
  5
1D7E
 10
349.075
 20
202.976
 30
0.000000
  70
    32
  0
VERTEX
  8
3
  5
1D7F
 10
349.025
 20
202.940
 30
0.000000
  70
    32
  0
VERTEX
  8
3
  5
1D80
 10
348.976
 20
202.903
 30
0.000000
  70
    32
  0
VERTEX
  8
3
  5
1D81
 10
348.927
 20
202.865
 30
0.000000
  70
    32
  0
VERTEX
  8
3
  5
1D82
 10
348.879
 20
202.824
 30
0.000000
  70
    32
  0
VERTEX
  8
3
  5
1D83
 10
348.832
 20
202.783
 30
0.000000
  70
    32
  0
VERTEX
  8
3
  5
1D84
 10
348.786
 20
202.740
 30
0.000000
  70
    32
  0
VERTEX
  8
3
  5
1D85
 10
348.741
 20
202.695
 30
0.000000
  70
    32
  0
VERTEX
  8
3
  5
1D86
 10
348.696
 20
202.649
 30
0.000000
  70
    32
  0
VERTEX
  8
3
  5
1D87
 10
348.652
 20
202.602
 30
0.000000
  70
    32
  0
VERTEX
  8
3
  5
1D88
 10
348.610
 20
202.553
 30
0.000000
  70
    32
  0
VERTEX
  8
3
  5
1D89
 10
348.568
 20
202.503
 30
0.000000
  70
    32
  0
VERTEX
  8
3
  5
1D8A
 10
348.527
 20
202.451
 30
0.000000
  70
    32
  0
VERTEX
  8
3
  5
1D8B
 10
348.487
 20
202.399
 30
0.000000
  70
    32
  0
VERTEX
  8
3
  5
1D8C
 10
348.448
 20
202.345
 30
0.000000
  70
    32
  0
VERTEX
  8
3
  5
1D8D
 10
348.410
 20
202.290
 30
0.000000
  70
    32
  0
VERTEX
  8
3
  5
1D8E
 10
348.373
 20
202.233
 30
0.000000
  70
    32
  0
VERTEX
  8
3
  5
1D8F
 10
348.338
 20
202.176
 30
0.000000
  70
    32
  0
VERTEX
  8
3
  5
1D90
 10
348.303
 20
202.117
 30
0.000000
  70
    32
  0
VERTEX
  8
3
  5
1D91
 10
348.270
 20
202.057
 30
0.000000
  70
    32
  0
VERTEX
  8
3
  5
1D92
 10
348.237
 20
201.997
 30
0.000000
  70
    32
  0
VERTEX
  8
3
  5
1D93
 10
348.206
 20
201.935
 30
0.000000
  70
    32
  0
VERTEX
  8
3
  5
1D94
 10
348.176
 20
201.872
 30
0.000000
  70
    32
  0
VERTEX
  8
3
  5
1D95
 10
348.147
 20
201.809
 30
0.000000
  70
    32
  0
VERTEX
  8
3
  5
1D96
 10
348.120
 20
201.744
 30
0.000000
  70
    32
  0
VERTEX
  8
3
  5
1D97
 10
348.094
 20
201.679
 30
0.000000
  70
    32
  0
VERTEX
  8
3
  5
1D98
 10
348.069
 20
201.613
 30
0.000000
  70
    32
  0
VERTEX
  8
3
  5
1D99
 10
348.045
 20
201.546
 30
0.000000
  70
    32
  0
VERTEX
  8
3
  5
1D9A
 10
348.022
 20
201.478
 30
0.000000
  70
    32
  0
VERTEX
  8
3
  5
1D9B
 10
348.001
 20
201.410
 30
0.000000
  70
    32
  0
VERTEX
  8
3
  5
1D9C
 10
347.981
 20
201.341
 30
0.000000
  70
    32
  0
VERTEX
  8
3
  5
1D9D
 10
347.963
 20
201.271
 30
0.000000
  70
    32
  0
VERTEX
  8
3
  5
1D9E
 10
347.945
 20
201.201
 30
0.000000
  70
    32
  0
VERTEX
  8
3
  5
1D9F
 10
347.929
 20
201.130
 30
0.000000
  70
    32
  0
VERTEX
  8
3
  5
1DA0
 10
347.915
 20
201.059
 30
0.000000
  70
    32
  0
VERTEX
  8
3
  5
1DA1
 10
347.902
 20
200.987
 30
0.000000
  70
    32
  0
VERTEX
  8
3
  5
1DA2
 10
347.890
 20
200.915
 30
0.000000
  70
    32
  0
VERTEX
  8
3
  5
1DA3
 10
347.879
 20
200.843
 30
0.000000
  70
    32
  0
VERTEX
  8
3
  5
1DA4
 10
347.870
 20
200.770
 30
0.000000
  70
    32
  0
VERTEX
  8
3
  5
1DA5
 10
347.863
 20
200.697
 30
0.000000
  70
    32
  0
VERTEX
  8
3
  5
1DA6
 10
347.856
 20
200.624
 30
0.000000
  70
    32
  0
VERTEX
  8
3
  5
1DA7
 10
347.851
 20
200.551
 30
0.000000
  70
    32
  0
VERTEX
  8
3
  5
1DA8
 10
347.848
 20
200.477
 30
0.000000
  70
    32
  0
VERTEX
  8
3
  5
1DA9
 10
347.846
 20
200.404
 30
0.000000
  70
    32
  0
VERTEX
  8
3
  5
1DAA
 10
347.845
 20
200.330
 30
0.000000
  70
    32
  0
VERTEX
  8
3
  5
1DAB
 10
347.846
 20
200.256
 30
0.000000
  70
    32
  0
VERTEX
  8
3
  5
1DAC
 10
347.848
 20
200.183
 30
0.000000
  70
    32
  0
VERTEX
  8
3
  5
1DAD
 10
347.851
 20
200.109
 30
0.000000
  70
    32
  0
VERTEX
  8
3
  5
1DAE
 10
347.856
 20
200.036
 30
0.000000
  70
    32
  0
VERTEX
  8
3
  5
1DAF
 10
347.863
 20
199.963
 30
0.000000
  70
    32
  0
VERTEX
  8
3
  5
1DB0
 10
347.870
 20
199.890
 30
0.000000
  70
    32
  0
VERTEX
  8
3
  5
1DB1
 10
347.879
 20
199.817
 30
0.000000
  70
    32
  0
VERTEX
  8
3
  5
1DB2
 10
347.890
 20
199.745
 30
0.000000
  70
    32
  0
VERTEX
  8
3
  5
1DB3
 10
347.902
 20
199.673
 30
0.000000
  70
    32
  0
VERTEX
  8
3
  5
1DB4
 10
347.915
 20
199.601
 30
0.000000
  70
    32
  0
VERTEX
  8
3
  5
1DB5
 10
347.929
 20
199.530
 30
0.000000
  70
    32
  0
VERTEX
  8
3
  5
1DB6
 10
347.945
 20
199.459
 30
0.000000
  70
    32
  0
VERTEX
  8
3
  5
1DB7
 10
347.963
 20
199.389
 30
0.000000
  70
    32
  0
VERTEX
  8
3
  5
1DB8
 10
347.981
 20
199.319
 30
0.000000
  70
    32
  0
VERTEX
  8
3
  5
1DB9
 10
348.001
 20
199.250
 30
0.000000
  70
    32
  0
VERTEX
  8
3
  5
1DBA
 10
348.022
 20
199.182
 30
0.000000
  70
    32
  0
VERTEX
  8
3
  5
1DBB
 10
348.045
 20
199.114
 30
0.000000
  70
    32
  0
VERTEX
  8
3
  5
1DBC
 10
348.069
 20
199.047
 30
0.000000
  70
    32
  0
VERTEX
  8
3
  5
1DBD
 10
348.094
 20
198.981
 30
0.000000
  70
    32
  0
VERTEX
  8
3
  5
1DBE
 10
348.120
 20
198.916
 30
0.000000
  70
    32
  0
VERTEX
  8
3
  5
1DBF
 10
348.147
 20
198.851
 30
0.000000
  70
    32
  0
VERTEX
  8
3
  5
1DC0
 10
348.176
 20
198.788
 30
0.000000
  70
    32
  0
VERTEX
  8
3
  5
1DC1
 10
348.206
 20
198.725
 30
0.000000
  70
    32
  0
VERTEX
  8
3
  5
1DC2
 10
348.237
 20
198.663
 30
0.000000
  70
    32
  0
VERTEX
  8
3
  5
1DC3
 10
348.270
 20
198.603
 30
0.000000
  70
    32
  0
VERTEX
  8
3
  5
1DC4
 10
348.303
 20
198.543
 30
0.000000
  70
    32
  0
VERTEX
  8
3
  5
1DC5
 10
348.338
 20
198.484
 30
0.000000
  70
    32
  0
VERTEX
  8
3
  5
1DC6
 10
348.373
 20
198.427
 30
0.000000
  70
    32
  0
VERTEX
  8
3
  5
1DC7
 10
348.410
 20
198.371
 30
0.000000
  70
    32
  0
VERTEX
  8
3
  5
1DC8
 10
348.448
 20
198.315
 30
0.000000
  70
    32
  0
VERTEX
  8
3
  5
1DC9
 10
348.487
 20
198.261
 30
0.000000
  70
    32
  0
VERTEX
  8
3
  5
1DCA
 10
348.527
 20
198.209
 30
0.000000
  70
    32
  0
VERTEX
  8
3
  5
1DCB
 10
348.568
 20
198.157
 30
0.000000
  70
    32
  0
VERTEX
  8
3
  5
1DCC
 10
348.610
 20
198.107
 30
0.000000
  70
    32
  0
VERTEX
  8
3
  5
1DCD
 10
348.652
 20
198.058
 30
0.000000
  70
    32
  0
VERTEX
  8
3
  5
1DCE
 10
348.696
 20
198.011
 30
0.000000
  70
    32
  0
VERTEX
  8
3
  5
1DCF
 10
348.741
 20
197.965
 30
0.000000
  70
    32
  0
VERTEX
  8
3
  5
1DD0
 10
348.786
 20
197.920
 30
0.000000
  70
    32
  0
VERTEX
  8
3
  5
1DD1
 10
348.832
 20
197.877
 30
0.000000
  70
    32
  0
VERTEX
  8
3
  5
1DD2
 10
348.879
 20
197.836
 30
0.000000
  70
    32
  0
VERTEX
  8
3
  5
1DD3
 10
348.927
 20
197.796
 30
0.000000
  70
    32
  0
VERTEX
  8
3
  5
1DD4
 10
348.976
 20
197.757
 30
0.000000
  70
    32
  0
VERTEX
  8
3
  5
1DD5
 10
349.025
 20
197.720
 30
0.000000
  70
    32
  0
VERTEX
  8
3
  5
1DD6
 10
349.075
 20
197.684
 30
0.000000
  70
    32
  0
VERTEX
  8
3
  5
1DD7
 10
349.126
 20
197.650
 30
0.000000
  70
    32
  0
VERTEX
  8
3
  5
1DD8
 10
349.177
 20
197.618
 30
0.000000
  70
    32
  0
VERTEX
  8
3
  5
1DD9
 10
349.229
 20
197.587
 30
0.000000
  70
    32
  0
VERTEX
  8
3
  5
1DDA
 10
349.282
 20
197.558
 30
0.000000
  70
    32
  0
VERTEX
  8
3
  5
1DDB
 10
349.335
 20
197.531
 30
0.000000
  70
    32
  0
VERTEX
  8
3
  5
1DDC
 10
349.388
 20
197.505
 30
0.000000
  70
    32
  0
VERTEX
  8
3
  5
1DDD
 10
349.442
 20
197.481
 30
0.000000
  70
    32
  0
VERTEX
  8
3
  5
1DDE
 10
349.497
 20
197.459
 30
0.000000
  70
    32
  0
VERTEX
  8
3
  5
1DDF
 10
349.552
 20
197.439
 30
0.000000
  70
    32
  0
VERTEX
  8
3
  5
1DE0
 10
349.607
 20
197.420
 30
0.000000
  70
    32
  0
VERTEX
  8
3
  5
1DE1
 10
349.663
 20
197.403
 30
0.000000
  70
    32
  0
VERTEX
  8
3
  5
1DE2
 10
349.718
 20
197.388
 30
0.000000
  70
    32
  0
VERTEX
  8
3
  5
1DE3
 10
349.775
 20
197.374
 30
0.000000
  70
    32
  0
VERTEX
  8
3
  5
1DE4
 10
349.831
 20
197.363
 30
0.000000
  70
    32
  0
VERTEX
  8
3
  5
1DE5
 10
349.888
 20
197.353
 30
0.000000
  70
    32
  0
VERTEX
  8
3
  5
1DE6
 10
349.944
 20
197.345
 30
0.000000
  70
    32
  0
VERTEX
  8
3
  5
1DE7
 10
350.001
 20
197.338
 30
0.000000
  70
    32
  0
VERTEX
  8
3
  5
1DE8
 10
350.058
 20
197.334
 30
0.000000
  70
    32
  0
VERTEX
  8
3
  5
1DE9
 10
350.115
 20
197.331
 30
0.000000
  70
    32
  0
VERTEX
  8
3
  5
1DEA
 10
350.172
 20
197.330
 30
0.000000
  70
    32
  0
SEQEND
  8
3
  5
1DEB
  0
POLYLINE
  5
1343
  8
0
 10
351.17246352655809
 20
195.08007070469944
 30
0.0
 66
     1
 70
     8
  0
VERTEX
  8
0
  5
1DEC
 10
351.172
 20
195.080
 30
0.000000
  70
    32
  0
VERTEX
  8
0
  5
1DED
 10
351.277
 20
195.082
 30
0.000000
  70
    32
  0
VERTEX
  8
0
  5
1DEE
 10
351.381
 20
195.086
 30
0.000000
  70
    32
  0
VERTEX
  8
0
  5
1DEF
 10
351.485
 20
195.094
 30
0.000000
  70
    32
  0
VERTEX
  8
0
  5
1DF0
 10
351.589
 20
195.105
 30
0.000000
  70
    32
  0
VERTEX
  8
0
  5
1DF1
 10
351.693
 20
195.120
 30
0.000000
  70
    32
  0
VERTEX
  8
0
  5
1DF2
 10
351.796
 20
195.137
 30
0.000000
  70
    32
  0
VERTEX
  8
0
  5
1DF3
 10
351.899
 20
195.157
 30
0.000000
  70
    32
  0
VERTEX
  8
0
  5
1DF4
 10
352.002
 20
195.181
 30
0.000000
  70
    32
  0
VERTEX
  8
0
  5
1DF5
 10
352.104
 20
195.208
 30
0.000000
  70
    32
  0
VERTEX
  8
0
  5
1DF6
 10
352.205
 20
195.237
 30
0.000000
  70
    32
  0
VERTEX
  8
0
  5
1DF7
 10
352.306
 20
195.270
 30
0.000000
  70
    32
  0
VERTEX
  8
0
  5
1DF8
 10
352.406
 20
195.306
 30
0.000000
  70
    32
  0
VERTEX
  8
0
  5
1DF9
 10
352.506
 20
195.345
 30
0.000000
  70
    32
  0
VERTEX
  8
0
  5
1DFA
 10
352.604
 20
195.387
 30
0.000000
  70
    32
  0
VERTEX
  8
0
  5
1DFB
 10
352.702
 20
195.432
 30
0.000000
  70
    32
  0
VERTEX
  8
0
  5
1DFC
 10
352.799
 20
195.480
 30
0.000000
  70
    32
  0
VERTEX
  8
0
  5
1DFD
 10
352.895
 20
195.530
 30
0.000000
  70
    32
  0
VERTEX
  8
0
  5
1DFE
 10
352.989
 20
195.584
 30
0.000000
  70
    32
  0
VERTEX
  8
0
  5
1DFF
 10
353.083
 20
195.641
 30
0.000000
  70
    32
  0
VERTEX
  8
0
  5
1E00
 10
353.176
 20
195.700
 30
0.000000
  70
    32
  0
VERTEX
  8
0
  5
1E01
 10
353.267
 20
195.762
 30
0.000000
  70
    32
  0
VERTEX
  8
0
  5
1E02
 10
353.357
 20
195.827
 30
0.000000
  70
    32
  0
VERTEX
  8
0
  5
1E03
 10
353.446
 20
195.895
 30
0.000000
  70
    32
  0
VERTEX
  8
0
  5
1E04
 10
353.533
 20
195.965
 30
0.000000
  70
    32
  0
VERTEX
  8
0
  5
1E05
 10
353.619
 20
196.038
 30
0.000000
  70
    32
  0
VERTEX
  8
0
  5
1E06
 10
353.704
 20
196.113
 30
0.000000
  70
    32
  0
VERTEX
  8
0
  5
1E07
 10
353.787
 20
196.191
 30
0.000000
  70
    32
  0
VERTEX
  8
0
  5
1E08
 10
353.868
 20
196.272
 30
0.000000
  70
    32
  0
VERTEX
  8
0
  5
1E09
 10
353.948
 20
196.355
 30
0.000000
  70
    32
  0
VERTEX
  8
0
  5
1E0A
 10
354.026
 20
196.440
 30
0.000000
  70
    32
  0
VERTEX
  8
0
  5
1E0B
 10
354.103
 20
196.528
 30
0.000000
  70
    32
  0
VERTEX
  8
0
  5
1E0C
 10
354.177
 20
196.618
 30
0.000000
  70
    32
  0
VERTEX
  8
0
  5
1E0D
 10
354.250
 20
196.710
 30
0.000000
  70
    32
  0
VERTEX
  8
0
  5
1E0E
 10
354.321
 20
196.804
 30
0.000000
  70
    32
  0
VERTEX
  8
0
  5
1E0F
 10
354.390
 20
196.901
 30
0.000000
  70
    32
  0
VERTEX
  8
0
  5
1E10
 10
354.457
 20
197.000
 30
0.000000
  70
    32
  0
VERTEX
  8
0
  5
1E11
 10
354.523
 20
197.100
 30
0.000000
  70
    32
  0
VERTEX
  8
0
  5
1E12
 10
354.586
 20
197.203
 30
0.000000
  70
    32
  0
VERTEX
  8
0
  5
1E13
 10
354.647
 20
197.307
 30
0.000000
  70
    32
  0
VERTEX
  8
0
  5
1E14
 10
354.706
 20
197.413
 30
0.000000
  70
    32
  0
VERTEX
  8
0
  5
1E15
 10
354.763
 20
197.521
 30
0.000000
  70
    32
  0
VERTEX
  8
0
  5
1E16
 10
354.818
 20
197.631
 30
0.000000
  70
    32
  0
VERTEX
  8
0
  5
1E17
 10
354.870
 20
197.742
 30
0.000000
  70
    32
  0
VERTEX
  8
0
  5
1E18
 10
354.920
 20
197.855
 30
0.000000
  70
    32
  0
VERTEX
  8
0
  5
1E19
 10
354.968
 20
197.970
 30
0.000000
  70
    32
  0
VERTEX
  8
0
  5
1E1A
 10
355.014
 20
198.085
 30
0.000000
  70
    32
  0
VERTEX
  8
0
  5
1E1B
 10
355.058
 20
198.203
 30
0.000000
  70
    32
  0
VERTEX
  8
0
  5
1E1C
 10
355.099
 20
198.321
 30
0.000000
  70
    32
  0
VERTEX
  8
0
  5
1E1D
 10
355.137
 20
198.441
 30
0.000000
  70
    32
  0
VERTEX
  8
0
  5
1E1E
 10
355.174
 20
198.561
 30
0.000000
  70
    32
  0
VERTEX
  8
0
  5
1E1F
 10
355.208
 20
198.683
 30
0.000000
  70
    32
  0
VERTEX
  8
0
  5
1E20
 10
355.239
 20
198.806
 30
0.000000
  70
    32
  0
VERTEX
  8
0
  5
1E21
 10
355.268
 20
198.930
 30
0.000000
  70
    32
  0
VERTEX
  8
0
  5
1E22
 10
355.295
 20
199.054
 30
0.000000
  70
    32
  0
VERTEX
  8
0
  5
1E23
 10
355.319
 20
199.180
 30
0.000000
  70
    32
  0
VERTEX
  8
0
  5
1E24
 10
355.340
 20
199.306
 30
0.000000
  70
    32
  0
VERTEX
  8
0
  5
1E25
 10
355.360
 20
199.433
 30
0.000000
  70
    32
  0
VERTEX
  8
0
  5
1E26
 10
355.376
 20
199.560
 30
0.000000
  70
    32
  0
VERTEX
  8
0
  5
1E27
 10
355.390
 20
199.687
 30
0.000000
  70
    32
  0
VERTEX
  8
0
  5
1E28
 10
355.402
 20
199.815
 30
0.000000
  70
    32
  0
VERTEX
  8
0
  5
1E29
 10
355.411
 20
199.944
 30
0.000000
  70
    32
  0
VERTEX
  8
0
  5
1E2A
 10
355.417
 20
200.072
 30
0.000000
  70
    32
  0
VERTEX
  8
0
  5
1E2B
 10
355.421
 20
200.201
 30
0.000000
  70
    32
  0
VERTEX
  8
0
  5
1E2C
 10
355.422
 20
200.330
 30
0.000000
  70
    32
  0
VERTEX
  8
0
  5
1E2D
 10
355.421
 20
200.459
 30
0.000000
  70
    32
  0
VERTEX
  8
0
  5
1E2E
 10
355.417
 20
200.588
 30
0.000000
  70
    32
  0
VERTEX
  8
0
  5
1E2F
 10
355.411
 20
200.716
 30
0.000000
  70
    32
  0
VERTEX
  8
0
  5
1E30
 10
355.402
 20
200.845
 30
0.000000
  70
    32
  0
VERTEX
  8
0
  5
1E31
 10
355.390
 20
200.973
 30
0.000000
  70
    32
  0
VERTEX
  8
0
  5
1E32
 10
355.376
 20
201.100
 30
0.000000
  70
    32
  0
VERTEX
  8
0
  5
1E33
 10
355.360
 20
201.228
 30
0.000000
  70
    32
  0
VERTEX
  8
0
  5
1E34
 10
355.340
 20
201.354
 30
0.000000
  70
    32
  0
VERTEX
  8
0
  5
1E35
 10
355.319
 20
201.480
 30
0.000000
  70
    32
  0
VERTEX
  8
0
  5
1E36
 10
355.295
 20
201.606
 30
0.000000
  70
    32
  0
VERTEX
  8
0
  5
1E37
 10
355.268
 20
201.730
 30
0.000000
  70
    32
  0
VERTEX
  8
0
  5
1E38
 10
355.239
 20
201.854
 30
0.000000
  70
    32
  0
VERTEX
  8
0
  5
1E39
 10
355.208
 20
201.977
 30
0.000000
  70
    32
  0
VERTEX
  8
0
  5
1E3A
 10
355.174
 20
202.099
 30
0.000000
  70
    32
  0
VERTEX
  8
0
  5
1E3B
 10
355.137
 20
202.220
 30
0.000000
  70
    32
  0
VERTEX
  8
0
  5
1E3C
 10
355.099
 20
202.339
 30
0.000000
  70
    32
  0
VERTEX
  8
0
  5
1E3D
 10
355.058
 20
202.458
 30
0.000000
  70
    32
  0
VERTEX
  8
0
  5
1E3E
 10
355.014
 20
202.575
 30
0.000000
  70
    32
  0
VERTEX
  8
0
  5
1E3F
 10
354.968
 20
202.691
 30
0.000000
  70
    32
  0
VERTEX
  8
0
  5
1E40
 10
354.920
 20
202.805
 30
0.000000
  70
    32
  0
VERTEX
  8
0
  5
1E41
 10
354.870
 20
202.918
 30
0.000000
  70
    32
  0
VERTEX
  8
0
  5
1E42
 10
354.818
 20
203.029
 30
0.000000
  70
    32
  0
VERTEX
  8
0
  5
1E43
 10
354.763
 20
203.139
 30
0.000000
  70
    32
  0
VERTEX
  8
0
  5
1E44
 10
354.706
 20
203.247
 30
0.000000
  70
    32
  0
VERTEX
  8
0
  5
1E45
 10
354.647
 20
203.353
 30
0.000000
  70
    32
  0
VERTEX
  8
0
  5
1E46
 10
354.586
 20
203.457
 30
0.000000
  70
    32
  0
VERTEX
  8
0
  5
1E47
 10
354.523
 20
203.560
 30
0.000000
  70
    32
  0
VERTEX
  8
0
  5
1E48
 10
354.457
 20
203.661
 30
0.000000
  70
    32
  0
VERTEX
  8
0
  5
1E49
 10
354.390
 20
203.759
 30
0.000000
  70
    32
  0
VERTEX
  8
0
  5
1E4A
 10
354.321
 20
203.856
 30
0.000000
  70
    32
  0
VERTEX
  8
0
  5
1E4B
 10
354.250
 20
203.950
 30
0.000000
  70
    32
  0
VERTEX
  8
0
  5
1E4C
 10
354.177
 20
204.042
 30
0.000000
  70
    32
  0
VERTEX
  8
0
  5
1E4D
 10
354.103
 20
204.132
 30
0.000000
  70
    32
  0
VERTEX
  8
0
  5
1E4E
 10
354.026
 20
204.220
 30
0.000000
  70
    32
  0
VERTEX
  8
0
  5
1E4F
 10
353.948
 20
204.305
 30
0.000000
  70
    32
  0
VERTEX
  8
0
  5
1E50
 10
353.868
 20
204.388
 30
0.000000
  70
    32
  0
VERTEX
  8
0
  5
1E51
 10
353.787
 20
204.469
 30
0.000000
  70
    32
  0
VERTEX
  8
0
  5
1E52
 10
353.704
 20
204.547
 30
0.000000
  70
    32
  0
VERTEX
  8
0
  5
1E53
 10
353.619
 20
204.622
 30
0.000000
  70
    32
  0
VERTEX
  8
0
  5
1E54
 10
353.533
 20
204.695
 30
0.000000
  70
    32
  0
VERTEX
  8
0
  5
1E55
 10
353.446
 20
204.766
 30
0.000000
  70
    32
  0
VERTEX
  8
0
  5
1E56
 10
353.357
 20
204.833
 30
0.000000
  70
    32
  0
VERTEX
  8
0
  5
1E57
 10
353.267
 20
204.898
 30
0.000000
  70
    32
  0
VERTEX
  8
0
  5
1E58
 10
353.176
 20
204.960
 30
0.000000
  70
    32
  0
VERTEX
  8
0
  5
1E59
 10
353.083
 20
205.019
 30
0.000000
  70
    32
  0
VERTEX
  8
0
  5
1E5A
 10
352.989
 20
205.076
 30
0.000000
  70
    32
  0
VERTEX
  8
0
  5
1E5B
 10
352.895
 20
205.130
 30
0.000000
  70
    32
  0
VERTEX
  8
0
  5
1E5C
 10
352.799
 20
205.180
 30
0.000000
  70
    32
  0
VERTEX
  8
0
  5
1E5D
 10
352.702
 20
205.228
 30
0.000000
  70
    32
  0
VERTEX
  8
0
  5
1E5E
 10
352.604
 20
205.273
 30
0.000000
  70
    32
  0
VERTEX
  8
0
  5
1E5F
 10
352.506
 20
205.315
 30
0.000000
  70
    32
  0
VERTEX
  8
0
  5
1E60
 10
352.406
 20
205.354
 30
0.000000
  70
    32
  0
VERTEX
  8
0
  5
1E61
 10
352.306
 20
205.390
 30
0.000000
  70
    32
  0
VERTEX
  8
0
  5
1E62
 10
352.205
 20
205.423
 30
0.000000
  70
    32
  0
VERTEX
  8
0
  5
1E63
 10
352.104
 20
205.453
 30
0.000000
  70
    32
  0
VERTEX
  8
0
  5
1E64
 10
352.002
 20
205.479
 30
0.000000
  70
    32
  0
VERTEX
  8
0
  5
1E65
 10
351.899
 20
205.503
 30
0.000000
  70
    32
  0
VERTEX
  8
0
  5
1E66
 10
351.796
 20
205.523
 30
0.000000
  70
    32
  0
VERTEX
  8
0
  5
1E67
 10
351.693
 20
205.541
 30
0.000000
  70
    32
  0
VERTEX
  8
0
  5
1E68
 10
351.589
 20
205.555
 30
0.000000
  70
    32
  0
VERTEX
  8
0
  5
1E69
 10
351.485
 20
205.566
 30
0.000000
  70
    32
  0
VERTEX
  8
0
  5
1E6A
 10
351.381
 20
205.574
 30
0.000000
  70
    32
  0
VERTEX
  8
0
  5
1E6B
 10
351.277
 20
205.578
 30
0.000000
  70
    32
  0
VERTEX
  8
0
  5
1E6C
 10
351.172
 20
205.580
 30
0.000000
  70
    32
  0
SEQEND
  8
0
  5
1E6D
  0
POLYLINE
  5
1344
  8
0
 10
351.17246352655809
 20
205.58007070469938
 30
0.0
 66
     1
 70
     8
  0
VERTEX
  8
0
  5
1E6E
 10
351.172
 20
205.580
 30
0.000000
  70
    32
  0
VERTEX
  8
0
  5
1E6F
 10
351.054
 20
205.578
 30
0.000000
  70
    32
  0
VERTEX
  8
0
  5
1E70
 10
350.935
 20
205.574
 30
0.000000
  70
    32
  0
VERTEX
  8
0
  5
1E71
 10
350.816
 20
205.566
 30
0.000000
  70
    32
  0
VERTEX
  8
0
  5
1E72
 10
350.698
 20
205.555
 30
0.000000
  70
    32
  0
VERTEX
  8
0
  5
1E73
 10
350.580
 20
205.541
 30
0.000000
  70
    32
  0
VERTEX
  8
0
  5
1E74
 10
350.462
 20
205.523
 30
0.000000
  70
    32
  0
VERTEX
  8
0
  5
1E75
 10
350.345
 20
205.503
 30
0.000000
  70
    32
  0
VERTEX
  8
0
  5
1E76
 10
350.228
 20
205.479
 30
0.000000
  70
    32
  0
VERTEX
  8
0
  5
1E77
 10
350.112
 20
205.453
 30
0.000000
  70
    32
  0
VERTEX
  8
0
  5
1E78
 10
349.996
 20
205.423
 30
0.000000
  70
    32
  0
VERTEX
  8
0
  5
1E79
 10
349.881
 20
205.390
 30
0.000000
  70
    32
  0
VERTEX
  8
0
  5
1E7A
 10
349.767
 20
205.354
 30
0.000000
  70
    32
  0
VERTEX
  8
0
  5
1E7B
 10
349.654
 20
205.315
 30
0.000000
  70
    32
  0
VERTEX
  8
0
  5
1E7C
 10
349.541
 20
205.273
 30
0.000000
  70
    32
  0
VERTEX
  8
0
  5
1E7D
 10
349.430
 20
205.228
 30
0.000000
  70
    32
  0
VERTEX
  8
0
  5
1E7E
 10
349.319
 20
205.180
 30
0.000000
  70
    32
  0
VERTEX
  8
0
  5
1E7F
 10
349.210
 20
205.130
 30
0.000000
  70
    32
  0
VERTEX
  8
0
  5
1E80
 10
349.102
 20
205.076
 30
0.000000
  70
    32
  0
VERTEX
  8
0
  5
1E81
 10
348.995
 20
205.019
 30
0.000000
  70
    32
  0
VERTEX
  8
0
  5
1E82
 10
348.890
 20
204.960
 30
0.000000
  70
    32
  0
VERTEX
  8
0
  5
1E83
 10
348.786
 20
204.898
 30
0.000000
  70
    32
  0
VERTEX
  8
0
  5
1E84
 10
348.683
 20
204.833
 30
0.000000
  70
    32
  0
VERTEX
  8
0
  5
1E85
 10
348.582
 20
204.766
 30
0.000000
  70
    32
  0
VERTEX
  8
0
  5
1E86
 10
348.482
 20
204.695
 30
0.000000
  70
    32
  0
VERTEX
  8
0
  5
1E87
 10
348.384
 20
204.622
 30
0.000000
  70
    32
  0
VERTEX
  8
0
  5
1E88
 10
348.288
 20
204.547
 30
0.000000
  70
    32
  0
VERTEX
  8
0
  5
1E89
 10
348.193
 20
204.469
 30
0.000000
  70
    32
  0
VERTEX
  8
0
  5
1E8A
 10
348.101
 20
204.388
 30
0.000000
  70
    32
  0
VERTEX
  8
0
  5
1E8B
 10
348.010
 20
204.305
 30
0.000000
  70
    32
  0
VERTEX
  8
0
  5
1E8C
 10
347.921
 20
204.220
 30
0.000000
  70
    32
  0
VERTEX
  8
0
  5
1E8D
 10
347.834
 20
204.132
 30
0.000000
  70
    32
  0
VERTEX
  8
0
  5
1E8E
 10
347.749
 20
204.042
 30
0.000000
  70
    32
  0
VERTEX
  8
0
  5
1E8F
 10
347.666
 20
203.950
 30
0.000000
  70
    32
  0
VERTEX
  8
0
  5
1E90
 10
347.585
 20
203.856
 30
0.000000
  70
    32
  0
VERTEX
  8
0
  5
1E91
 10
347.506
 20
203.759
 30
0.000000
  70
    32
  0
VERTEX
  8
0
  5
1E92
 10
347.429
 20
203.661
 30
0.000000
  70
    32
  0
VERTEX
  8
0
  5
1E93
 10
347.355
 20
203.560
 30
0.000000
  70
    32
  0
VERTEX
  8
0
  5
1E94
 10
347.283
 20
203.457
 30
0.000000
  70
    32
  0
VERTEX
  8
0
  5
1E95
 10
347.214
 20
203.353
 30
0.000000
  70
    32
  0
VERTEX
  8
0
  5
1E96
 10
347.146
 20
203.247
 30
0.000000
  70
    32
  0
VERTEX
  8
0
  5
1E97
 10
347.082
 20
203.139
 30
0.000000
  70
    32
  0
VERTEX
  8
0
  5
1E98
 10
347.019
 20
203.029
 30
0.000000
  70
    32
  0
VERTEX
  8
0
  5
1E99
 10
346.959
 20
202.918
 30
0.000000
  70
    32
  0
VERTEX
  8
0
  5
1E9A
 10
346.902
 20
202.805
 30
0.000000
  70
    32
  0
VERTEX
  8
0
  5
1E9B
 10
346.847
 20
202.691
 30
0.000000
  70
    32
  0
VERTEX
  8
0
  5
1E9C
 10
346.795
 20
202.575
 30
0.000000
  70
    32
  0
VERTEX
  8
0
  5
1E9D
 10
346.746
 20
202.458
 30
0.000000
  70
    32
  0
VERTEX
  8
0
  5
1E9E
 10
346.699
 20
202.339
 30
0.000000
  70
    32
  0
VERTEX
  8
0
  5
1E9F
 10
346.655
 20
202.220
 30
0.000000
  70
    32
  0
VERTEX
  8
0
  5
1EA0
 10
346.613
 20
202.099
 30
0.000000
  70
    32
  0
VERTEX
  8
0
  5
1EA1
 10
346.575
 20
201.977
 30
0.000000
  70
    32
  0
VERTEX
  8
0
  5
1EA2
 10
346.539
 20
201.854
 30
0.000000
  70
    32
  0
VERTEX
  8
0
  5
1EA3
 10
346.506
 20
201.730
 30
0.000000
  70
    32
  0
VERTEX
  8
0
  5
1EA4
 10
346.476
 20
201.606
 30
0.000000
  70
    32
  0
VERTEX
  8
0
  5
1EA5
 10
346.448
 20
201.480
 30
0.000000
  70
    32
  0
VERTEX
  8
0
  5
1EA6
 10
346.423
 20
201.354
 30
0.000000
  70
    32
  0
VERTEX
  8
0
  5
1EA7
 10
346.402
 20
201.228
 30
0.000000
  70
    32
  0
VERTEX
  8
0
  5
1EA8
 10
346.383
 20
201.100
 30
0.000000
  70
    32
  0
VERTEX
  8
0
  5
1EA9
 10
346.367
 20
200.973
 30
0.000000
  70
    32
  0
VERTEX
  8
0
  5
1EAA
 10
346.354
 20
200.845
 30
0.000000
  70
    32
  0
VERTEX
  8
0
  5
1EAB
 10
346.344
 20
200.716
 30
0.000000
  70
    32
  0
VERTEX
  8
0
  5
1EAC
 10
346.336
 20
200.588
 30
0.000000
  70
    32
  0
VERTEX
  8
0
  5
1EAD
 10
346.332
 20
200.459
 30
0.000000
  70
    32
  0
VERTEX
  8
0
  5
1EAE
 10
346.330
 20
200.330
 30
0.000000
  70
    32
  0
VERTEX
  8
0
  5
1EAF
 10
346.332
 20
200.201
 30
0.000000
  70
    32
  0
VERTEX
  8
0
  5
1EB0
 10
346.336
 20
200.072
 30
0.000000
  70
    32
  0
VERTEX
  8
0
  5
1EB1
 10
346.344
 20
199.944
 30
0.000000
  70
    32
  0
VERTEX
  8
0
  5
1EB2
 10
346.354
 20
199.815
 30
0.000000
  70
    32
  0
VERTEX
  8
0
  5
1EB3
 10
346.367
 20
199.687
 30
0.000000
  70
    32
  0
VERTEX
  8
0
  5
1EB4
 10
346.383
 20
199.560
 30
0.000000
  70
    32
  0
VERTEX
  8
0
  5
1EB5
 10
346.402
 20
199.433
 30
0.000000
  70
    32
  0
VERTEX
  8
0
  5
1EB6
 10
346.423
 20
199.306
 30
0.000000
  70
    32
  0
VERTEX
  8
0
  5
1EB7
 10
346.448
 20
199.180
 30
0.000000
  70
    32
  0
VERTEX
  8
0
  5
1EB8
 10
346.476
 20
199.054
 30
0.000000
  70
    32
  0
VERTEX
  8
0
  5
1EB9
 10
346.506
 20
198.930
 30
0.000000
  70
    32
  0
VERTEX
  8
0
  5
1EBA
 10
346.539
 20
198.806
 30
0.000000
  70
    32
  0
VERTEX
  8
0
  5
1EBB
 10
346.575
 20
198.683
 30
0.000000
  70
    32
  0
VERTEX
  8
0
  5
1EBC
 10
346.613
 20
198.561
 30
0.000000
  70
    32
  0
VERTEX
  8
0
  5
1EBD
 10
346.655
 20
198.441
 30
0.000000
  70
    32
  0
VERTEX
  8
0
  5
1EBE
 10
346.699
 20
198.321
 30
0.000000
  70
    32
  0
VERTEX
  8
0
  5
1EBF
 10
346.746
 20
198.203
 30
0.000000
  70
    32
  0
VERTEX
  8
0
  5
1EC0
 10
346.795
 20
198.085
 30
0.000000
  70
    32
  0
VERTEX
  8
0
  5
1EC1
 10
346.847
 20
197.970
 30
0.000000
  70
    32
  0
VERTEX
  8
0
  5
1EC2
 10
346.902
 20
197.855
 30
0.000000
  70
    32
  0
VERTEX
  8
0
  5
1EC3
 10
346.959
 20
197.742
 30
0.000000
  70
    32
  0
VERTEX
  8
0
  5
1EC4
 10
347.019
 20
197.631
 30
0.000000
  70
    32
  0
VERTEX
  8
0
  5
1EC5
 10
347.082
 20
197.521
 30
0.000000
  70
    32
  0
VERTEX
  8
0
  5
1EC6
 10
347.146
 20
197.413
 30
0.000000
  70
    32
  0
VERTEX
  8
0
  5
1EC7
 10
347.214
 20
197.307
 30
0.000000
  70
    32
  0
VERTEX
  8
0
  5
1EC8
 10
347.283
 20
197.203
 30
0.000000
  70
    32
  0
VERTEX
  8
0
  5
1EC9
 10
347.355
 20
197.100
 30
0.000000
  70
    32
  0
VERTEX
  8
0
  5
1ECA
 10
347.429
 20
197.000
 30
0.000000
  70
    32
  0
VERTEX
  8
0
  5
1ECB
 10
347.506
 20
196.901
 30
0.000000
  70
    32
  0
VERTEX
  8
0
  5
1ECC
 10
347.585
 20
196.804
 30
0.000000
  70
    32
  0
VERTEX
  8
0
  5
1ECD
 10
347.666
 20
196.710
 30
0.000000
  70
    32
  0
VERTEX
  8
0
  5
1ECE
 10
347.749
 20
196.618
 30
0.000000
  70
    32
  0
VERTEX
  8
0
  5
1ECF
 10
347.834
 20
196.528
 30
0.000000
  70
    32
  0
VERTEX
  8
0
  5
1ED0
 10
347.921
 20
196.440
 30
0.000000
  70
    32
  0
VERTEX
  8
0
  5
1ED1
 10
348.010
 20
196.355
 30
0.000000
  70
    32
  0
VERTEX
  8
0
  5
1ED2
 10
348.101
 20
196.272
 30
0.000000
  70
    32
  0
VERTEX
  8
0
  5
1ED3
 10
348.193
 20
196.191
 30
0.000000
  70
    32
  0
VERTEX
  8
0
  5
1ED4
 10
348.288
 20
196.113
 30
0.000000
  70
    32
  0
VERTEX
  8
0
  5
1ED5
 10
348.384
 20
196.038
 30
0.000000
  70
    32
  0
VERTEX
  8
0
  5
1ED6
 10
348.482
 20
195.965
 30
0.000000
  70
    32
  0
VERTEX
  8
0
  5
1ED7
 10
348.582
 20
195.895
 30
0.000000
  70
    32
  0
VERTEX
  8
0
  5
1ED8
 10
348.683
 20
195.827
 30
0.000000
  70
    32
  0
VERTEX
  8
0
  5
1ED9
 10
348.786
 20
195.762
 30
0.000000
  70
    32
  0
VERTEX
  8
0
  5
1EDA
 10
348.890
 20
195.700
 30
0.000000
  70
    32
  0
VERTEX
  8
0
  5
1EDB
 10
348.995
 20
195.641
 30
0.000000
  70
    32
  0
VERTEX
  8
0
  5
1EDC
 10
349.102
 20
195.584
 30
0.000000
  70
    32
  0
VERTEX
  8
0
  5
1EDD
 10
349.210
 20
195.530
 30
0.000000
  70
    32
  0
VERTEX
  8
0
  5
1EDE
 10
349.319
 20
195.480
 30
0.000000
  70
    32
  0
VERTEX
  8
0
  5
1EDF
 10
349.430
 20
195.432
 30
0.000000
  70
    32
  0
VERTEX
  8
0
  5
1EE0
 10
349.541
 20
195.387
 30
0.000000
  70
    32
  0
VERTEX
  8
0
  5
1EE1
 10
349.654
 20
195.345
 30
0.000000
  70
    32
  0
VERTEX
  8
0
  5
1EE2
 10
349.767
 20
195.306
 30
0.000000
  70
    32
  0
VERTEX
  8
0
  5
1EE3
 10
349.881
 20
195.270
 30
0.000000
  70
    32
  0
VERTEX
  8
0
  5
1EE4
 10
349.996
 20
195.237
 30
0.000000
  70
    32
  0
VERTEX
  8
0
  5
1EE5
 10
350.112
 20
195.208
 30
0.000000
  70
    32
  0
VERTEX
  8
0
  5
1EE6
 10
350.228
 20
195.181
 30
0.000000
  70
    32
  0
VERTEX
  8
0
  5
1EE7
 10
350.345
 20
195.157
 30
0.000000
  70
    32
  0
VERTEX
  8
0
  5
1EE8
 10
350.462
 20
195.137
 30
0.000000
  70
    32
  0
VERTEX
  8
0
  5
1EE9
 10
350.580
 20
195.120
 30
0.000000
  70
    32
  0
VERTEX
  8
0
  5
1EEA
 10
350.698
 20
195.105
 30
0.000000
  70
    32
  0
VERTEX
  8
0
  5
1EEB
 10
350.816
 20
195.094
 30
0.000000
  70
    32
  0
VERTEX
  8
0
  5
1EEC
 10
350.935
 20
195.086
 30
0.000000
  70
    32
  0
VERTEX
  8
0
  5
1EED
 10
351.054
 20
195.082
 30
0.000000
  70
    32
  0
VERTEX
  8
0
  5
1EEE
 10
351.172
 20
195.080
 30
0.000000
  70
    32
  0
SEQEND
  8
0
  5
1EEF
  0
CIRCLE
  5
1345
  8
0
 10
339.42246672903627
 20
200.3300707046993
 30
0.0
 40
5.2499967267411867
  0
CIRCLE
  5
1346
  8
3
 10
339.42246352655809
 20
200.3300707046993
 30
0.0
 40
3.0
  0
CIRCLE
  5
1347
  8
0
 10
339.42246672903627
 20
200.3300707046993
 30
0.0
 40
2.4584967975218879
  0
LINE
  5
1349
  8
0
 10
325.48355165692578
 20
204.8300696745296
 30
0.0
 11
315.92246753369989
 21
204.8300696745296
 31
0.0
  0
LINE
  5
134A
  8
0
 10
336.71830791300499
 20
204.8300696745296
 30
0.0
 11
330.16650954206699
 21
204.8300696745296
 31
0.0
  0
LINE
  5
134B
  8
0
 10
348.67841751104908
 20
204.8300696745296
 30
0.0
 11
342.1266255450675
 21
204.8300696745296
 31
0.0
  0
LINE
  5
134C
  8
0
 10
330.42247049407399
 20
206.830070002355
 30
0.0
 11
330.42247049407382
 21
209.13006933677161
 31
0.0
  0
LINE
  5
134D
  8
0
 10
330.42247049407382
 20
209.13006933677161
 30
0.0
 11
330.92246964470758
 21
209.6300666247603
 31
0.0
  0
LINE
  5
134E
  8
0
 10
348.42246296399918
 20
209.13006933677161
 30
0.0
 11
347.92246381336543
 21
209.6300666247603
 31
0.0
  0
LINE
  5
134F
  8
0
 10
348.42246296399901
 20
206.830070002355
 30
0.0
 11
348.42246296399918
 21
209.13006933677161
 31
0.0
  0
LINE
  5
1350
  8
0
 10
347.92246381336543
 20
209.6300666247603
 30
0.0
 11
330.9224696447078
 21
209.63007337994969
 31
0.0
  0
LINE
  5
1351
  8
0
 10
330.42246373885962
 20
209.13006933677161
 30
0.0
 11
348.42246296399901
 21
209.1300693367713
 31
0.0
  0
ENDSEC
  0
EOF
