  0
SECTION
  2
HEADER
  9
$ACADVER
  1
AC1009
  9
$INSBASE
 10
0.0
 20
0.0
 30
0.0
  9
$EXTMIN
 10
0.0
 20
-2.960436562073669
 30
0.0
  9
$EXTMAX
 10
171.0
 20
180.0
 30
0.0
  9
$LIMMIN
 10
0.0
 20
0.0
  9
$LIMMAX
 10
770.0
 20
540.0
  9
$ORTHOMODE
 70
     1
  9
$REGENMODE
 70
     1
  9
$FILLMODE
 70
     1
  9
$QTEXTMODE
 70
     0
  9
$MIRRTEXT
 70
     0
  9
$DRAGMODE
 70
     2
  9
$LTSCALE
 40
5.0
  9
$OSMODE
 70
    37
  9
$ATTMODE
 70
     1
  9
$TEXTSIZE
 40
4.000000000000048
  9
$TRACEWID
 40
0.05
  9
$TEXTSTYLE
  7
STANDARD
  9
$CLAYER
  8
0
  9
$CELTYPE
  6
BYLAYER
  9
$CECOLOR
 62
   256
  9
$DIMSCALE
 40
2.0
  9
$DIMASZ
 40
3.0
  9
$DIMEXO
 40
2.0
  9
$DIMDLI
 40
0.38
  9
$DIMRND
 40
0.0
  9
$DIMDLE
 40
0.0
  9
$DIMEXE
 40
2.0
  9
$DIMTP
 40
0.0
  9
$DIMTM
 40
0.0
  9
$DIMTXT
 40
3.0
  9
$DIMCEN
 40
0.0
  9
$DIMTSZ
 40
0.0
  9
$DIMTOL
 70
     0
  9
$DIMLIM
 70
     0
  9
$DIMTIH
 70
     0
  9
$DIMTOH
 70
     0
  9
$DIMSE1
 70
     0
  9
$DIMSE2
 70
     0
  9
$DIMTAD
 70
     1
  9
$DIMZIN
 70
     0
  9
$DIMBLK
  1

  9
$DIMASO
 70
     0
  9
$DIMSHO
 70
     0
  9
$DIMPOST
  1

  9
$DIMAPOST
  1

  9
$DIMALT
 70
     0
  9
$DIMALTD
 70
     2
  9
$DIMALTF
 40
25.399999999999999
  9
$DIMLFAC
 40
1.0
  9
$DIMTOFL
 70
     0
  9
$DIMTVP
 40
1.6000000000000001
  9
$DIMTIX
 70
     1
  9
$DIMSOXD
 70
     0
  9
$DIMSAH
 70
     0
  9
$DIMBLK1
  1

  9
$DIMBLK2
  1

  9
$DIMSTYLE
  2
STANDARD
  9
$DIMCLRD
 70
     4
  9
$DIMCLRE
 70
     4
  9
$DIMCLRT
 70
     4
  9
$DIMTFAC
 40
1.0
  9
$DIMGAP
 40
0.09
  9
$LUNITS
 70
     2
  9
$LUPREC
 70
     1
  9
$SKETCHINC
 40
0.1
  9
$FILLETRAD
 40
0.0
  9
$AUNITS
 70
     0
  9
$AUPREC
 70
     0
  9
$MENU
  1
E:\r13\win\SUPPORT\ACAD
  9
$ELEVATION
 40
0.0
  9
$PELEVATION
 40
0.0
  9
$THICKNESS
 40
0.0
  9
$LIMCHECK
 70
     0
  9
$BLIPMODE
 70
     0
  9
$CHAMFERA
 40
1.1999999999999991
  9
$CHAMFERB
 40
1.1999999999999991
  9
$SKPOLY
 70
     0
  9
$TDCREATE
 40
2450158.583426042
  9
$TDUPDATE
 40
2457709.4733265052
  9
$TDINDWG
 40
0.3157966435
  9
$TDUSRTIMER
 40
0.3157966435
  9
$USRTIMER
 70
     1
  9
$ANGBASE
 50
0.0
  9
$ANGDIR
 70
     0
  9
$PDMODE
 70
     0
  9
$PDSIZE
 40
0.0
  9
$PLINEWID
 40
0.0
  9
$COORDS
 70
     1
  9
$SPLFRAME
 70
     0
  9
$SPLINETYPE
 70
     6
  9
$SPLINESEGS
 70
     8
  9
$ATTDIA
 70
     0
  9
$ATTREQ
 70
     1
  9
$HANDLING
 70
     1
  9
$HANDSEED
  5
3030
  9
$SURFTAB1
 70
     6
  9
$SURFTAB2
 70
     6
  9
$SURFTYPE
 70
     6
  9
$SURFU
 70
     6
  9
$SURFV
 70
     6
  9
$UCSNAME
  2

  9
$UCSORG
 10
0.0
 20
0.0
 30
0.0
  9
$UCSXDIR
 10
1.0
 20
0.0
 30
0.0
  9
$UCSYDIR
 10
0.0
 20
1.0
 30
0.0
  9
$PUCSNAME
  2

  9
$PUCSORG
 10
0.0
 20
0.0
 30
0.0
  9
$PUCSXDIR
 10
1.0
 20
0.0
 30
0.0
  9
$PUCSYDIR
 10
0.0
 20
1.0
 30
0.0
  9
$USERI1
 70
     3
  9
$USERI2
 70
     1
  9
$USERI3
 70
     0
  9
$USERI4
 70
     0
  9
$USERI5
 70
     0
  9
$USERR1
 40
2.0
  9
$USERR2
 40
3.0
  9
$USERR3
 40
3.0
  9
$USERR4
 40
3.0
  9
$USERR5
 40
10.0
  9
$WORLDVIEW
 70
     1
  9
$SHADEDGE
 70
     3
  9
$SHADEDIF
 70
    70
  9
$TILEMODE
 70
     1
  9
$MAXACTVP
 70
    16
  9
$PLIMCHECK
 70
     0
  9
$PEXTMIN
 10
1.0000000000000000E+020
 20
1.0000000000000000E+020
 30
1.0000000000000000E+020
  9
$PEXTMAX
 10
-1.0000000000000000E+020
 20
-1.0000000000000000E+020
 30
-1.0000000000000000E+020
  9
$PLIMMIN
 10
0.0
 20
0.0
  9
$PLIMMAX
 10
12.0
 20
9.0
  9
$UNITMODE
 70
     0
  9
$VISRETAIN
 70
     0
  9
$PLINEGEN
 70
     0
  9
$PSLTSCALE
 70
     0
  0
ENDSEC
  0
SECTION
  2
TABLES
  0
TABLE
  2
VPORT
 70
     1
  0
VPORT
  2
*ACTIVE
 70
     0
 10
0.0
 20
0.0
 11
1.0
 21
1.0
 12
186.06700508458081
 22
88.509260653793604
 13
0.0
 23
0.0
 14
10.0
 24
10.0
 15
10.0
 25
10.0
 16
0.0
 26
0.0
 36
1.0
 17
0.0
 27
0.0
 37
0.0
 40
184.62768914329371
 41
2.6019575856443709
 42
50.0
 43
0.0
 44
0.0
 50
0.0
 51
0.0
 71
     0
 72
   500
 73
     1
 74
     0
 75
     0
 76
     0
 77
     0
 78
     2
  0
ENDTAB
  0
TABLE
  2
LTYPE
 70
     3
  0
LTYPE
  2
CONTINUOUS
 70
     0
  3
Solid Line
 72
    65
 73
     0
 40
0.0
  0
LTYPE
  2
CENTER
 70
     0
  3
____ _ ____ _ ____ _ ____ _ ____ _ ____ _ ____
 72
    65
 73
     4
 40
2.0
 49
1.25
 49
-0.25
 49
0.25
 49
-0.25
  0
LTYPE
  2
PHANTOM2
 70
     0
  3
___ _ _ ___ _ _ ___ _ _ ___ _ _
 72
    65
 73
     6
 40
1.25
 49
0.625
 49
-0.125
 49
0.125
 49
-0.125
 49
0.125
 49
-0.125
  0
ENDTAB
  0
TABLE
  2
LAYER
 70
     3
  0
LAYER
  2
0
 70
     0
 62
     7
  6
CONTINUOUS
  0
LAYER
  2
1
 70
     0
 62
     1
  6
CENTER
  0
LAYER
  2
3
 70
     0
 62
     3
  6
CONTINUOUS
  0
ENDTAB
  0
TABLE
  2
STYLE
 70
     2
  0
STYLE
  2
STANDARD
 70
     0
 40
0.0
 41
1.0
 50
0.0
 71
     0
 42
4.000000000000048
  3
SIMPLEX
  4
BIGFONT
  0
STYLE
  2
STANDARD1
 70
     0
 40
0.0
 41
1.0
 50
0.0
 71
     0
 42
3.0
  3
txt
  4

  0
ENDTAB
  0
TABLE
  2
VIEW
 70
     1
  0
VIEW
  2
ALL
 70
     0
 40
179.5384664489153
 10
146.94997169852391
 20
89.769233224457665
 41
0.0
 11
0.0
 21
0.0
 31
1.0
 12
0.0
 22
0.0
 32
0.0
 42
50.0
 43
0.0
 44
0.0
 50
0.0
 71
     0
  0
ENDTAB
  0
TABLE
  2
UCS
 70
     0
  0
ENDTAB
  0
TABLE
  2
APPID
 70
     4
  0
APPID
  2
ACAD
 70
     0
  0
APPID
  2
ACAD_MLEADERVER
 70
     0
  0
APPID
  2
ACAD_NAV_VCDISPLAY
 70
     0
  0
APPID
  2
ACAD_EXEMPT_FROM_CAD_STANDARDS
 70
     0
  0
ENDTAB
  0
TABLE
  2
DIMSTYLE
 70
     1
  0
DIMSTYLE
  2
STANDARD
 70
     0
  3

  4

  5

  6

  7

 40
1.0
 41
0.18
 42
0.0625
 43
0.38
 44
0.18
 45
0.0
 46
0.0
 47
0.0
 48
0.0
140
0.18
141
0.09
142
0.0
143
25.399999999999999
144
1.0
145
0.0
146
1.0
147
0.09
 71
     0
 72
     0
 73
     1
 74
     1
 75
     0
 76
     0
 77
     0
 78
     0
170
     0
171
     2
172
     0
173
     0
174
     0
175
     0
176
     0
177
     0
178
     0
  0
ENDTAB
  0
ENDSEC
  0
SECTION
  2
BLOCKS
  0
BLOCK
  8
0
  2
$MODEL_SPACE
 70
     0
 10
0.0
 20
0.0
 30
0.0
  3
$MODEL_SPACE
  1

  0
ENDBLK
  5
644
  8
0
  0
BLOCK
 67
     1
  8
0
  2
$PAPER_SPACE
 70
     0
 10
0.0
 20
0.0
 30
0.0
  3
$PAPER_SPACE
  1

  0
ENDBLK
  5
642
 67
     1
  8
0
  0
ENDSEC
  0
SECTION
  2
ENTITIES
  0
TEXT
  5
D9B
  8
0
 62
     3
 10
0.0
 20
0.0
 30
0.0
 40
10.0
  1
QLCCS-05X30
  7
STANDARD1
  0
LINE
  5
2592
  8
0
 10
107.0
 20
120.682
 30
0.0
 11
107.0
 21
122.682
 31
0.0
  0
LINE
  5
2593
  8
0
 10
92.999999999999972
 20
122.682
 30
0.0
 11
93.000000000000057
 21
120.682
 31
0.0
  0
ARC
  5
2598
  8
0
 10
115.09422428704831
 20
171.71577078045999
 30
0.0
 40
38.342026477085781
 50
269.48893929985633
 51
283.0905351456538
  0
LINE
  5
259D
  8
0
 10
92.999999999999972
 20
122.682
 30
0.0
 11
107.0
 21
122.682
 31
0.0
  0
LINE
  5
259E
  8
0
 10
93.200000000000017
 20
122.682
 30
0.0
 11
93.200000000000017
 21
122.682
 31
0.0
  0
LINE
  5
259F
  8
0
 10
107.0
 20
120.682
 30
0.0
 11
93.000000000000085
 21
120.682
 31
0.0
  0
CIRCLE
  5
25A1
  8
0
 10
100.0
 20
130.0
 30
0.0
 40
1.25
  0
CIRCLE
  5
25A3
  8
0
 10
100.0
 20
130.0
 30
0.0
 40
4.0
  0
ARC
  5
25A4
  8
0
 10
114.9113496655
 20
173.3749530659
 30
0.0
 40
40.000000000003382
 50
282.80739752260013
 51
289.1257793525005
  0
ARC
  5
25A5
  8
0
 10
124.64641276899999
 20
143.16453491839999
 30
0.0
 40
14.288231879677319
 50
267.2249459333006
 51
292.32584380309981
  0
POLYLINE
  5
25A6
  8
0
 66
     1
 10
0.0
 20
0.0
 30
0.0
 70
   128
  0
VERTEX
  5
2F1B
  8
0
 10
123.9546495040999
 20
128.89305868669999
 30
0.0
  0
VERTEX
  5
2F1C
  8
0
 10
122.3370640575
 20
129.0230922225
 30
0.0
  0
VERTEX
  5
2F1D
  8
0
 10
120.7421644114999
 20
129.22968482659999
 30
0.0
  0
VERTEX
  5
2F1E
  8
0
 10
119.14204380229999
 20
129.475723988
 30
0.0
  0
VERTEX
  5
2F1F
  8
0
 10
118.43780596729999
 20
129.58764924139999
 30
0.0
  0
VERTEX
  5
2F20
  8
0
 10
117.7057443994
 20
129.7021820121
 30
0.0
  0
VERTEX
  5
2F21
  8
0
 10
117.0355592485999
 20
129.80277372719999
 30
0.0
  0
VERTEX
  5
2F22
  8
0
 10
116.80948834909999
 20
129.83533032829999
 30
0.0
  0
VERTEX
  5
2F23
  8
0
 10
116.5753706202
 20
129.86813795180001
 30
0.0
  0
VERTEX
  5
2F24
  8
0
 10
116.3333694401
 20
129.9009574092
 30
0.0
  0
VERTEX
  5
2F25
  8
0
 10
116.0836694851
 20
129.93351747989999
 30
0.0
  0
VERTEX
  5
2F26
  8
0
 10
115.8264784001
 20
129.96551237119999
 30
0.0
  0
VERTEX
  5
2F27
  8
0
 10
115.56202853000001
 20
129.9965990872
 30
0.0
  0
VERTEX
  5
2F28
  8
0
 10
115.29057871009999
 20
130.02639470669999
 30
0.0
  0
VERTEX
  5
2F29
  8
0
 10
115.0424274606
 20
130.05157113280001
 30
0.0
  0
VERTEX
  5
2F2A
  8
0
 10
114.6955039020999
 20
130.08311406300001
 30
0.0
  0
VERTEX
  5
2F2B
  8
0
 10
114.2529644909
 20
130.11639385780001
 30
0.0
  0
VERTEX
  5
2F2C
  8
0
 10
113.81856006389999
 20
130.14038694210001
 30
0.0
  0
VERTEX
  5
2F2D
  8
0
 10
113.45206135799999
 20
130.15299438459999
 30
0.0
  0
VERTEX
  5
2F2E
  8
0
 10
113.1468701695
 20
130.1574982194
 30
0.0
  0
VERTEX
  5
2F2F
  8
0
 10
112.7666595709
 20
130.1545855
 30
0.0
  0
VERTEX
  5
2F30
  8
0
 10
112.3301975068
 20
130.1380817301
 30
0.0
  0
VERTEX
  5
2F31
  8
0
 10
111.92066585329999
 20
130.10795895019999
 30
0.0
  0
VERTEX
  5
2F32
  8
0
 10
111.53750313490001
 20
130.0650288471
 30
0.0
  0
VERTEX
  5
2F33
  8
0
 10
111.1800458849
 20
130.0102598654
 30
0.0
  0
VERTEX
  5
2F34
  8
0
 10
110.8475444857
 20
129.9447531294
 30
0.0
  0
VERTEX
  5
2F35
  8
0
 10
110.2917998129
 20
129.79830441639999
 30
0.0
  0
VERTEX
  5
2F36
  8
0
 10
109.77186269969999
 20
129.60998911230001
 30
0.0
  0
VERTEX
  5
2F37
  8
0
 10
109.5249581832
 20
129.49924471009999
 30
0.0
  0
VERTEX
  5
2F38
  8
0
 10
109.2760477293
 20
129.37106610890001
 30
0.0
  0
VERTEX
  5
2F39
  8
0
 10
109.0265182829
 20
129.22337014799999
 30
0.0
  0
VERTEX
  5
2F3A
  8
0
 10
108.7778795822
 20
129.05388803829999
 30
0.0
  0
VERTEX
  5
2F3B
  8
0
 10
108.5862058716
 20
128.9054766914
 30
0.0
  0
VERTEX
  5
2F3C
  8
0
 10
108.3838753125
 20
128.72914617379999
 30
0.0
  0
VERTEX
  5
2F3D
  8
0
 10
108.1736818184
 20
128.52070104270001
 30
0.0
  0
VERTEX
  5
2F3E
  8
0
 10
107.9588146621
 20
128.27534959760001
 30
0.0
  0
VERTEX
  5
2F3F
  8
0
 10
107.7405020968
 20
127.9841867649
 30
0.0
  0
VERTEX
  5
2F40
  8
0
 10
107.5392716434
 20
127.6673697336
 30
0.0
  0
VERTEX
  5
2F41
  8
0
 10
107.358242233
 20
127.3218188507
 30
0.0
  0
SEQEND
  5
2F42
  8
0
  0
ARC
  5
25A7
  8
0
 10
114.9113496655
 20
173.3749530659
 30
0.0
 40
40.000000000002252
 50
256.31244876600022
 51
269.77207692230002
  0
ARC
  5
25A8
  8
0
 10
129.00370453420001
 20
132.76592288719999
 30
0.0
 40
2.9847523599050398
 50
3.317766887699543
 51
109.30264439589941
  0
ARC
  5
25A9
  8
0
 10
100.22372529579999
 20
130.3576965211
 30
0.0
 40
7.7535724125946217
 50
314.7208043422001
 51
336.94929053559957
  0
POLYLINE
  5
25AB
  8
0
 66
     1
 10
0.0
 20
0.0
 30
0.0
 70
   128
  0
VERTEX
  5
2F43
  8
0
 10
101.5
 20
135.690265192
 30
0.0
  0
VERTEX
  5
2F44
  8
0
 10
103.457944545
 20
135.04977190330001
 30
0.0
  0
VERTEX
  5
2F45
  8
0
 10
105.4462676615
 20
134.5109308518
 30
0.0
  0
SEQEND
  5
2F46
  8
0
  0
ARC
  5
25AC
  8
0
 10
100.46216530389999
 20
130.04705512979999
 30
0.0
 40
7.3652331354812359
 50
270.39834754760079
 51
315.10324574409998
  0
POLYLINE
  5
25AD
  8
0
 66
     1
 10
0.0
 20
0.0
 30
0.0
 70
   128
  0
VERTEX
  5
2F47
  8
0
 10
100.1653242372
 20
122.682
 30
0.0
  0
VERTEX
  5
2F48
  8
0
 10
99.331803903099996
 20
122.7515279039
 30
0.0
  0
VERTEX
  5
2F49
  8
0
 10
98.393929317100003
 20
122.95731073020001
 30
0.0
  0
VERTEX
  5
2F4A
  8
0
 10
97.498148422900002
 20
123.2823823702
 30
0.0
  0
VERTEX
  5
2F4B
  8
0
 10
96.660124817600007
 20
123.720217816
 30
0.0
  0
VERTEX
  5
2F4C
  8
0
 10
95.893380354300007
 20
124.2609150947
 30
0.0
  0
VERTEX
  5
2F4D
  8
0
 10
95.209894267699994
 20
124.89301285329999
 30
0.0
  0
VERTEX
  5
2F4E
  8
0
 10
94.621287213800002
 20
125.60466854169999
 30
0.0
  0
VERTEX
  5
2F4F
  8
0
 10
94.135886708399994
 20
126.3817790152
 30
0.0
  0
VERTEX
  5
2F50
  8
0
 10
93.760154532499996
 20
127.2094871
 30
0.0
  0
VERTEX
  5
2F51
  8
0
 10
93.500034508999988
 20
128.0727065291
 30
0.0
  0
VERTEX
  5
2F52
  8
0
 10
93.357569388200005
 20
128.9555712671
 30
0.0
  0
VERTEX
  5
2F53
  8
0
 10
93.332963511600013
 20
129.84225788270001
 30
0.0
  0
VERTEX
  5
2F54
  8
0
 10
93.425807948099987
 20
130.716933657
 30
0.0
  0
VERTEX
  5
2F55
  8
0
 10
93.631827923499998
 20
131.56457906240001
 30
0.0
  0
VERTEX
  5
2F56
  8
0
 10
93.945228069600006
 20
132.3708736465
 30
0.0
  0
VERTEX
  5
2F57
  8
0
 10
94.359598401099987
 20
133.12174784370001
 30
0.0
  0
VERTEX
  5
2F58
  8
0
 10
94.865328465999994
 20
133.8053800237
 30
0.0
  0
VERTEX
  5
2F59
  8
0
 10
95.451794445800004
 20
134.41107716240001
 30
0.0
  0
VERTEX
  5
2F5A
  8
0
 10
96.107868247699997
 20
134.92865657600001
 30
0.0
  0
VERTEX
  5
2F5B
  8
0
 10
96.820394099699996
 20
135.3512202318
 30
0.0
  0
VERTEX
  5
2F5C
  8
0
 10
97.575781714200005
 20
135.6731681334
 30
0.0
  0
VERTEX
  5
2F5D
  8
0
 10
98.360157632799996
 20
135.8896203212
 30
0.0
  0
VERTEX
  5
2F5E
  8
0
 10
99.159091576500003
 20
135.99945360410001
 30
0.0
  0
VERTEX
  5
2F5F
  8
0
 10
99.958258773699981
 20
136.0027702303
 30
0.0
  0
VERTEX
  5
2F60
  8
0
 10
100.7433359923
 20
135.8996731197
 30
0.0
  0
VERTEX
  5
2F61
  8
0
 10
101.4999999999
 20
135.690265192
 30
0.0
  0
VERTEX
  5
2F62
  8
0
 10
101.4999999999
 20
135.690265192
 30
0.0
  0
SEQEND
  5
2F63
  8
0
  0
ARC
  5
25AE
  8
0
 10
129.0
 20
132.74848470160001
 30
0.0
 40
2.9999999999999858
 50
290.98013302199979
 51
0.0
  0
LINE
  5
25B2
  8
0
 10
100.4427457318
 20
130.74429578589999
 30
0.0
 11
99.576793807400009
 21
130.75557694419999
 31
0.0
  0
LINE
  5
25B3
  8
0
 10
99.576793807400009
 20
130.75557694419999
 30
0.0
 11
99.134048075500004
 21
130.01128115820001
 31
0.0
  0
LINE
  5
25B4
  8
0
 10
99.134048075500004
 20
130.01128115820001
 30
0.0
 11
99.557254268099996
 21
129.25570421410001
 31
0.0
  0
LINE
  5
25B5
  8
0
 10
99.557254268099996
 20
129.25570421410001
 30
0.0
 11
100.42320619260001
 21
129.24442305580001
 31
0.0
  0
LINE
  5
25B6
  8
0
 10
100.42320619260001
 20
129.24442305580001
 30
0.0
 11
100.86595192439989
 21
129.98871884170001
 31
0.0
  0
LINE
  5
25B7
  8
0
 10
100.86595192439989
 20
129.98871884170001
 30
0.0
 11
100.4427457318
 21
130.74429578589999
 31
0.0
  0
POLYLINE
  5
25C0
  8
0
 66
     1
 10
0.0
 20
0.0
 30
0.0
 70
   128
  0
VERTEX
  5
2F64
  8
0
 10
132.0
 20
132.74848470160001
 30
0.0
  0
VERTEX
  5
2F65
  8
0
 10
131.9924314017
 20
132.88388895899999
 30
0.0
  0
VERTEX
  5
2F66
  8
0
 10
131.98345420603621
 20
132.93866125337991
 30
0.0
  0
SEQEND
  5
2F67
  8
0
  0
LINE
  5
25D6
  8
0
 10
54.00000000000005
 20
134.0
 30
0.0
 11
53.499999999999879
 21
134.0
 31
0.0
  0
LINE
  5
25D7
  8
0
 10
66.500000000000028
 20
133.99999999999989
 30
0.0
 11
66.000000000000057
 21
134.0
 31
0.0
  0
LINE
  5
25D8
  8
0
 10
66.000000000000057
 20
126.0
 30
0.0
 11
66.500000000000057
 21
125.9999999999999
 31
0.0
  0
LINE
  5
25D9
  8
0
 10
53.50000000000005
 20
125.9999999999999
 30
0.0
 11
54.00000000000005
 21
126.0
 31
0.0
  0
LINE
  5
25DC
  8
0
 10
56.950000000000038
 20
136.0144715939
 30
0.0
 11
54.500000000000057
 21
136.0144715939
 31
0.0
  0
ARC
  5
25DE
  8
0
 10
56.950000608697913
 20
122.9701442727273
 30
0.0
 40
0.2999993915986963
 50
286.16110487315018
 51
359.99745246646188
  0
ARC
  5
25DF
  8
0
 10
63.050278367039937
 20
122.9705324490559
 30
0.0
 40
0.3004648031328728
 50
177.98150218785989
 51
253.79863024800599
  0
ARC
  5
25E0
  8
0
 10
63.050000716548368
 20
135.7144708747177
 30
0.0
 40
0.3000007191831631
 50
90.000136850316807
 51
180.00759371953021
  0
LINE
  5
25E1
  8
0
 10
65.500000000000057
 20
136.0144715939
 30
0.0
 11
63.050000000000061
 21
136.0144715939
 31
0.0
  0
ARC
  5
25E2
  8
0
 10
54.507861669698137
 20
135.5066604602948
 30
0.0
 40
0.5078719851141469
 50
90.886952810508305
 51
180.3651781754362
  0
ARC
  5
25E3
  8
0
 10
54.478763225200062
 20
123.15915938560001
 30
0.0
 40
0.4789105526337057
 50
178.5787731516007
 51
265.09875249460072
  0
ARC
  5
25E4
  8
0
 10
65.521236774900046
 20
123.15915938560001
 30
0.0
 40
0.4789105526337223
 50
274.90124750539928
 51
1.421226848399245
  0
ARC
  5
25E5
  8
0
 10
65.492138330299611
 20
135.50666046029389
 30
0.0
 40
0.5078719851149445
 50
359.63482182467487
 51
89.113047190464002
  0
POLYLINE
  5
25E6
  8
0
 66
     1
 10
0.0
 20
0.0
 30
0.0
 70
   128
  0
VERTEX
  5
2F68
  8
0
 10
52.016694631600053
 20
133.5724385986
 30
0.0
  0
VERTEX
  5
2F69
  8
0
 10
52.000000000000057
 20
133.39500265199999
 30
0.0
  0
SEQEND
  5
2F6A
  8
0
  0
POLYLINE
  5
25E7
  8
0
 66
     1
 10
0.0
 20
0.0
 30
0.0
 70
   128
  0
VERTEX
  5
2F6B
  8
0
 10
68.000000000000057
 20
133.39500265199999
 30
0.0
  0
VERTEX
  5
2F6C
  8
0
 10
67.983305368500055
 20
133.5724385986
 30
0.0
  0
SEQEND
  5
2F6D
  8
0
  0
LINE
  5
25EA
  8
0
 10
53.06162148420006
 20
128.87443365990001
 30
0.0
 11
53.50000000000005
 21
128.87443365990001
 31
0.0
  0
LINE
  5
25EB
  8
0
 10
66.500000000000057
 20
128.87443365990001
 30
0.0
 11
66.93688504990007
 21
128.87443365990001
 31
0.0
  0
ARC
  5
25F0
  8
0
 10
54.494123894600051
 20
132.68930907129999
 30
0.0
 40
2.630128041557747
 50
100.8285444368997
 51
160.3803675045998
  0
ARC
  5
25F1
  8
0
 10
65.488599502700055
 20
132.66915528530001
 30
0.0
 40
2.653201481422832
 50
19.904312824200382
 51
78.88677523419976
  0
ARC
  5
25F2
  8
0
 10
53.025845545000038
 20
129.89988381149999
 30
0.0
 40
1.025875610024497
 50
180.4386543032002
 51
271.65028150900059
  0
ARC
  5
25F3
  8
0
 10
66.974427726400052
 20
129.89960039089999
 30
0.0
 40
1.025600215490807
 50
268.3340023704996
 51
359.57706181729981
  0
LINE
  5
25F4
  8
0
 10
62.751934463692997
 20
135.74848470160001
 30
0.0
 11
57.248065536307109
 21
135.74848470159989
 31
0.0
  0
LINE
  5
25F9
  8
0
 10
53.50000000000005
 20
125.9999999999999
 30
0.0
 11
53.499999999999879
 21
134.0
 31
0.0
  0
ARC
  5
25FC
  8
0
 10
60.000596866900047
 20
120.2173138232
 30
0.0
 40
6.7421967143691637
 50
65.933893083999664
 51
114.0772175999
  0
ARC
  5
25FD
  8
0
 10
60.000063736900067
 20
139.74760225310001
 30
0.0
 40
6.7753219683697452
 50
246.05282696090069
 51
293.94599352540058
  0
LINE
  5
25FE
  8
0
 10
66.500000000000028
 20
133.99999999999989
 30
0.0
 11
66.500000000000057
 21
125.9999999999999
 31
0.0
  0
LINE
  5
2600
  8
0
 10
57.25000000000005
 20
135.71443111400001
 30
0.0
 11
57.25000000000005
 21
122.97013093389999
 31
0.0
  0
LINE
  5
2601
  8
0
 10
62.75000000000005
 20
122.9811154642
 30
0.0
 11
62.75000000000005
 21
135.71443111400001
 31
0.0
  0
LINE
  5
2603
  8
0
 10
54.00000000000005
 20
123.17103758579999
 30
0.0
 11
54.00000000000005
 21
135.50342352889999
 31
0.0
  0
LINE
  5
2604
  8
0
 10
66.000000000000057
 20
135.50342352889999
 30
0.0
 11
66.000000000000057
 21
123.17103758579999
 31
0.0
  0
LINE
  5
2606
  8
0
 10
52.000000000000057
 20
129.89202982360001
 30
0.0
 11
52.000000000000057
 21
133.39500265199999
 31
0.0
  0
LINE
  5
2608
  8
0
 10
68.000000000000057
 20
129.89202982360001
 30
0.0
 11
68.000000000000057
 21
133.39500265199999
 31
0.0
  0
LINE
  5
262C
  8
0
 10
166.0006455475
 20
126.0
 30
0.0
 11
166.49999999999989
 21
125.9999999999999
 31
0.0
  0
LINE
  5
262D
  8
0
 10
153.5
 20
125.9999999999999
 30
0.0
 11
153.9993544415
 21
126.0
 31
0.0
  0
LINE
  5
262F
  8
0
 10
164.15103746345
 20
135.74848470160001
 30
0.0
 11
155.84896253655
 21
135.74848470160001
 31
0.0
  0
POLYLINE
  5
2630
  8
0
 66
     1
 10
0.0
 20
0.0
 30
0.0
 70
   128
  0
VERTEX
  5
2F6E
  8
0
 10
165.17769443200001
 20
135.58142193539999
 30
0.0
  0
VERTEX
  5
2F6F
  8
0
 10
164.65325792009989
 20
135.71144383949999
 30
0.0
  0
VERTEX
  5
2F70
  8
0
 10
164.15103746345
 20
135.74848470160001
 30
0.0
  0
SEQEND
  5
2F71
  8
0
  0
POLYLINE
  5
2631
  8
0
 66
     1
 10
0.0
 20
0.0
 30
0.0
 70
   128
  0
VERTEX
  5
2F72
  8
0
 10
155.84896253655
 20
135.74848470160001
 30
0.0
  0
VERTEX
  5
2F73
  8
0
 10
155.3467420799
 20
135.71144383949999
 30
0.0
  0
VERTEX
  5
2F74
  8
0
 10
154.82230556799999
 20
135.58142193539999
 30
0.0
  0
SEQEND
  5
2F75
  8
0
  0
ARC
  5
2632
  8
0
 10
166.97405593308289
 20
129.8997600793987
 30
0.0
 40
1.025973189338931
 50
267.96545489853361
 51
359.56829747155132
  0
ARC
  5
2633
  8
0
 10
153.02621409797581
 20
129.90004199123331
 30
0.0
 40
1.0262453749633329
 50
180.4473277647318
 51
272.01891986295942
  0
LINE
  5
2634
  8
0
 10
153.06236821715001
 20
128.87443365990001
 30
0.0
 11
166.93763178284991
 21
128.87443365990001
 31
0.0
  0
POLYLINE
  5
2635
  8
0
 66
     1
 10
0.0
 20
0.0
 30
0.0
 70
   128
  0
VERTEX
  5
2F76
  8
0
 10
167.989642248
 20
133.47082886760001
 30
0.0
  0
VERTEX
  5
2F77
  8
0
 10
167.87872328399999
 20
133.88861956439999
 30
0.0
  0
VERTEX
  5
2F78
  8
0
 10
167.7225560048
 20
134.18585382949999
 30
0.0
  0
VERTEX
  5
2F79
  8
0
 10
167.5481591990999
 20
134.40016264689999
 30
0.0
  0
VERTEX
  5
2F7A
  8
0
 10
167.40405479209991
 20
134.53391466240001
 30
0.0
  0
VERTEX
  5
2F7B
  8
0
 10
167.32196466139999
 20
134.5987602127
 30
0.0
  0
VERTEX
  5
2F7C
  8
0
 10
167.27270691179999
 20
134.63470284159999
 30
0.0
  0
VERTEX
  5
2F7D
  8
0
 10
167.2049664034999
 20
134.68148686169999
 30
0.0
  0
VERTEX
  5
2F7E
  8
0
 10
167.1154898584999
 20
134.7393322291
 30
0.0
  0
VERTEX
  5
2F7F
  8
0
 10
166.9171416881
 20
134.85528965380001
 30
0.0
  0
VERTEX
  5
2F80
  8
0
 10
166.63533249220001
 20
134.9996854478
 30
0.0
  0
VERTEX
  5
2F81
  8
0
 10
166.2540462257999
 20
135.1710535741
 30
0.0
  0
VERTEX
  5
2F82
  8
0
 10
165.76452495129999
 20
135.36633500959999
 30
0.0
  0
VERTEX
  5
2F83
  8
0
 10
165.17784450790001
 20
135.58137098009999
 30
0.0
  0
SEQEND
  5
2F84
  8
0
  0
POLYLINE
  5
2636
  8
0
 66
     1
 10
0.0
 20
0.0
 30
0.0
 70
   128
  0
VERTEX
  5
2F85
  8
0
 10
154.82215549209999
 20
135.58137098009999
 30
0.0
  0
VERTEX
  5
2F86
  8
0
 10
154.23547504870001
 20
135.36633500959999
 30
0.0
  0
VERTEX
  5
2F87
  8
0
 10
153.7459537741999
 20
135.1710535741
 30
0.0
  0
VERTEX
  5
2F88
  8
0
 10
153.36466750779999
 20
134.9996854478
 30
0.0
  0
VERTEX
  5
2F89
  8
0
 10
153.08285831189991
 20
134.85528965380001
 30
0.0
  0
VERTEX
  5
2F8A
  8
0
 10
152.88451014149999
 20
134.7393322291
 30
0.0
  0
VERTEX
  5
2F8B
  8
0
 10
152.79503359660001
 20
134.68148686169999
 30
0.0
  0
VERTEX
  5
2F8C
  8
0
 10
152.72729308820001
 20
134.63470284159999
 30
0.0
  0
VERTEX
  5
2F8D
  8
0
 10
152.67803533860001
 20
134.5987602127
 30
0.0
  0
VERTEX
  5
2F8E
  8
0
 10
152.5959452079
 20
134.53391466240001
 30
0.0
  0
VERTEX
  5
2F8F
  8
0
 10
152.4518408008999
 20
134.40016264689999
 30
0.0
  0
VERTEX
  5
2F90
  8
0
 10
152.2774439952
 20
134.18585382949999
 30
0.0
  0
VERTEX
  5
2F91
  8
0
 10
152.12127671600001
 20
133.88861956439999
 30
0.0
  0
VERTEX
  5
2F92
  8
0
 10
152.0207519219
 20
133.49953790500001
 30
0.0
  0
SEQEND
  5
2F93
  8
0
  0
ARC
  5
2637
  8
0
 10
126.5230321455868
 20
128.0301916735834
 30
0.0
 40
27.475322110329561
 50
358.93363010168912
 51
1.7608207660097861
  0
ARC
  5
2638
  8
0
 10
192.4399265176651
 20
128.03646486650609
 30
0.0
 40
26.438589495741581
 50
178.18371107005589
 51
181.1217878049255
  0
LINE
  5
2639
  8
0
 10
165.5
 20
136.0144715939
 30
0.0
 11
163.0499999999999
 21
136.0144715939
 31
0.0
  0
ARC
  5
263A
  8
0
 10
163.04999998349999
 20
135.71447089329999
 30
0.0
 40
0.2999999855799647
 50
90.023082796000651
 51
173.4898417917002
  0
ARC
  5
263B
  8
0
 10
163.04999927270001
 20
122.97014418320001
 30
0.0
 40
0.2999992726524729
 50
179.9927793093004
 51
253.8389121308002
  0
ARC
  5
263C
  8
0
 10
156.95000013329991
 20
122.9701291625
 30
0.0
 40
0.2999998667357364
 50
286.17178266949998
 51
0.0015763742006733
  0
ARC
  5
263D
  8
0
 10
156.95000000979991
 20
135.71447117759999
 30
0.0
 40
0.2999999914482845
 50
6.510103435600068
 51
90.007435327900751
  0
LINE
  5
263E
  8
0
 10
156.94999999999999
 20
136.0144715939
 30
0.0
 11
154.5
 21
136.0144715939
 31
0.0
  0
ARC
  5
263F
  8
0
 10
165.5212367748
 20
123.15915938560001
 30
0.0
 40
0.4789105526336727
 50
274.90124750539928
 51
1.421226848399245
  0
ARC
  5
2640
  8
0
 10
165.49338631789999
 20
135.5071645708
 30
0.0
 40
0.5066274945912724
 50
359.5769122998002
 51
89.252020787599847
  0
ARC
  5
2641
  8
0
 10
154.50661368210001
 20
135.5071645708
 30
0.0
 40
0.5066274945897971
 50
90.747979212299171
 51
180.4230877001998
  0
ARC
  5
2642
  8
0
 10
154.4787632252
 20
123.15915938560001
 30
0.0
 40
0.478910552633675
 50
178.5787731516007
 51
265.09875249460072
  0
LINE
  5
2647
  8
0
 10
166.5
 20
128.87443365990001
 30
0.0
 11
166.49999999999989
 21
125.9999999999999
 31
0.0
  0
LINE
  5
264B
  8
0
 10
153.5
 20
125.9999999999999
 30
0.0
 11
153.5
 21
128.87443365990001
 31
0.0
  0
POLYLINE
  5
264C
  8
0
 66
     1
 10
0.0
 20
0.0
 30
0.0
 70
   128
  0
VERTEX
  5
2F94
  8
0
 10
168.0
 20
133.39500265199999
 30
0.0
  0
VERTEX
  5
2F95
  8
0
 10
167.989642248
 20
133.47082886760001
 30
0.0
  0
VERTEX
  5
2F96
  8
0
 10
167.95993228579991
 20
133.5331483459
 30
0.0
  0
SEQEND
  5
2F97
  8
0
  0
LINE
  5
264D
  8
0
 10
168.0
 20
129.89202982360001
 30
0.0
 11
168.0
 21
133.39500265199999
 31
0.0
  0
LINE
  5
2650
  8
0
 10
152.0
 20
129.89202982360001
 30
0.0
 11
152.0
 21
133.39500265199999
 31
0.0
  0
POLYLINE
  5
2651
  8
0
 66
     1
 10
0.0
 20
0.0
 30
0.0
 70
   128
  0
VERTEX
  5
2F98
  8
0
 10
152.044248522
 20
133.53142242210001
 30
0.0
  0
VERTEX
  5
2F99
  8
0
 10
152.0207519219
 20
133.49953790500001
 30
0.0
  0
VERTEX
  5
2F9A
  8
0
 10
152.0
 20
133.39500265199999
 30
0.0
  0
SEQEND
  5
2F9B
  8
0
  0
ARC
  5
2653
  8
0
 10
541.22199377280003
 20
125.3233530354
 30
0.0
 40
375.22201277282869
 50
179.66474786040021
 51
180.0182335221007
  0
ARC
  5
2654
  8
0
 10
-221.22322576299999
 20
125.3233496271
 30
0.0
 40
375.22324476183769
 50
359.98176705820021
 51
0.3352515593003367
  0
LINE
  5
2657
  8
0
 10
162.75
 20
128.87443365990001
 30
0.0
 11
162.75
 21
128.87443365990001
 31
0.0
  0
LINE
  5
2658
  8
0
 10
157.25
 20
128.87443365990001
 30
0.0
 11
157.25
 21
128.87443365990001
 31
0.0
  0
LINE
  5
2659
  8
0
 10
162.75
 20
122.97120902349999
 30
0.0
 11
162.75
 21
128.87443365990001
 31
0.0
  0
LINE
  5
265A
  8
0
 10
157.25
 20
128.87443365990001
 30
0.0
 11
157.25
 21
122.9779700247
 31
0.0
  0
LINE
  5
265B
  8
0
 10
166.0
 20
125.20394426199999
 30
0.0
 11
166.0
 21
123.17103758579999
 31
0.0
  0
LINE
  5
265C
  8
0
 10
166.0
 20
135.50342352889999
 30
0.0
 11
166.0
 21
135.27239852939999
 31
0.0
  0
LINE
  5
265D
  8
0
 10
154.0
 20
135.27239852939999
 30
0.0
 11
154.0
 21
135.50342352889999
 31
0.0
  0
LINE
  5
265E
  8
0
 10
154.0
 20
123.17103758579999
 30
0.0
 11
154.0
 21
125.20394426199999
 31
0.0
  0
POLYLINE
  5
265F
  8
0
 66
     1
 10
0.0
 20
0.0
 30
0.0
 70
   128
  0
VERTEX
  5
2F9C
  8
0
 10
165.76272231070001
 20
134.1656870864
 30
0.0
  0
VERTEX
  5
2F9D
  8
0
 10
165.51890508700001
 20
134.21939266839999
 30
0.0
  0
VERTEX
  5
2F9E
  8
0
 10
165.2471389335
 20
134.24568682110001
 30
0.0
  0
VERTEX
  5
2F9F
  8
0
 10
164.94581871899999
 20
134.2445695445
 30
0.0
  0
VERTEX
  5
2FA0
  8
0
 10
164.61347004469991
 20
134.21604083860001
 30
0.0
  0
VERTEX
  5
2FA1
  8
0
 10
164.36215200199999
 20
134.17974183800001
 30
0.0
  0
VERTEX
  5
2FA2
  8
0
 10
164.0934898015999
 20
134.12972471040001
 30
0.0
  0
VERTEX
  5
2FA3
  8
0
 10
163.80709734089999
 20
134.06598945580001
 30
0.0
  0
VERTEX
  5
2FA4
  8
0
 10
163.50267588610001
 20
133.98853607410001
 30
0.0
  0
VERTEX
  5
2FA5
  8
0
 10
163.18002881059999
 20
133.89736456540001
 30
0.0
  0
VERTEX
  5
2FA6
  8
0
 10
162.98682055649999
 20
133.83889541089999
 30
0.0
  0
VERTEX
  5
2FA7
  8
0
 10
162.7838377281
 20
133.77479006639999
 30
0.0
  0
VERTEX
  5
2FA8
  8
0
 10
162.57098821010001
 20
133.70504853189999
 30
0.0
  0
VERTEX
  5
2FA9
  8
0
 10
162.34820832459999
 20
133.62967080729999
 30
0.0
  0
VERTEX
  5
2FAA
  8
0
 10
162.11546670579989
 20
133.54865689260001
 30
0.0
  0
VERTEX
  5
2FAB
  8
0
 10
161.87276831969999
 20
133.46200678790001
 30
0.0
  0
VERTEX
  5
2FAC
  8
0
 10
161.62015861229989
 20
133.36972049319999
 30
0.0
  0
VERTEX
  5
2FAD
  8
0
 10
161.2048315022999
 20
133.21363630350001
 30
0.0
  0
VERTEX
  5
2FAE
  8
0
 10
160.6648511306
 20
133.00655770629999
 30
0.0
  0
VERTEX
  5
2FAF
  8
0
 10
160.0
 20
132.74848470160001
 30
0.0
  0
SEQEND
  5
2FB0
  8
0
  0
ARC
  5
2660
  8
0
 10
165.09160687810001
 20
127.70205137950001
 30
0.0
 40
6.4983830662181994
 50
63.807357372999192
 51
84.072254004399383
  0
ARC
  5
2661
  8
0
 10
161.34500165450001
 20
118.1899082929
 30
0.0
 40
13.462119123677409
 50
60.373103459099852
 51
77.798595477200394
  0
ARC
  5
2662
  8
0
 10
171.51087928589999
 20
160.21844674530001
 30
0.0
 40
29.78420985381247
 50
247.26460350299999
 51
255.77144604139991
  0
ARC
  5
2664
  8
0
 10
152.74737146456181
 20
127.08502578570059
 30
0.0
 40
9.2019230362632811
 50
37.985694890094791
 51
70.302205960529591
  0
ARC
  5
2665
  8
0
 10
146.35642937980001
 20
145.8616687249
 30
0.0
 40
18.923599406490201
 50
302.75664533520052
 51
316.13559864010011
  0
ARC
  5
2666
  8
0
 10
173.0569326561
 20
145.14865496429999
 30
0.0
 40
18.006879599998289
 50
223.52216616160081
 51
237.58558986319969
  0
ARC
  5
2668
  8
0
 10
149.01539837440001
 20
158.6439226617
 30
0.0
 40
28.128902929470929
 50
283.97774961649941
 51
292.98620083899988
  0
ARC
  5
2669
  8
0
 10
162.10522264959999
 20
109.1613553867
 30
0.0
 40
23.0624453909519
 50
105.8412585059001
 51
115.9870425577991
  0
ARC
  5
266A
  8
0
 10
155.4934339621
 20
125.71397608389999
 30
0.0
 40
8.5445507460259016
 50
98.453839460100696
 51
113.80785798379929
  0
POLYLINE
  5
266B
  8
0
 66
     1
 10
0.0
 20
0.0
 30
0.0
 70
   128
  0
VERTEX
  5
2FB1
  8
0
 10
160.0
 20
132.74848470160001
 30
0.0
  0
VERTEX
  5
2FB2
  8
0
 10
159.65209155119999
 20
132.88388895899999
 30
0.0
  0
VERTEX
  5
2FB3
  8
0
 10
159.33517561129989
 20
133.0065472329
 30
0.0
  0
VERTEX
  5
2FB4
  8
0
 10
159.0495290049999
 20
133.11645952320001
 30
0.0
  0
VERTEX
  5
2FB5
  8
0
 10
158.79519502639999
 20
133.2136258301
 30
0.0
  0
VERTEX
  5
2FB6
  8
0
 10
158.5720463623
 20
133.29804615340001
 30
0.0
  0
VERTEX
  5
2FB7
  8
0
 10
158.3798413877
 20
133.36972049319999
 30
0.0
  0
VERTEX
  5
2FB8
  8
0
 10
158.02898713619999
 20
133.4973337891
 30
0.0
  0
VERTEX
  5
2FB9
  8
0
 10
157.69758368309999
 20
133.61390484430001
 30
0.0
  0
VERTEX
  5
2FBA
  8
0
 10
157.38568952779991
 20
133.71943365870001
 30
0.0
  0
VERTEX
  5
2FBB
  8
0
 10
157.09322047309999
 20
133.81392023239999
 30
0.0
  0
VERTEX
  5
2FBC
  8
0
 10
156.81997118940001
 20
133.89736456540001
 30
0.0
  0
VERTEX
  5
2FBD
  8
0
 10
156.41954683529991
 20
134.00917853530001
 30
0.0
  0
VERTEX
  5
2FBE
  8
0
 10
156.04750937150001
 20
134.09956257089999
 30
0.0
  0
VERTEX
  5
2FBF
  8
0
 10
155.70340028119989
 20
134.16851667200001
 30
0.0
  0
VERTEX
  5
2FC0
  8
0
 10
155.38652995530001
 20
134.21604083860001
 30
0.0
  0
VERTEX
  5
2FC1
  8
0
 10
154.75287456870001
 20
134.24569045109999
 30
0.0
  0
VERTEX
  5
2FC2
  8
0
 10
154.2372776892999
 20
134.1656870864
 30
0.0
  0
SEQEND
  5
2FC3
  8
0
  0
POLYLINE
  5
2670
  8
0
 66
     1
 10
0.0
 20
0.0
 30
0.0
 70
   128
  0
VERTEX
  5
2FC4
  8
0
 10
166.93763178284991
 20
128.87443365990001
 30
0.0
  0
VERTEX
  5
2FC5
  8
0
 10
166.87069697659999
 20
128.8805983547
 30
0.0
  0
VERTEX
  5
2FC6
  8
0
 10
166.70908382289991
 20
128.9132230374
 30
0.0
  0
VERTEX
  5
2FC7
  8
0
 10
166.3845729066
 20
129.00607236959999
 30
0.0
  0
VERTEX
  5
2FC8
  8
0
 10
165.95046912699999
 20
129.15001990799999
 30
0.0
  0
VERTEX
  5
2FC9
  8
0
 10
165.43162444110001
 20
129.3298759457
 30
0.0
  0
VERTEX
  5
2FCA
  8
0
 10
164.8355771041
 20
129.53075106879999
 30
0.0
  0
VERTEX
  5
2FCB
  8
0
 10
164.15061807629999
 20
129.74399257690001
 30
0.0
  0
VERTEX
  5
2FCC
  8
0
 10
163.40454057839989
 20
129.9473708045
 30
0.0
  0
SEQEND
  5
2FCD
  8
0
  0
ARC
  5
2671
  8
0
 10
160.61588237062631
 20
110.3549045981884
 30
0.0
 40
20.000713305638911
 50
101.59625997636191
 51
112.1889512881247
  0
LINE
  5
2690
  8
0
 10
104.0
 20
163.5000000000002
 30
0.0
 11
104.0
 21
164.0
 31
0.0
  0
LINE
  5
2691
  8
0
 10
104.0
 20
167.25
 30
0.0
 11
104.0
 21
172.75
 31
0.0
  0
LINE
  5
2692
  8
0
 10
104.0
 20
176.0
 30
0.0
 11
104.0
 21
176.5
 31
0.0
  0
LINE
  5
2693
  8
0
 10
96.000000000000057
 20
176.5
 30
0.0
 11
96.0
 21
176.0
 31
0.0
  0
LINE
  5
2694
  8
0
 10
96.0
 20
172.75
 30
0.0
 11
96.0
 21
167.25
 31
0.0
  0
LINE
  5
2695
  8
0
 10
96.0
 20
164.0
 30
0.0
 11
96.000000000000028
 21
163.5
 31
0.0
  0
LINE
  5
2698
  8
0
 10
93.327954136399995
 20
175.5
 30
0.0
 11
93.327954136399995
 21
173.05000000000001
 31
0.0
  0
ARC
  5
2699
  8
0
 10
93.628000283229397
 20
173.0500191478535
 30
0.0
 40
0.3000461474403751
 50
180.00365640819581
 51
270.76864431512121
  0
ARC
  5
269A
  8
0
 10
93.629134825613335
 20
166.94951267753851
 30
0.0
 40
0.3011810834666884
 50
86.110335637682454
 51
179.9072932065761
  0
LINE
  5
269B
  8
0
 10
93.327954136399995
 20
166.94999999999999
 30
0.0
 11
93.327954136399995
 21
164.5
 31
0.0
  0
ARC
  5
269C
  8
0
 10
93.830052054099994
 20
164.5020953977
 30
0.0
 40
0.502101786937195
 50
180.2391104678
 51
270.28904581209929
  0
ARC
  5
269D
  8
0
 10
93.830052054099994
 20
175.4979046023
 30
0.0
 40
0.502101786937195
 50
89.710954187900725
 51
179.7608895322
  0
ARC
  5
269E
  8
0
 10
100.0
 20
170.0
 30
0.0
 40
7.0000000000000373
 50
248.21321070169961
 51
270.0
  0
ARC
  5
269F
  8
0
 10
100.0
 20
170.0
 30
0.0
 40
7.0000000000000089
 50
156.80928762000059
 51
203.19071243099961
  0
ARC
  5
26A0
  8
0
 10
100.0
 20
170.0
 30
0.0
 40
7.0000000000000107
 50
68.213210701699595
 51
111.78678929830041
  0
ARC
  5
26A1
  8
0
 10
100.0
 20
170.0
 30
0.0
 40
7.0000000000000018
 50
336.86760360070002
 51
23.132396399300049
  0
ARC
  5
26A2
  8
0
 10
100.0
 20
170.0
 30
0.0
 40
7.0000000000000266
 50
270.0
 51
291.7867892983005
  0
LINE
  5
26A8
  8
0
 10
96.000000000000057
 20
176.5
 30
0.0
 11
104.0
 21
176.5
 31
0.0
  0
ARC
  5
26AB
  8
0
 10
98.012864274500004
 20
169.999499066
 30
0.0
 40
4.7047238497654433
 50
324.23850874869999
 51
35.776528716900273
  0
ARC
  5
26AC
  8
0
 10
101.9932732793
 20
169.9995949476999
 30
0.0
 40
4.7105411522158356
 50
144.2758794922006
 51
215.7119840896998
  0
LINE
  5
26AE
  8
0
 10
104.0
 20
163.5000000000002
 30
0.0
 11
96.0
 21
163.5
 31
0.0
  0
LINE
  5
26AF
  8
0
 10
108.5
 20
172.75
 30
0.0
 11
93.632025393800006
 21
172.75
 31
0.0
  0
LINE
  5
26B0
  8
0
 10
93.649565539700006
 20
167.25
 30
0.0
 11
108.5
 21
167.25
 31
0.0
  0
LINE
  5
26B1
  8
0
 10
105.3279541364
 20
164.0
 30
0.0
 11
93.832585046999981
 21
164.0
 31
0.0
  0
LINE
  5
26B2
  8
0
 10
93.832585046999981
 20
176.0
 30
0.0
 11
105.3279541364
 21
176.0
 31
0.0
  0
ARC
  5
26B4
  8
0
 10
123.9999999999999
 20
169.99999999999989
 30
0.0
 40
8.0000000000000853
 50
270.0
 51
90.0
  0
LINE
  5
26B7
  8
0
 10
105.3279541364
 20
176.0
 30
0.0
 11
105.3279541364
 21
176.0
 31
0.0
  0
LINE
  5
26B8
  8
0
 10
105.3279541364
 20
164.0
 30
0.0
 11
105.3279541365
 21
164.0
 31
0.0
  0
LINE
  5
26B9
  8
0
 10
108.5
 20
167.25
 30
0.0
 11
108.5
 21
167.25
 31
0.0
  0
LINE
  5
26BA
  8
0
 10
108.5
 20
172.75
 30
0.0
 11
108.5
 21
172.75
 31
0.0
  0
POLYLINE
  5
26BB
  8
0
 66
     1
 10
0.0
 20
0.0
 30
0.0
 70
   128
  0
VERTEX
  5
2FCE
  8
0
 10
105.3279541364
 20
176.0
 30
0.0
  0
VERTEX
  5
2FCF
  8
0
 10
106.8549148053
 20
176.00594694470001
 30
0.0
  0
VERTEX
  5
2FD0
  8
0
 10
108.4093426263
 20
176.05107169259989
 30
0.0
  0
VERTEX
  5
2FD1
  8
0
 10
109.95471040859999
 20
176.17558316989999
 30
0.0
  0
VERTEX
  5
2FD2
  8
0
 10
111.5323018839
 20
176.39032857379999
 30
0.0
  0
VERTEX
  5
2FD3
  8
0
 10
113.0883736888
 20
176.65629633009999
 30
0.0
  0
VERTEX
  5
2FD4
  8
0
 10
114.61351235949989
 20
176.93726536400001
 30
0.0
  0
VERTEX
  5
2FD5
  8
0
 10
116.5118140245
 20
177.27487766449991
 30
0.0
  0
VERTEX
  5
2FD6
  8
0
 10
118.3760300006
 20
177.5671999043
 30
0.0
  0
VERTEX
  5
2FD7
  8
0
 10
120.26874698909999
 20
177.80056966590001
 30
0.0
  0
VERTEX
  5
2FD8
  8
0
 10
122.1595416211
 20
177.9497581709
 30
0.0
  0
VERTEX
  5
2FD9
  8
0
 10
124.0
 20
178.0
 30
0.0
  0
SEQEND
  5
2FDA
  8
0
  0
POLYLINE
  5
26BC
  8
0
 66
     1
 10
0.0
 20
0.0
 30
0.0
 70
   128
  0
VERTEX
  5
2FDB
  8
0
 10
124.0
 20
162.0
 30
0.0
  0
VERTEX
  5
2FDC
  8
0
 10
122.159563048
 20
162.0502406761
 30
0.0
  0
VERTEX
  5
2FDD
  8
0
 10
120.2687609556
 20
162.19942890019991
 30
0.0
  0
VERTEX
  5
2FDE
  8
0
 10
118.3760616603999
 20
162.43279559569999
 30
0.0
  0
VERTEX
  5
2FDF
  8
0
 10
116.5118613482
 20
162.72511431800001
 30
0.0
  0
VERTEX
  5
2FE0
  8
0
 10
114.61351235949989
 20
163.0627346359
 30
0.0
  0
VERTEX
  5
2FE1
  8
0
 10
112.7793916074
 20
163.39920169390001
 30
0.0
  0
VERTEX
  5
2FE2
  8
0
 10
110.9033212448
 20
163.7038496385
 30
0.0
  0
VERTEX
  5
2FE3
  8
0
 10
109.0273073396
 20
163.91061226369999
 30
0.0
  0
VERTEX
  5
2FE4
  8
0
 10
107.16456534460001
 20
163.9895482371
 30
0.0
  0
VERTEX
  5
2FE5
  8
0
 10
105.3279541364
 20
164.0
 30
0.0
  0
SEQEND
  5
2FE6
  8
0
  0
ARC
  5
26BD
  8
0
 10
108.5
 20
172.25
 30
0.0
 40
0.4999999999999433
 50
0.0
 51
90.0
  0
ARC
  5
26BE
  8
0
 10
108.5
 20
167.75
 30
0.0
 40
0.5
 50
270.0
 51
0.0
  0
LINE
  5
26BF
  8
0
 10
109.0
 20
167.75
 30
0.0
 11
109.0
 21
172.25
 31
0.0
  0
LINE
  5
26E4
  8
0
 10
95.999999999999943
 20
66.499999999999986
 30
0.0
 11
96.0
 21
65.999999999999972
 31
0.0
  0
LINE
  5
26E5
  8
0
 10
96.0
 20
53.999999999999972
 30
0.0
 11
95.999999999999972
 21
53.499999999999957
 31
0.0
  0
LINE
  5
26E6
  8
0
 10
104.0
 20
53.499999999999901
 30
0.0
 11
104.0
 21
53.999999999999972
 31
0.0
  0
LINE
  5
26E7
  8
0
 10
104.0
 20
65.999999999999972
 30
0.0
 11
104.0
 21
66.5
 31
0.0
  0
LINE
  5
26EA
  8
0
 10
93.327954136399995
 20
56.949999999999967
 30
0.0
 11
93.327954136399995
 21
54.499999999999972
 31
0.0
  0
ARC
  5
26EB
  8
0
 10
93.627954136899987
 20
56.949999999999967
 30
0.0
 40
0.3000000000000003
 50
101.9951039916005
 51
180.13731542070011
  0
LINE
  5
26EC
  8
0
 10
93.327954136399995
 20
65.499999999999972
 30
0.0
 11
93.327954136399995
 21
63.049999999999983
 31
0.0
  0
ARC
  5
26ED
  8
0
 10
93.627954165999995
 20
63.049999999999983
 30
0.0
 40
0.3000000000000061
 50
180.25304005409961
 51
258.00489079959982
  0
ARC
  5
26EE
  8
0
 10
93.830052054099994
 20
54.502095397699968
 30
0.0
 40
0.5021017869371601
 50
180.2391104678
 51
270.28904581209929
  0
ARC
  5
26EF
  8
0
 10
93.830052054099994
 20
65.497904602299968
 30
0.0
 40
0.5021017869371458
 50
89.710954187900725
 51
179.7608895322
  0
CIRCLE
  5
26F1
  8
0
 10
100.0
 20
59.999999999999972
 30
0.0
 40
7.0
  0
LINE
  5
26F4
  8
0
 10
104.0
 20
53.499999999999901
 30
0.0
 11
102.5980762113
 21
53.499999999999972
 31
0.0
  0
LINE
  5
26F5
  8
0
 10
97.401923788599987
 20
53.499999999999972
 30
0.0
 11
95.999999999999972
 21
53.499999999999957
 31
0.0
  0
LINE
  5
26FB
  8
0
 10
95.999999999999943
 20
66.499999999999986
 30
0.0
 11
97.401923788599987
 21
66.499999999999972
 31
0.0
  0
LINE
  5
26FC
  8
0
 10
102.5980762113
 20
66.499999999999972
 30
0.0
 11
104.0
 21
66.5
 31
0.0
  0
LINE
  5
26FD
  8
0
 10
106.4371965947918
 20
57.249999999999972
 30
0.0
 11
107.0825182615
 21
57.249999999999972
 31
0.0
  0
LINE
  5
26FE
  8
0
 10
107.0825182615
 20
62.749999999999972
 30
0.0
 11
106.4371965947918
 21
62.749999999999972
 31
0.0
  0
LINE
  5
26FF
  8
0
 10
105.3279541364
 20
53.999999999999972
 30
0.0
 11
103.60555127546399
 21
53.999999999999972
 31
0.0
  0
LINE
  5
2700
  8
0
 10
96.394448724536005
 20
53.999999999999972
 30
0.0
 11
93.832585046999981
 21
53.999999999999972
 31
0.0
  0
LINE
  5
2701
  8
0
 10
93.832585046999981
 20
65.999999999999972
 30
0.0
 11
96.394448724536005
 21
65.999999999999972
 31
0.0
  0
LINE
  5
2702
  8
0
 10
103.60555127546399
 20
65.999999999999972
 30
0.0
 11
105.3279541364
 21
65.999999999999972
 31
0.0
  0
ARC
  5
2703
  8
0
 10
105.6092393957
 20
188.38527196879991
 30
0.0
 40
122.3855952156177
 50
269.86831397630061
 51
270.60076035340012
  0
ARC
  5
2704
  8
0
 10
105.6092421757
 20
-68.384592842600028
 30
0.0
 40
122.3849160976214
 50
89.39923761440015
 51
90.131688055900327
  0
POLYLINE
  5
2705
  8
0
 66
     1
 10
0.0
 20
0.0
 30
0.0
 70
   128
  0
VERTEX
  5
2FE7
  8
0
 10
106.89246086350001
 20
66.006404274999966
 30
0.0
  0
VERTEX
  5
2FE8
  8
0
 10
107.0413382351
 20
66.008452591999983
 30
0.0
  0
VERTEX
  5
2FE9
  8
0
 10
107.1967408869
 20
66.011021994699973
 30
0.0
  0
VERTEX
  5
2FEA
  8
0
 10
107.36911834519989
 20
66.01443948109997
 30
0.0
  0
VERTEX
  5
2FEB
  8
0
 10
107.5534878582
 20
66.018820631599965
 30
0.0
  0
VERTEX
  5
2FEC
  8
0
 10
107.8264171613
 20
66.026836343999975
 30
0.0
  0
VERTEX
  5
2FED
  8
0
 10
108.12284993580001
 20
66.037857282899978
 30
0.0
  0
VERTEX
  5
2FEE
  8
0
 10
108.4429041105
 20
66.05279695539997
 30
0.0
  0
VERTEX
  5
2FEF
  8
0
 10
108.9220720424
 20
66.081839032799977
 30
0.0
  0
VERTEX
  5
2FF0
  8
0
 10
109.4483901955999
 20
66.124170327099975
 30
0.0
  0
VERTEX
  5
2FF1
  8
0
 10
109.7296930087
 20
66.15150463919997
 30
0.0
  0
VERTEX
  5
2FF2
  8
0
 10
110.02314011449999
 20
66.183277195099976
 30
0.0
  0
VERTEX
  5
2FF3
  8
0
 10
110.3287205213
 20
66.219641768299965
 30
0.0
  0
VERTEX
  5
2FF4
  8
0
 10
110.6464091109
 20
66.260708637199983
 30
0.0
  0
VERTEX
  5
2FF5
  8
0
 10
111.1689940127
 20
66.334722093399975
 30
0.0
  0
VERTEX
  5
2FF6
  8
0
 10
111.7297127492
 20
66.421793244599968
 30
0.0
  0
VERTEX
  5
2FF7
  8
0
 10
112.328193536
 20
66.521752441899963
 30
0.0
  0
VERTEX
  5
2FF8
  8
0
 10
112.96387499950001
 20
66.633821782999973
 30
0.0
  0
VERTEX
  5
2FF9
  8
0
 10
113.4812059051
 20
66.728001248199973
 30
0.0
  0
VERTEX
  5
2FFA
  8
0
 10
114.0327584707
 20
66.829897788499963
 30
0.0
  0
VERTEX
  5
2FFB
  8
0
 10
114.61783156520001
 20
66.938060133799965
 30
0.0
  0
VERTEX
  5
2FFC
  8
0
 10
115.23592086009999
 20
67.05085121259998
 30
0.0
  0
VERTEX
  5
2FFD
  8
0
 10
115.8681360985999
 20
67.163660588599981
 30
0.0
  0
VERTEX
  5
2FFE
  8
0
 10
116.56153986299999
 20
67.283288116499975
 30
0.0
  0
VERTEX
  5
2FFF
  8
0
 10
117.3168878093
 20
67.407301073199974
 30
0.0
  0
VERTEX
  5
3000
  8
0
 10
117.8669986395999
 20
67.492606248799973
 30
0.0
  0
VERTEX
  5
3001
  8
0
 10
118.358948963
 20
67.564769534499987
 30
0.0
  0
VERTEX
  5
3002
  8
0
 10
118.9542456251
 20
67.646285691999978
 30
0.0
  0
VERTEX
  5
3003
  8
0
 10
119.65448115220001
 20
67.733159635499973
 30
0.0
  0
VERTEX
  5
3004
  8
0
 10
120.3194070225
 20
67.805740345999979
 30
0.0
  0
VERTEX
  5
3005
  8
0
 10
120.91362207260001
 20
67.861754566699972
 30
0.0
  0
VERTEX
  5
3006
  8
0
 10
121.4230542607
 20
67.902710793399976
 30
0.0
  0
VERTEX
  5
3007
  8
0
 10
121.8464707744
 20
67.931558785899981
 30
0.0
  0
VERTEX
  5
3008
  8
0
 10
122.43938762799991
 20
67.963719903199973
 30
0.0
  0
VERTEX
  5
3009
  8
0
 10
122.9991209735
 20
67.98495827669997
 30
0.0
  0
VERTEX
  5
300A
  8
0
 10
123.51958378250001
 20
67.99651128509997
 30
0.0
  0
VERTEX
  5
300B
  8
0
 10
124.0
 20
67.999999999999972
 30
0.0
  0
SEQEND
  5
300C
  8
0
  0
POLYLINE
  5
2706
  8
0
 66
     1
 10
0.0
 20
0.0
 30
0.0
 70
   128
  0
VERTEX
  5
300D
  8
0
 10
124.0
 20
51.999999999999972
 30
0.0
  0
VERTEX
  5
300E
  8
0
 10
123.17893681459989
 20
52.010146635699982
 30
0.0
  0
VERTEX
  5
300F
  8
0
 10
122.2485144636
 20
52.045564806999977
 30
0.0
  0
VERTEX
  5
3010
  8
0
 10
121.4281602416
 20
52.096912852999978
 30
0.0
  0
VERTEX
  5
3011
  8
0
 10
120.93067091259999
 20
52.136767244299982
 30
0.0
  0
VERTEX
  5
3012
  8
0
 10
120.3517086475
 20
52.190994518399982
 30
0.0
  0
VERTEX
  5
3013
  8
0
 10
119.69228061459999
 20
52.262447018799982
 30
0.0
  0
VERTEX
  5
3014
  8
0
 10
118.98803531820001
 20
52.34929111389998
 30
0.0
  0
VERTEX
  5
3015
  8
0
 10
118.3761606395
 20
52.432781527799989
 30
0.0
  0
VERTEX
  5
3016
  8
0
 10
117.87192587049999
 20
52.506650913099968
 30
0.0
  0
VERTEX
  5
3017
  8
0
 10
117.4743281762
 20
52.567819495499968
 30
0.0
  0
VERTEX
  5
3018
  8
0
 10
116.86014446189991
 20
52.666818170699983
 30
0.0
  0
VERTEX
  5
3019
  8
0
 10
116.27928228659999
 20
52.764813992199969
 30
0.0
  0
VERTEX
  5
301A
  8
0
 10
115.7379788447
 20
52.859306370799978
 30
0.0
  0
VERTEX
  5
301B
  8
0
 10
115.23592086009999
 20
52.949148787399977
 30
0.0
  0
VERTEX
  5
301C
  8
0
 10
114.6178601263
 20
53.06193461099997
 30
0.0
  0
VERTEX
  5
301D
  8
0
 10
114.0327966872
 20
53.170095130899959
 30
0.0
  0
VERTEX
  5
301E
  8
0
 10
113.48123464130001
 20
53.271993470999973
 30
0.0
  0
VERTEX
  5
301F
  8
0
 10
112.96387499950001
 20
53.366178216999991
 30
0.0
  0
VERTEX
  5
3020
  8
0
 10
112.3282231227999
 20
53.478242467099967
 30
0.0
  0
VERTEX
  5
3021
  8
0
 10
111.7297522042
 20
53.578200385299979
 30
0.0
  0
VERTEX
  5
3022
  8
0
 10
111.1690235839
 20
53.66527351069999
 30
0.0
  0
VERTEX
  5
3023
  8
0
 10
110.6464091109
 20
53.739291362799968
 30
0.0
  0
VERTEX
  5
3024
  8
0
 10
110.02316868130001
 20
53.816719557699969
 30
0.0
  0
VERTEX
  5
3025
  8
0
 10
109.4484281619
 20
53.875826199999977
 30
0.0
  0
VERTEX
  5
3026
  8
0
 10
109.0922196377
 20
53.905733621899962
 30
0.0
  0
VERTEX
  5
3027
  8
0
 10
108.7572118369
 20
53.929115071699982
 30
0.0
  0
VERTEX
  5
3028
  8
0
 10
108.4429041105
 20
53.947203044599981
 30
0.0
  0
VERTEX
  5
3029
  8
0
 10
107.9717219632
 20
53.96808026729996
 30
0.0
  0
VERTEX
  5
302A
  8
0
 10
107.5534878582
 20
53.981179368399978
 30
0.0
  0
VERTEX
  5
302B
  8
0
 10
107.36914266390001
 20
53.985559991999978
 30
0.0
  0
VERTEX
  5
302C
  8
0
 10
107.1967408869
 20
53.98897800529997
 30
0.0
  0
VERTEX
  5
302D
  8
0
 10
107.0413382351
 20
53.991547407999967
 30
0.0
  0
VERTEX
  5
302E
  8
0
 10
106.89246086350001
 20
53.993595724999977
 30
0.0
  0
SEQEND
  5
302F
  8
0
  0
LINE
  5
2707
  8
0
 10
107.0825182615
 20
57.249999999999972
 30
0.0
 11
108.5
 21
57.249999999999972
 31
0.0
  0
LINE
  5
2708
  8
0
 10
108.5
 20
62.749999999999972
 30
0.0
 11
107.0825182615
 21
62.749999999999972
 31
0.0
  0
ARC
  5
2709
  8
0
 10
124.0
 20
59.999999999999957
 30
0.0
 40
7.999999999999992
 50
270.0
 51
90.0
  0
ARC
  5
270B
  8
0
 10
108.5
 20
62.249999999999972
 30
0.0
 40
0.5000000000000214
 50
0.0
 51
90.0
  0
ARC
  5
270C
  8
0
 10
108.5
 20
57.749999999999972
 30
0.0
 40
0.500000000000057
 50
270.0
 51
0.0
  0
LINE
  5
270D
  8
0
 10
109.0
 20
57.749999999999972
 30
0.0
 11
109.0
 21
62.249999999999972
 31
0.0
  0
LINE
  5
2796
  8
0
 10
67.000000000000085
 20
120.682
 30
0.0
 11
67.000000000000085
 21
122.682
 31
0.0
  0
LINE
  5
2797
  8
0
 10
53.000000000000028
 20
122.682
 30
0.0
 11
53.000000000000107
 21
120.682
 31
0.0
  0
LINE
  5
2798
  8
0
 10
53.000000000000028
 20
122.682
 30
0.0
 11
67.000000000000085
 21
122.682
 31
0.0
  0
LINE
  5
2799
  8
0
 10
53.200000000000067
 20
122.682
 30
0.0
 11
53.200000000000067
 21
122.682
 31
0.0
  0
LINE
  5
279A
  8
0
 10
67.000000000000085
 20
120.682
 30
0.0
 11
53.000000000000142
 21
120.682
 31
0.0
  0
LINE
  5
279D
  8
0
 10
167.0
 20
120.682
 30
0.0
 11
167.0
 21
122.682
 31
0.0
  0
LINE
  5
279E
  8
0
 10
153.0
 20
122.682
 30
0.0
 11
153.0
 21
120.682
 31
0.0
  0
LINE
  5
279F
  8
0
 10
153.0
 20
122.682
 30
0.0
 11
167.0
 21
122.682
 31
0.0
  0
LINE
  5
27A0
  8
0
 10
153.19999999999999
 20
122.682
 30
0.0
 11
153.19999999999999
 21
122.682
 31
0.0
  0
LINE
  5
27A1
  8
0
 10
167.0
 20
120.682
 30
0.0
 11
153.00000000000011
 21
120.682
 31
0.0
  0
ARC
  5
2831
  8
0
 10
56.949999283451753
 20
135.7144708747177
 30
0.0
 40
0.3000007191831631
 50
359.99240628046982
 51
89.999863149683208
  0
ARC
  5
2832
  8
0
 10
167.25262853543839
 20
127.0850257857002
 30
0.0
 40
9.2019230362637625
 50
109.69779403947039
 51
142.01430510990559
  0
LINE
  5
287C
  8
1
 10
60.000000000000107
 20
87.682000000000016
 30
0.0
 11
60.000000000000107
 21
139.0144715939
 31
0.0
  0
LINE
  5
2883
  8
1
 10
49.00000000000005
 20
130.0
 30
0.0
 11
71.000000000000057
 21
130.0
 31
0.0
  0
LINE
  5
2884
  8
1
 10
149.0
 20
130.0
 30
0.0
 11
171.0
 21
130.0
 31
0.0
  0
LINE
  5
2889
  8
1
 10
95.0
 20
130.0
 30
0.0
 11
105.0
 21
130.0
 31
0.0
  0
LINE
  5
288E
  8
1
 10
100.0
 20
160.0
 30
0.0
 11
100.0
 21
180.0
 31
0.0
  0
LINE
  5
2891
  8
1
 10
90.0
 20
170.0
 30
0.0
 11
135.0
 21
169.99999999999989
 31
0.0
  0
LINE
  5
2892
  8
1
 10
100.0
 20
49.999999999999943
 30
0.0
 11
100.0
 21
69.999999999999972
 31
0.0
  0
LINE
  5
2893
  8
1
 10
90.0
 20
59.999999999999972
 30
0.0
 11
135.0
 21
59.999999999999851
 31
0.0
  0
ARC
  5
2CDE
  8
0
 10
100.0
 20
170.0
 30
0.0
 40
2.0000000000000102
 50
103.0028781629002
 51
256.99712183709983
  0
LINE
  5
2CDF
  8
0
 10
99.549999999999983
 20
172.45916646866431
 30
0.0
 11
99.549999999999955
 21
167.54083353133561
 31
0.0
  0
ARC
  5
2CE0
  8
0
 10
100.0
 20
170.0
 30
0.0
 40
2.0000000000000151
 50
283.00287816290017
 51
76.997121837099755
  0
LINE
  5
2CE1
  8
0
 10
100.45
 20
167.54083353133549
 30
0.0
 11
100.45
 21
172.45916646866431
 31
0.0
  0
CIRCLE
  5
2CE2
  8
0
 10
100.0
 20
170.0
 30
0.0
 40
2.4999999441206451
  0
ARC
  5
2CE3
  8
3
 10
99.999999745899999
 20
170.0
 30
0.0
 40
2.250000162548464
 50
281.53696459010018
 51
78.463035409899774
  0
ARC
  5
2CE4
  8
3
 10
100.0000002541
 20
170.0
 30
0.0
 40
2.250000162548464
 50
101.5369645901002
 51
258.4630354098997
  0
LINE
  5
2CED
  8
0
 10
57.500000000000078
 20
120.682
 30
0.0
 11
57.500000000000099
 21
91.481999999999999
 31
0.0
  0
LINE
  5
2CEE
  8
0
 10
62.500000000000099
 20
91.481999999999999
 30
0.0
 11
62.500000000000078
 21
120.682
 31
0.0
  0
LINE
  5
2CEF
  8
0
 10
57.500000000000099
 20
91.481999999999999
 30
0.0
 11
58.300000000000118
 21
90.682000000000016
 31
0.0
  0
LINE
  5
2CF0
  8
0
 10
61.700000000000117
 20
90.682000000000016
 30
0.0
 11
62.500000000000099
 21
91.481999999999999
 31
0.0
  0
LINE
  5
2CF1
  8
0
 10
57.500000000000099
 20
91.481999999999999
 30
0.0
 11
62.500000000000099
 21
91.481999999999999
 31
0.0
  0
LINE
  5
2CF2
  8
0
 10
57.500000000000099
 20
91.481999999999999
 30
0.0
 11
57.500000000000099
 21
91.481999999999999
 31
0.0
  0
LINE
  5
2CF4
  8
0
 10
61.700000000000117
 20
90.682000000000016
 30
0.0
 11
58.300000000000097
 21
90.682000000000016
 31
0.0
  0
LINE
  5
2CF5
  8
0
 10
97.500000000000028
 20
120.682
 30
0.0
 11
97.500000000000028
 21
91.481999999999999
 31
0.0
  0
LINE
  5
2CF6
  8
0
 10
102.5
 20
91.481999999999999
 30
0.0
 11
102.5
 21
120.682
 31
0.0
  0
LINE
  5
2CF7
  8
0
 10
97.500000000000028
 20
91.481999999999999
 30
0.0
 11
98.300000000000054
 21
90.682000000000016
 31
0.0
  0
LINE
  5
2CF8
  8
0
 10
101.7
 20
90.682000000000016
 30
0.0
 11
102.5
 21
91.481999999999999
 31
0.0
  0
LINE
  5
2CF9
  8
0
 10
97.500000000000028
 20
91.481999999999999
 30
0.0
 11
102.5
 21
91.481999999999999
 31
0.0
  0
LINE
  5
2CFA
  8
0
 10
97.500000000000028
 20
91.481999999999999
 30
0.0
 11
97.500000000000028
 21
91.481999999999999
 31
0.0
  0
LINE
  5
2CFB
  8
0
 10
98.300000000000054
 20
90.682000000000016
 30
0.0
 11
98.300000000000054
 21
90.682000000000016
 31
0.0
  0
LINE
  5
2CFC
  8
0
 10
101.7
 20
90.682000000000016
 30
0.0
 11
98.300000000000054
 21
90.682000000000016
 31
0.0
  0
LINE
  5
2CFD
  8
0
 10
157.5
 20
120.682
 30
0.0
 11
157.5
 21
91.481999999999999
 31
0.0
  0
LINE
  5
2CFE
  8
0
 10
162.5
 20
91.481999999999999
 30
0.0
 11
162.5
 21
120.682
 31
0.0
  0
LINE
  5
2CFF
  8
0
 10
157.5
 20
91.481999999999999
 30
0.0
 11
158.30000000000001
 21
90.682000000000016
 31
0.0
  0
LINE
  5
2D00
  8
0
 10
161.69999999999999
 20
90.682000000000016
 30
0.0
 11
162.5
 21
91.481999999999999
 31
0.0
  0
LINE
  5
2D01
  8
0
 10
157.5
 20
91.481999999999999
 30
0.0
 11
162.5
 21
91.481999999999999
 31
0.0
  0
LINE
  5
2D02
  8
0
 10
157.5
 20
91.481999999999999
 30
0.0
 11
157.5
 21
91.481999999999999
 31
0.0
  0
LINE
  5
2D03
  8
0
 10
158.30000000000001
 20
90.682000000000016
 30
0.0
 11
158.30000000000001
 21
90.682000000000016
 31
0.0
  0
LINE
  5
2D04
  8
0
 10
161.69999999999999
 20
90.682000000000016
 30
0.0
 11
158.30000000000001
 21
90.682000000000016
 31
0.0
  0
LINE
  5
2D09
  8
0
 10
57.500000000000078
 20
135.18199999999999
 30
0.0
 11
57.500000000000078
 21
133.45040691815029
 31
0.0
  0
LINE
  5
2D0A
  8
0
 10
62.500000000000078
 20
133.45035631098281
 30
0.0
 11
62.500000000000078
 21
135.18199999999999
 31
0.0
  0
LINE
  5
2D0B
  8
0
 10
58.000000000000078
 20
135.68199999999999
 30
0.0
 11
57.500000000000078
 21
135.18199999999999
 31
0.0
  0
LINE
  5
2D0C
  8
0
 10
62.500000000000078
 20
135.18199999999999
 30
0.0
 11
62.000000000000092
 21
135.68199999999999
 31
0.0
  0
LINE
  5
2D0F
  8
0
 10
58.000000000000057
 20
135.68199999999999
 30
0.0
 11
62.000000000000092
 21
135.68199999999999
 31
0.0
  0
LINE
  5
2D10
  8
3
 10
62.249999903200077
 20
133.3567670163998
 30
0.0
 11
62.249999903200091
 21
135.43200009680001
 31
0.0
  0
LINE
  5
2D11
  8
3
 10
57.750000096900102
 20
135.4320000969
 30
0.0
 11
57.750000096900102
 21
133.35681189579489
 31
0.0
  0
LINE
  5
2D12
  8
0
 10
57.500000000000078
 20
126.4786421043637
 30
0.0
 11
57.500000000000078
 21
125.682
 31
0.0
  0
LINE
  5
2D13
  8
0
 10
62.500000000000078
 20
125.682
 30
0.0
 11
62.500000000000078
 21
126.4791187158408
 31
0.0
  0
LINE
  5
2D14
  8
0
 10
57.700000000000102
 20
125.682
 30
0.0
 11
57.700000000000102
 21
124.182
 31
0.0
  0
LINE
  5
2D15
  8
0
 10
62.300000000000097
 20
124.182
 30
0.0
 11
62.300000000000097
 21
125.682
 31
0.0
  0
LINE
  5
2D16
  8
0
 10
57.800000000000097
 20
124.182
 30
0.0
 11
57.800000000000097
 21
122.682
 31
0.0
  0
LINE
  5
2D17
  8
0
 10
62.200000000000102
 20
122.682
 30
0.0
 11
62.200000000000102
 21
124.182
 31
0.0
  0
LINE
  5
2D1A
  8
0
 10
57.700000000000102
 20
124.182
 30
0.0
 11
62.300000000000097
 21
124.182
 31
0.0
  0
LINE
  5
2D1C
  8
3
 10
62.249999903200091
 20
125.68200018260001
 30
0.0
 11
62.249999903200091
 21
126.57320892267531
 31
0.0
  0
LINE
  5
2D1D
  8
3
 10
57.750000096900102
 20
126.5727863244477
 30
0.0
 11
57.750000096900102
 21
125.68200018260001
 31
0.0
  0
LINE
  5
2D25
  8
0
 10
57.500000000000078
 20
125.68200018260001
 30
0.0
 11
62.500000000000078
 21
125.682
 31
0.0
  0
LINE
  5
2D26
  8
0
 10
57.500000000000078
 20
135.18199999999999
 30
0.0
 11
62.500000000000078
 21
135.18199999999999
 31
0.0
  0
CIRCLE
  5
2D28
  8
0
 10
100.0
 20
59.999999999999972
 30
0.0
 40
2.0669999999999988
  0
CIRCLE
  5
2D29
  8
3
 10
100.0
 20
59.999999999999972
 30
0.0
 40
2.5
  0
LINE
  5
2D2A
  8
0
 10
101.54609516310001
 20
135.68199999999999
 30
0.0
 11
101.9487175269001
 21
135.68199999999999
 31
0.0
  0
LINE
  5
2D2B
  8
0
 10
101.9487175269001
 20
135.68199999999999
 30
0.0
 11
102.14793593109999
 21
135.48685963860001
 31
0.0
  0
LINE
  5
2D2C
  8
0
 10
157.5
 20
126.4786488627302
 30
0.0
 11
157.5
 21
125.682
 31
0.0
  0
LINE
  5
2D2D
  8
0
 10
162.5
 20
125.682
 30
0.0
 11
162.5
 21
126.47893298049711
 31
0.0
  0
LINE
  5
2D2E
  8
0
 10
157.69999999999999
 20
125.682
 30
0.0
 11
157.69999999999999
 21
124.182
 31
0.0
  0
LINE
  5
2D2F
  8
0
 10
162.30000000000001
 20
124.182
 30
0.0
 11
162.30000000000001
 21
125.682
 31
0.0
  0
LINE
  5
2D30
  8
0
 10
157.80000000000001
 20
124.182
 30
0.0
 11
157.80000000000001
 21
122.682
 31
0.0
  0
LINE
  5
2D31
  8
0
 10
162.19999999999999
 20
122.682
 30
0.0
 11
162.19999999999999
 21
124.182
 31
0.0
  0
LINE
  5
2D32
  8
0
 10
157.5
 20
125.682
 30
0.0
 11
162.5
 21
125.682
 31
0.0
  0
LINE
  5
2D33
  8
0
 10
157.69999999999999
 20
124.182
 30
0.0
 11
162.30000000000001
 21
124.182
 31
0.0
  0
ARC
  5
2D35
  8
0
 10
160.00035580900001
 20
120.2171444937
 30
0.0
 40
6.7422708440839996
 50
65.931930888499807
 51
114.07469241349921
  0
LINE
  5
2D38
  8
3
 10
162.2534951568
 20
125.68200018260001
 30
0.0
 11
162.2534951568
 21
126.5717946976357
 31
0.0
  0
LINE
  5
2D39
  8
3
 10
157.7534953505
 20
126.57401748401639
 30
0.0
 11
157.7534953505
 21
125.68200018260001
 31
0.0
  0
LINE
  5
2D46
  8
3
 10
62.067000000000313
 20
91.049000000000206
 30
0.0
 11
62.067000000000291
 21
120.682
 31
0.0
  0
LINE
  5
2D47
  8
3
 10
57.9329999999999
 20
91.049000000000206
 30
0.0
 11
57.932999999999872
 21
120.682
 31
0.0
  0
LINE
  5
2D48
  8
3
 10
102.06700000000021
 20
91.049000000000206
 30
0.0
 11
102.06700000000021
 21
120.682
 31
0.0
  0
LINE
  5
2D49
  8
3
 10
97.932999999999822
 20
91.049000000000206
 30
0.0
 11
97.932999999999822
 21
120.682
 31
0.0
  0
LINE
  5
2D4A
  8
3
 10
162.06700000000021
 20
91.049000000000206
 30
0.0
 11
162.06700000000021
 21
120.682
 31
0.0
  0
LINE
  5
2D4B
  8
3
 10
157.93299999999979
 20
91.049000000000206
 30
0.0
 11
157.93299999999979
 21
120.682
 31
0.0
  0
LINE
  5
2D51
  8
1
 10
100.0
 20
87.682000000000016
 30
0.0
 11
100.0
 21
139.0144715939
 31
0.0
  0
LINE
  5
2D52
  8
1
 10
160.0
 20
87.682000000000016
 30
0.0
 11
160.0
 21
139.0144715939
 31
0.0
  0
LINE
  5
2D53
  8
0
 10
97.800000000000082
 20
123.1728428748
 30
0.0
 11
97.800000000000082
 21
122.682
 31
0.0
  0
LINE
  5
2DF5
  8
0
 10
102.2
 20
122.682
 30
0.0
 11
102.2
 21
122.8897798305662
 31
0.0
  0
ARC
  5
2E8E
  8
0
 10
57.683230195195357
 20
137.05923133411869
 30
0.0
 40
3.292382701944053
 50
262.438771577446
 51
266.80968323982728
  0
ARC
  5
2E8F
  8
0
 10
62.316769804804821
 20
137.05923133411869
 30
0.0
 40
3.292382701944053
 50
273.19031676017181
 51
277.56122842255309
  0
ENDSEC
  0
EOF
