  0
SECTION
  2
HEADER
  9
$ACADVER
  1
AC1009
  9
$INSBASE
 10
0.0
 20
0.0
 30
0.0
  9
$EXTMIN
 10
0.0
 20
-2.960436562073669
 30
0.0
  9
$EXTMAX
 10
149.0
 20
163.5
 30
0.0
  9
$LIMMIN
 10
0.0
 20
0.0
  9
$LIMMAX
 10
770.0
 20
540.0
  9
$ORTHOMODE
 70
     1
  9
$REGENMODE
 70
     1
  9
$FILLMODE
 70
     1
  9
$QTEXTMODE
 70
     0
  9
$MIRRTEXT
 70
     0
  9
$DRAGMODE
 70
     2
  9
$LTSCALE
 40
5.0
  9
$OSMODE
 70
    37
  9
$ATTMODE
 70
     1
  9
$TEXTSIZE
 40
4.000000000000048
  9
$TRACEWID
 40
0.05
  9
$TEXTSTYLE
  7
STANDARD
  9
$CLAYER
  8
0
  9
$CELTYPE
  6
BYLAYER
  9
$CECOLOR
 62
   256
  9
$DIMSCALE
 40
2.0
  9
$DIMASZ
 40
3.0
  9
$DIMEXO
 40
2.0
  9
$DIMDLI
 40
0.38
  9
$DIMRND
 40
0.0
  9
$DIMDLE
 40
0.0
  9
$DIMEXE
 40
2.0
  9
$DIMTP
 40
0.0
  9
$DIMTM
 40
0.0
  9
$DIMTXT
 40
3.0
  9
$DIMCEN
 40
0.0
  9
$DIMTSZ
 40
0.0
  9
$DIMTOL
 70
     0
  9
$DIMLIM
 70
     0
  9
$DIMTIH
 70
     0
  9
$DIMTOH
 70
     0
  9
$DIMSE1
 70
     0
  9
$DIMSE2
 70
     0
  9
$DIMTAD
 70
     1
  9
$DIMZIN
 70
     0
  9
$DIMBLK
  1

  9
$DIMASO
 70
     0
  9
$DIMSHO
 70
     0
  9
$DIMPOST
  1

  9
$DIMAPOST
  1

  9
$DIMALT
 70
     0
  9
$DIMALTD
 70
     2
  9
$DIMALTF
 40
25.399999999999999
  9
$DIMLFAC
 40
1.0
  9
$DIMTOFL
 70
     0
  9
$DIMTVP
 40
1.6000000000000001
  9
$DIMTIX
 70
     1
  9
$DIMSOXD
 70
     0
  9
$DIMSAH
 70
     0
  9
$DIMBLK1
  1

  9
$DIMBLK2
  1

  9
$DIMSTYLE
  2
STANDARD
  9
$DIMCLRD
 70
     4
  9
$DIMCLRE
 70
     4
  9
$DIMCLRT
 70
     4
  9
$DIMTFAC
 40
1.0
  9
$DIMGAP
 40
0.09
  9
$LUNITS
 70
     2
  9
$LUPREC
 70
     1
  9
$SKETCHINC
 40
0.1
  9
$FILLETRAD
 40
0.0
  9
$AUNITS
 70
     0
  9
$AUPREC
 70
     0
  9
$MENU
  1
E:\r13\win\SUPPORT\ACAD
  9
$ELEVATION
 40
0.0
  9
$PELEVATION
 40
0.0
  9
$THICKNESS
 40
0.0
  9
$LIMCHECK
 70
     0
  9
$BLIPMODE
 70
     0
  9
$CHAMFERA
 40
1.1999999999999991
  9
$CHAMFERB
 40
1.1999999999999991
  9
$SKPOLY
 70
     0
  9
$TDCREATE
 40
2450158.583426042
  9
$TDUPDATE
 40
2457709.4732851391
  9
$TDINDWG
 40
0.2628267014
  9
$TDUSRTIMER
 40
0.2628267014
  9
$USRTIMER
 70
     1
  9
$ANGBASE
 50
0.0
  9
$ANGDIR
 70
     0
  9
$PDMODE
 70
     0
  9
$PDSIZE
 40
0.0
  9
$PLINEWID
 40
0.0
  9
$COORDS
 70
     1
  9
$SPLFRAME
 70
     0
  9
$SPLINETYPE
 70
     6
  9
$SPLINESEGS
 70
     8
  9
$ATTDIA
 70
     0
  9
$ATTREQ
 70
     1
  9
$HANDLING
 70
     1
  9
$HANDSEED
  5
2664
  9
$SURFTAB1
 70
     6
  9
$SURFTAB2
 70
     6
  9
$SURFTYPE
 70
     6
  9
$SURFU
 70
     6
  9
$SURFV
 70
     6
  9
$UCSNAME
  2

  9
$UCSORG
 10
0.0
 20
0.0
 30
0.0
  9
$UCSXDIR
 10
1.0
 20
0.0
 30
0.0
  9
$UCSYDIR
 10
0.0
 20
1.0
 30
0.0
  9
$PUCSNAME
  2

  9
$PUCSORG
 10
0.0
 20
0.0
 30
0.0
  9
$PUCSXDIR
 10
1.0
 20
0.0
 30
0.0
  9
$PUCSYDIR
 10
0.0
 20
1.0
 30
0.0
  9
$USERI1
 70
     3
  9
$USERI2
 70
     1
  9
$USERI3
 70
     0
  9
$USERI4
 70
     0
  9
$USERI5
 70
     0
  9
$USERR1
 40
2.0
  9
$USERR2
 40
3.0
  9
$USERR3
 40
3.0
  9
$USERR4
 40
3.0
  9
$USERR5
 40
10.0
  9
$WORLDVIEW
 70
     1
  9
$SHADEDGE
 70
     3
  9
$SHADEDIF
 70
    70
  9
$TILEMODE
 70
     1
  9
$MAXACTVP
 70
    16
  9
$PLIMCHECK
 70
     0
  9
$PEXTMIN
 10
1.0000000000000000E+020
 20
1.0000000000000000E+020
 30
1.0000000000000000E+020
  9
$PEXTMAX
 10
-1.0000000000000000E+020
 20
-1.0000000000000000E+020
 30
-1.0000000000000000E+020
  9
$PLIMMIN
 10
0.0
 20
0.0
  9
$PLIMMAX
 10
12.0
 20
9.0
  9
$UNITMODE
 70
     0
  9
$VISRETAIN
 70
     0
  9
$PLINEGEN
 70
     0
  9
$PSLTSCALE
 70
     0
  0
ENDSEC
  0
SECTION
  2
TABLES
  0
TABLE
  2
VPORT
 70
     1
  0
VPORT
  2
*ACTIVE
 70
     0
 10
0.0
 20
0.0
 11
1.0
 21
1.0
 12
166.01027489379391
 22
80.265389198342987
 13
0.0
 23
0.0
 14
10.0
 24
10.0
 15
10.0
 25
10.0
 16
0.0
 26
0.0
 36
1.0
 17
0.0
 27
0.0
 37
0.0
 40
167.99531690861261
 41
2.6019575856443709
 42
50.0
 43
0.0
 44
0.0
 50
0.0
 51
0.0
 71
     0
 72
   500
 73
     1
 74
     0
 75
     0
 76
     0
 77
     0
 78
     2
  0
ENDTAB
  0
TABLE
  2
LTYPE
 70
     4
  0
LTYPE
  2
CONTINUOUS
 70
     0
  3
Solid Line
 72
    65
 73
     0
 40
0.0
  0
LTYPE
  2
CENTER
 70
     0
  3
____ _ ____ _ ____ _ ____ _ ____ _ ____ _ ____
 72
    65
 73
     4
 40
2.0
 49
1.25
 49
-0.25
 49
0.25
 49
-0.25
  0
LTYPE
  2
HIDDEN
 70
     0
  3
_ _ _ _ _ _ _ _ _ _ _ _ _ _ _ _ _ _ _ _ _ _ _
 72
    65
 73
     2
 40
0.375
 49
0.25
 49
-0.125
  0
LTYPE
  2
PHANTOM2
 70
     0
  3
___ _ _ ___ _ _ ___ _ _ ___ _ _
 72
    65
 73
     6
 40
1.25
 49
0.625
 49
-0.125
 49
0.125
 49
-0.125
 49
0.125
 49
-0.125
  0
ENDTAB
  0
TABLE
  2
LAYER
 70
     4
  0
LAYER
  2
0
 70
     0
 62
     7
  6
CONTINUOUS
  0
LAYER
  2
1
 70
     0
 62
     1
  6
CENTER
  0
LAYER
  2
2
 70
     0
 62
     2
  6
HIDDEN
  0
LAYER
  2
3
 70
     0
 62
     3
  6
CONTINUOUS
  0
ENDTAB
  0
TABLE
  2
STYLE
 70
     2
  0
STYLE
  2
STANDARD
 70
     0
 40
0.0
 41
1.0
 50
0.0
 71
     0
 42
4.000000000000048
  3
SIMPLEX
  4
BIGFONT
  0
STYLE
  2
STANDARD1
 70
     0
 40
0.0
 41
1.0
 50
0.0
 71
     0
 42
3.0
  3
txt
  4

  0
ENDTAB
  0
TABLE
  2
VIEW
 70
     1
  0
VIEW
  2
ALL
 70
     0
 40
179.5384664489153
 10
146.94997169852391
 20
89.769233224457665
 41
0.0
 11
0.0
 21
0.0
 31
1.0
 12
0.0
 22
0.0
 32
0.0
 42
50.0
 43
0.0
 44
0.0
 50
0.0
 71
     0
  0
ENDTAB
  0
TABLE
  2
UCS
 70
     0
  0
ENDTAB
  0
TABLE
  2
APPID
 70
     4
  0
APPID
  2
ACAD
 70
     0
  0
APPID
  2
ACAD_MLEADERVER
 70
     0
  0
APPID
  2
ACAD_NAV_VCDISPLAY
 70
     0
  0
APPID
  2
ACAD_EXEMPT_FROM_CAD_STANDARDS
 70
     0
  0
ENDTAB
  0
TABLE
  2
DIMSTYLE
 70
     1
  0
DIMSTYLE
  2
STANDARD
 70
     0
  3

  4

  5

  6

  7

 40
1.0
 41
0.18
 42
0.0625
 43
0.38
 44
0.18
 45
0.0
 46
0.0
 47
0.0
 48
0.0
140
0.18
141
0.09
142
0.0
143
25.399999999999999
144
1.0
145
0.0
146
1.0
147
0.09
 71
     0
 72
     0
 73
     1
 74
     1
 75
     0
 76
     0
 77
     0
 78
     0
170
     0
171
     2
172
     0
173
     0
174
     0
175
     0
176
     0
177
     0
178
     0
  0
ENDTAB
  0
ENDSEC
  0
SECTION
  2
BLOCKS
  0
BLOCK
  8
0
  2
$MODEL_SPACE
 70
     0
 10
0.0
 20
0.0
 30
0.0
  3
$MODEL_SPACE
  1

  0
ENDBLK
  5
644
  8
0
  0
BLOCK
 67
     1
  8
0
  2
$PAPER_SPACE
 70
     0
 10
0.0
 20
0.0
 30
0.0
  3
$PAPER_SPACE
  1

  0
ENDBLK
  5
642
 67
     1
  8
0
  0
ENDSEC
  0
SECTION
  2
ENTITIES
  0
TEXT
  5
D9B
  8
0
 62
     3
 10
0.0
 20
0.0
 30
0.0
 40
10.0
  1
QLCCS-04
  7
STANDARD1
  0
LINE
  5
202E
  8
0
 10
96.0
 20
111.902
 30
0.0
 11
95.999999999999972
 21
113.9020000000001
 31
0.0
  0
LINE
  5
202F
  8
0
 10
84.000000000000185
 20
113.902
 30
0.0
 11
84.000000000000185
 21
111.9019999999999
 31
0.0
  0
CIRCLE
  5
2038
  8
0
 10
90.0
 20
120.0
 30
0.0
 40
1.500000000000004
  0
LINE
  5
203B
  8
0
 10
84.000000000000185
 20
113.902
 30
0.0
 11
95.999999999999972
 21
113.9020000000001
 31
0.0
  0
LINE
  5
203C
  8
0
 10
84.000000000000185
 20
113.902
 30
0.0
 11
84.000000000000185
 21
113.902
 31
0.0
  0
LINE
  5
203E
  8
0
 10
96.0
 20
111.902
 30
0.0
 11
83.999999999999943
 21
111.9019999999999
 31
0.0
  0
CIRCLE
  5
2041
  8
0
 10
90.0
 20
120.0
 30
0.0
 40
3.0
  0
ARC
  5
2042
  8
0
 10
101.5709856954
 20
155.0321807645
 30
0.0
 40
32.000000000002288
 50
282.19564105860047
 51
288.4684868919997
  0
ARC
  5
2043
  8
0
 10
109.6225099278
 20
130.3417067174
 30
0.0
 40
11.02809444715782
 50
263.88380555879979
 51
288.82777211830069
  0
POLYLINE
  5
2044
  8
0
 66
     1
 10
0.0
 20
0.0
 30
0.0
 70
   128
  0
VERTEX
  5
2557
  8
0
 10
108.4475203583
 20
119.37638562559999
 30
0.0
  0
VERTEX
  5
2558
  8
0
 10
107.9291812141
 20
119.4147023944
 30
0.0
  0
VERTEX
  5
2559
  8
0
 10
107.48127945900001
 20
119.45360598160001
 30
0.0
  0
VERTEX
  5
255A
  8
0
 10
107.10875516119999
 20
119.48913989170001
 30
0.0
  0
VERTEX
  5
255B
  8
0
 10
106.8127882383
 20
119.5189875746
 30
0.0
  0
VERTEX
  5
255C
  8
0
 10
106.4088110527
 20
119.5614832583
 30
0.0
  0
VERTEX
  5
255D
  8
0
 10
105.8822011251
 20
119.6188985017
 30
0.0
  0
VERTEX
  5
255E
  8
0
 10
105.36000478530001
 20
119.6768114588
 30
0.0
  0
VERTEX
  5
255F
  8
0
 10
104.8820454391
 20
119.72954595749999
 30
0.0
  0
VERTEX
  5
2560
  8
0
 10
104.4233982322
 20
119.7789504646
 30
0.0
  0
VERTEX
  5
2561
  8
0
 10
103.91619540569999
 20
119.83112538269999
 30
0.0
  0
VERTEX
  5
2562
  8
0
 10
103.45903885769999
 20
119.874931147
 30
0.0
  0
VERTEX
  5
2563
  8
0
 10
103.0552768368
 20
119.9102700343
 30
0.0
  0
VERTEX
  5
2564
  8
0
 10
102.5512026441
 20
119.9488184686
 30
0.0
  0
VERTEX
  5
2565
  8
0
 10
101.9523946649
 20
119.98450121419999
 30
0.0
  0
VERTEX
  5
2566
  8
0
 10
101.55386984659999
 20
120.0007424682
 30
0.0
  0
VERTEX
  5
2567
  8
0
 10
101.1978870155
 20
120.0091679265
 30
0.0
  0
VERTEX
  5
2568
  8
0
 10
100.8832772543
 20
120.01110431470001
 30
0.0
  0
VERTEX
  5
2569
  8
0
 10
100.60871714549999
 20
120.00799758239999
 30
0.0
  0
VERTEX
  5
256A
  8
0
 10
100.37281604019999
 20
120.0013318085
 30
0.0
  0
VERTEX
  5
256B
  8
0
 10
100.0678948565
 20
119.9865787362
 30
0.0
  0
VERTEX
  5
256C
  8
0
 10
99.798867866899997
 20
119.96710063170001
 30
0.0
  0
VERTEX
  5
256D
  8
0
 10
99.542729671000032
 20
119.94217962659999
 30
0.0
  0
VERTEX
  5
256E
  8
0
 10
99.2993322154
 20
119.9119947608
 30
0.0
  0
VERTEX
  5
256F
  8
0
 10
99.068488794500027
 20
119.8767598772
 30
0.0
  0
VERTEX
  5
2570
  8
0
 10
98.849977535500031
 20
119.8367203833
 30
0.0
  0
VERTEX
  5
2571
  8
0
 10
98.643544787899998
 20
119.7921501015
 30
0.0
  0
VERTEX
  5
2572
  8
0
 10
98.196406830200004
 20
119.668778469
 30
0.0
  0
VERTEX
  5
2573
  8
0
 10
97.791720134500011
 20
119.5168222584
 30
0.0
  0
VERTEX
  5
2574
  8
0
 10
97.545606396300002
 20
119.39962444379999
 30
0.0
  0
VERTEX
  5
2575
  8
0
 10
97.318410146199994
 20
119.26978471930001
 30
0.0
  0
VERTEX
  5
2576
  8
0
 10
97.110045240000005
 20
119.1274254675
 30
0.0
  0
VERTEX
  5
2577
  8
0
 10
96.894408721100007
 20
118.9492742897
 30
0.0
  0
VERTEX
  5
2578
  8
0
 10
96.696012431500009
 20
118.74740564530001
 30
0.0
  0
VERTEX
  5
2579
  8
0
 10
96.516945866599997
 20
118.519823426
 30
0.0
  0
VERTEX
  5
257A
  8
0
 10
96.408265387799986
 20
118.3508691672
 30
0.0
  0
VERTEX
  5
257B
  8
0
 10
96.302182713799994
 20
118.1526468369
 30
0.0
  0
VERTEX
  5
257C
  8
0
 10
96.19942981580003
 20
117.9268257807
 30
0.0
  0
VERTEX
  5
257D
  8
0
 10
96.131433489600013
 20
117.7683407164
 30
0.0
  0
SEQEND
  5
257E
  8
0
  0
ARC
  5
2045
  8
0
 10
101.5709856954
 20
155.0321807645
 30
0.0
 40
31.999999999999719
 50
257.32557120879989
 51
282.19564105860047
  0
ARC
  5
2046
  8
0
 10
112.5025108183
 20
122.3188915456
 30
0.0
 40
2.491418117312524
 50
3.250524170499749
 51
108.5953260820996
  0
ARC
  5
2047
  8
0
 10
90.186932980000023
 20
120.29746254539999
 30
0.0
 40
6.4601504266465462
 50
315.52703881459968
 51
336.95239481940001
  0
ARC
  5
2049
  8
0
 10
90.377255788000014
 20
120.0572201881
 30
0.0
 40
6.1561503340650372
 50
270.99601079109942
 51
315.88161727539932
  0
POLYLINE
  5
204A
  8
0
 66
     1
 10
0.0
 20
0.0
 30
0.0
 70
   128
  0
VERTEX
  5
257F
  8
0
 10
90.187959892799995
 20
113.902
 30
0.0
  0
VERTEX
  5
2580
  8
0
 10
89.524013590699994
 20
113.9482745726
 30
0.0
  0
VERTEX
  5
2581
  8
0
 10
88.739037214800035
 20
114.1095337576
 30
0.0
  0
VERTEX
  5
2582
  8
0
 10
87.987862695399997
 20
114.3708705726
 30
0.0
  0
VERTEX
  5
2583
  8
0
 10
87.283624976900001
 20
114.726956096
 30
0.0
  0
VERTEX
  5
2584
  8
0
 10
86.637861461600011
 20
115.1698309261
 30
0.0
  0
VERTEX
  5
2585
  8
0
 10
86.060607008700003
 20
115.6899362515
 30
0.0
  0
VERTEX
  5
2586
  8
0
 10
85.561667861500013
 20
116.2774753469
 30
0.0
  0
VERTEX
  5
2587
  8
0
 10
85.148324443599989
 20
116.92084646310001
 30
0.0
  0
VERTEX
  5
2588
  8
0
 10
84.825999854300022
 20
117.60764024389999
 30
0.0
  0
VERTEX
  5
2589
  8
0
 10
84.599793401299991
 20
118.32530521610001
 30
0.0
  0
VERTEX
  5
258A
  8
0
 10
84.471755518799995
 20
119.060621703
 30
0.0
  0
VERTEX
  5
258B
  8
0
 10
84.442075133900005
 20
119.8003641844
 30
0.0
  0
VERTEX
  5
258C
  8
0
 10
84.510559101800027
 20
120.53130011339999
 30
0.0
  0
VERTEX
  5
258D
  8
0
 10
84.673942447099975
 20
121.2407851933
 30
0.0
  0
VERTEX
  5
258E
  8
0
 10
84.927393975200005
 20
121.9168455975
 30
0.0
  0
VERTEX
  5
258F
  8
0
 10
85.265696983699996
 20
122.5476613924
 30
0.0
  0
VERTEX
  5
2590
  8
0
 10
85.681047007399997
 20
123.1231620436
 30
0.0
  0
VERTEX
  5
2591
  8
0
 10
86.164572270899995
 20
123.63440427899999
 30
0.0
  0
VERTEX
  5
2592
  8
0
 10
86.707079792500025
 20
124.07276288360001
 30
0.0
  0
VERTEX
  5
2593
  8
0
 10
87.29769688570002
 20
124.4322288906
 30
0.0
  0
VERTEX
  5
2594
  8
0
 10
87.925069057799988
 20
124.7081163774
 30
0.0
  0
VERTEX
  5
2595
  8
0
 10
88.577655607700024
 20
124.89619540130001
 30
0.0
  0
VERTEX
  5
2596
  8
0
 10
89.243410022900008
 20
124.9952782188
 30
0.0
  0
VERTEX
  5
2597
  8
0
 10
89.910362277800004
 20
125.00544589179999
 30
0.0
  0
VERTEX
  5
2598
  8
0
 10
90.566547295700019
 20
124.9267836865
 30
0.0
  0
VERTEX
  5
2599
  8
0
 10
91.199999999900001
 20
124.7593768688
 30
0.0
  0
VERTEX
  5
259A
  8
0
 10
91.199999999900001
 20
124.7593768688
 30
0.0
  0
SEQEND
  5
259B
  8
0
  0
POLYLINE
  5
204B
  8
0
 66
     1
 10
0.0
 20
0.0
 30
0.0
 70
   128
  0
VERTEX
  5
259C
  8
0
 10
91.200000000000017
 20
124.7593768688
 30
0.0
  0
VERTEX
  5
259D
  8
0
 10
92.862026663100025
 20
124.2400708567
 30
0.0
  0
VERTEX
  5
259E
  8
0
 10
94.549840106199994
 20
123.8119386992
 30
0.0
  0
SEQEND
  5
259F
  8
0
  0
ARC
  5
204C
  8
0
 10
112.5
 20
122.3089986709
 30
0.0
 40
2.500000000000028
 50
285.82014437280083
 51
0.0
  0
ARC
  5
204D
  8
0
 10
90.243202069499986
 20
120.2712983177
 30
0.0
 40
6.3981298838705571
 50
325.97380029980002
 51
336.97072303749979
  0
LINE
  5
204F
  8
0
 10
96.523517724399994
 20
123.43276515150001
 30
0.0
 11
96.547098938300024
 21
123.4290074768
 31
0.0
  0
POLYLINE
  5
2056
  8
0
 66
     1
 10
0.0
 20
0.0
 30
0.0
 70
   128
  0
VERTEX
  5
25A0
  8
0
 10
115.0
 20
122.3089986709
 30
0.0
  0
VERTEX
  5
25A1
  8
0
 10
114.9945868863
 20
122.42590699350001
 30
0.0
  0
VERTEX
  5
25A2
  8
0
 10
114.9899206222081
 20
122.46015973980781
 30
0.0
  0
SEQEND
  5
25A3
  8
0
  0
LINE
  5
2063
  8
2
 10
92.000000000000014
 20
111.9019999999999
 30
0.0
 11
92.000000000000014
 21
113.902
 31
0.0
  0
LINE
  5
2064
  8
2
 10
88.000000000000014
 20
113.902
 30
0.0
 11
88.0
 21
111.9019999999999
 31
0.0
  0
LINE
  5
2067
  8
0
 10
93.0
 20
149.5
 30
0.0
 11
93.0
 21
150.0
 31
0.0
  0
LINE
  5
2068
  8
0
 10
93.0
 20
152.75
 30
0.0
 11
93.0
 21
157.25
 31
0.0
  0
LINE
  5
2069
  8
0
 10
93.0
 20
160.0
 30
0.0
 11
93.000000000000014
 21
160.5
 31
0.0
  0
LINE
  5
206A
  8
0
 10
87.0
 20
160.5
 30
0.0
 11
87.0
 21
160.0
 31
0.0
  0
LINE
  5
206B
  8
0
 10
87.0
 20
157.25
 30
0.0
 11
87.0
 21
152.75
 31
0.0
  0
LINE
  5
206C
  8
0
 10
87.0
 20
150.0
 30
0.0
 11
87.000000000000014
 21
149.5
 31
0.0
  0
LINE
  5
206F
  8
0
 10
84.440134706400016
 20
159.5
 30
0.0
 11
84.440134706400016
 21
157.55000000000001
 31
0.0
  0
ARC
  5
2070
  8
0
 10
84.740166419025925
 20
157.55001330221961
 30
0.0
 40
0.3000317129207788
 50
180.0025402682846
 51
270.63473351987648
  0
ARC
  5
2071
  8
0
 10
84.740134742900025
 20
152.44999999999999
 30
0.0
 40
0.2999999999999877
 50
89.999976131300315
 51
180.4344952687
  0
LINE
  5
2072
  8
0
 10
84.440134706400016
 20
152.44999999999999
 30
0.0
 11
84.440134706400016
 21
150.5
 31
0.0
  0
ARC
  5
2073
  8
0
 10
84.940940563927143
 20
159.49919441267249
 30
0.0
 40
0.5008065054534466
 50
89.890287272738377
 51
179.9078351169041
  0
ARC
  5
2074
  8
0
 10
84.940940452000007
 20
150.50080531570001
 30
0.0
 40
0.5008062340405245
 50
180.09213385690029
 51
270.10972559189997
  0
POLYLINE
  5
2076
  8
0
 66
     1
 10
0.0
 20
0.0
 30
0.0
 70
   128
  0
VERTEX
  5
25A4
  8
0
 10
87.0
 20
149.80384757729999
 30
0.0
  0
VERTEX
  5
25A5
  8
0
 10
86.865008611700006
 20
149.88415901389999
 30
0.0
  0
VERTEX
  5
25A6
  8
0
 10
86.703137318300008
 20
149.98694739129999
 30
0.0
  0
SEQEND
  5
25A7
  8
0
  0
ARC
  5
2077
  8
0
 10
90.0
 20
155.0
 30
0.0
 40
6.0000000000000027
 50
156.62327453140051
 51
203.3767244246998
  0
POLYLINE
  5
2078
  8
0
 66
     1
 10
0.0
 20
0.0
 30
0.0
 70
   128
  0
VERTEX
  5
25A8
  8
0
 10
86.703266736599986
 20
160.01313771900001
 30
0.0
  0
VERTEX
  5
25A9
  8
0
 10
86.865008611700006
 20
160.11584098610001
 30
0.0
  0
VERTEX
  5
25AA
  8
0
 10
87.0
 20
160.19615242270001
 30
0.0
  0
SEQEND
  5
25AB
  8
0
  0
ARC
  5
2079
  8
0
 10
90.0
 20
155.0
 30
0.0
 40
5.9999999999999956
 50
66.443535690900674
 51
113.5564643090993
  0
POLYLINE
  5
207A
  8
0
 66
     1
 10
0.0
 20
0.0
 30
0.0
 70
   128
  0
VERTEX
  5
25AC
  8
0
 10
93.0
 20
160.19615242270001
 30
0.0
  0
VERTEX
  5
25AD
  8
0
 10
93.134991388300008
 20
160.11584098610001
 30
0.0
  0
VERTEX
  5
25AE
  8
0
 10
93.296994567200016
 20
160.01296587100001
 30
0.0
  0
SEQEND
  5
25AF
  8
0
  0
ARC
  5
207B
  8
0
 10
90.0
 20
155.0
 30
0.0
 40
5.9999999999999991
 50
337.97568716300049
 51
22.024312836999499
  0
POLYLINE
  5
207C
  8
0
 66
     1
 10
0.0
 20
0.0
 30
0.0
 70
   128
  0
VERTEX
  5
25B0
  8
0
 10
93.296606304700006
 20
149.98677879280001
 30
0.0
  0
VERTEX
  5
25B1
  8
0
 10
93.134991388300008
 20
149.88415901389999
 30
0.0
  0
VERTEX
  5
25B2
  8
0
 10
93.0
 20
149.80384757729999
 30
0.0
  0
SEQEND
  5
25B3
  8
0
  0
ARC
  5
207D
  8
0
 10
90.0
 20
155.0
 30
0.0
 40
6.0000000000000311
 50
246.4435356909006
 51
293.5564643090994
  0
LINE
  5
2083
  8
0
 10
87.0
 20
160.5
 30
0.0
 11
93.000000000000057
 21
160.5
 31
0.0
  0
ARC
  5
2086
  8
0
 10
88.458484466899975
 20
155.00861929929999
 30
0.0
 40
3.6621544047965529
 50
321.92109806140053
 51
37.737070165299791
  0
ARC
  5
2087
  8
0
 10
91.549978018600001
 20
154.9969073563
 30
0.0
 40
3.6700766226302362
 50
142.12731942439919
 51
217.7504546908996
  0
LINE
  5
2089
  8
0
 10
93.000000000000014
 20
149.5
 30
0.0
 11
87.0
 21
149.5
 31
0.0
  0
LINE
  5
208A
  8
0
 10
96.5
 20
157.25
 30
0.0
 11
84.743490159300023
 21
157.25
 31
0.0
  0
LINE
  5
208B
  8
0
 10
96.5
 20
152.75
 30
0.0
 11
84.756796768300006
 21
152.75
 31
0.0
  0
LINE
  5
208C
  8
0
 10
84.941899531800004
 20
160.0
 30
0.0
 11
94.440134706400016
 21
160.0
 31
0.0
  0
LINE
  5
208D
  8
0
 10
94.440134706400016
 20
150.0
 30
0.0
 11
84.941899531800004
 21
150.0
 31
0.0
  0
ARC
  5
2090
  8
0
 10
108.5000000000001
 20
155.0
 30
0.0
 40
6.4999999999996296
 50
269.99999999999841
 51
90.000000000001606
  0
LINE
  5
2092
  8
0
 10
94.440134706500046
 20
160.0
 30
0.0
 11
94.440134706400016
 21
160.0
 31
0.0
  0
LINE
  5
2093
  8
0
 10
94.440134706400016
 20
150.0
 30
0.0
 11
94.440134706500046
 21
150.0
 31
0.0
  0
LINE
  5
2094
  8
0
 10
96.5
 20
152.75
 30
0.0
 11
96.5
 21
152.75
 31
0.0
  0
LINE
  5
2095
  8
0
 10
96.5
 20
157.25
 30
0.0
 11
96.5
 21
157.25
 31
0.0
  0
POLYLINE
  5
2096
  8
0
 66
     1
 10
0.0
 20
0.0
 30
0.0
 70
   128
  0
VERTEX
  5
25B4
  8
0
 10
94.440134706400016
 20
160.0
 30
0.0
  0
VERTEX
  5
25B5
  8
0
 10
95.717703119200024
 20
160.03061358790001
 30
0.0
  0
VERTEX
  5
25B6
  8
0
 10
97.270518200699996
 20
160.1769640540999
 30
0.0
  0
VERTEX
  5
25B7
  8
0
 10
98.641025356900016
 20
160.3613962718
 30
0.0
  0
VERTEX
  5
25B8
  8
0
 10
100.0337352249
 20
160.5753110755
 30
0.0
  0
VERTEX
  5
25B9
  8
0
 10
101.4351242364
 20
160.8016803335
 30
0.0
  0
VERTEX
  5
25BA
  8
0
 10
102.7553178583
 20
161.01313985409999
 30
0.0
  0
VERTEX
  5
25BB
  8
0
 10
104.06454854659999
 20
161.2085109889
 30
0.0
  0
VERTEX
  5
25BC
  8
0
 10
105.4672343142
 20
161.3807136188
 30
0.0
  0
VERTEX
  5
25BD
  8
0
 10
106.097404462
 20
161.4349754783
 30
0.0
  0
VERTEX
  5
25BE
  8
0
 10
106.65637526499999
 20
161.4672109812
 30
0.0
  0
VERTEX
  5
25BF
  8
0
 10
107.25133587009999
 20
161.4873690183
 30
0.0
  0
VERTEX
  5
25C0
  8
0
 10
107.8718254665
 20
161.49732214350001
 30
0.0
  0
VERTEX
  5
25C1
  8
0
 10
108.5
 20
161.5
 30
0.0
  0
SEQEND
  5
25C2
  8
0
  0
POLYLINE
  5
2097
  8
0
 66
     1
 10
0.0
 20
0.0
 30
0.0
 70
   128
  0
VERTEX
  5
25C3
  8
0
 10
108.5
 20
148.5
 30
0.0
  0
VERTEX
  5
25C4
  8
0
 10
107.0845679522
 20
148.51704429039989
 30
0.0
  0
VERTEX
  5
25C5
  8
0
 10
105.7650963679
 20
148.59130160430001
 30
0.0
  0
VERTEX
  5
25C6
  8
0
 10
104.2546882334
 20
148.76525819299999
 30
0.0
  0
VERTEX
  5
25C7
  8
0
 10
102.848970713
 20
148.9722418899
 30
0.0
  0
VERTEX
  5
25C8
  8
0
 10
101.4351242364
 20
149.19831966640001
 30
0.0
  0
VERTEX
  5
25C9
  8
0
 10
100.2700349059
 20
149.3869285248
 30
0.0
  0
VERTEX
  5
25CA
  8
0
 10
99.108360701999999
 20
149.56892260239999
 30
0.0
  0
VERTEX
  5
25CB
  8
0
 10
97.926448686000015
 20
149.7391952719
 30
0.0
  0
VERTEX
  5
25CC
  8
0
 10
96.79856128900002
 20
149.87669662260001
 30
0.0
  0
VERTEX
  5
25CD
  8
0
 10
95.499213417800007
 20
149.98114337999999
 30
0.0
  0
VERTEX
  5
25CE
  8
0
 10
94.440134706400016
 20
150.0
 30
0.0
  0
SEQEND
  5
25CF
  8
0
  0
ARC
  5
2098
  8
0
 10
96.5
 20
156.75
 30
0.0
 40
0.500000000000057
 50
0.0
 51
90.0
  0
ARC
  5
2099
  8
0
 10
96.5
 20
153.25
 30
0.0
 40
0.500000000000057
 50
270.0
 51
0.0
  0
LINE
  5
209A
  8
0
 10
97.0
 20
153.25
 30
0.0
 11
97.0
 21
156.75
 31
0.0
  0
LINE
  5
20BF
  8
0
 10
87.0
 20
90.499999999999943
 30
0.0
 11
87.0
 21
90.196152422699996
 31
0.0
  0
LINE
  5
20C0
  8
0
 10
87.0
 20
79.803847577200003
 30
0.0
 11
87.0
 21
79.500000000000014
 31
0.0
  0
LINE
  5
20C1
  8
0
 10
92.999999999999972
 20
79.500000000000014
 30
0.0
 11
93.0
 21
79.803847577200003
 31
0.0
  0
LINE
  5
20C2
  8
0
 10
93.0
 20
90.196152422699996
 30
0.0
 11
92.999999999999972
 21
90.499999999999943
 31
0.0
  0
LINE
  5
20C5
  8
0
 10
84.440134706400016
 20
82.450000000000003
 30
0.0
 11
84.440134706400016
 21
80.5
 31
0.0
  0
ARC
  5
20C6
  8
0
 10
84.740134863400016
 20
82.450000000399996
 30
0.0
 40
0.3000000052546881
 50
145.63249280950001
 51
180.11076103789981
  0
ARC
  5
20C7
  8
0
 10
84.740134742900025
 20
87.549999999999997
 30
0.0
 40
0.3000000000000179
 50
180.1064843960996
 51
214.3675317863995
  0
LINE
  5
20C8
  8
0
 10
84.440134706400016
 20
89.500000000000014
 30
0.0
 11
84.440134706400016
 21
87.549999999999997
 31
0.0
  0
ARC
  5
20C9
  8
0
 10
84.940940452000007
 20
80.500805315600005
 30
0.0
 40
0.5008062340408522
 50
180.09213385690029
 51
270.10972559199928
  0
ARC
  5
20CA
  8
0
 10
84.940940452000007
 20
89.499194684299994
 30
0.0
 40
0.5008062340405144
 50
89.890274408100026
 51
179.9078661430996
  0
CIRCLE
  5
20CD
  8
0
 10
90.0
 20
85.0
 30
0.0
 40
6.0
  0
CIRCLE
  5
20CE
  8
0
 10
90.0
 20
85.0
 30
0.0
 40
2.0
  0
LINE
  5
20CF
  8
0
 10
92.999999999999972
 20
79.500000000000014
 30
0.0
 11
92.397915761600004
 21
79.5
 31
0.0
  0
LINE
  5
20D0
  8
0
 10
87.602084238300023
 20
79.5
 30
0.0
 11
87.0
 21
79.500000000000014
 31
0.0
  0
CIRCLE
  5
20D5
  8
0
 10
90.0
 20
85.0
 30
0.0
 40
1.649999999999991
  0
LINE
  5
20D6
  8
0
 10
87.0
 20
90.499999999999943
 30
0.0
 11
87.602084238300023
 21
90.500000000000014
 31
0.0
  0
LINE
  5
20D7
  8
0
 10
92.397915761600004
 20
90.500000000000014
 30
0.0
 11
92.999999999999972
 21
90.499999999999943
 31
0.0
  0
LINE
  5
20D8
  8
0
 10
95.562148865321745
 20
82.75
 30
0.0
 11
95.855370794300015
 21
82.75
 31
0.0
  0
LINE
  5
20D9
  8
0
 10
95.855370794300015
 20
87.250000000000014
 30
0.0
 11
95.562148865321745
 21
87.250000000000014
 31
0.0
  0
LINE
  5
20DA
  8
0
 10
94.440134706400016
 20
80.0
 30
0.0
 11
93.316624790355405
 21
80.0
 31
0.0
  0
LINE
  5
20DB
  8
0
 10
86.683375209644595
 20
80.0
 30
0.0
 11
84.941899531800004
 21
80.0
 31
0.0
  0
LINE
  5
20DC
  8
0
 10
84.941899531800004
 20
90.000000000000014
 30
0.0
 11
86.683375209644609
 21
90.000000000000014
 31
0.0
  0
LINE
  5
20DD
  8
0
 10
93.316624790355334
 20
90.000000000000028
 30
0.0
 11
94.440134706400016
 21
90.000000000000014
 31
0.0
  0
ARC
  5
20DE
  8
0
 10
94.576234222900013
 20
58.674597880200011
 30
0.0
 40
21.325836411413189
 50
87.131856526800391
 51
90.365658850400536
  0
ARC
  5
20DF
  8
0
 10
94.594675176000024
 20
110.4811045778
 30
0.0
 40
20.481687613257652
 50
269.5676820749008
 51
272.93480254779939
  0
POLYLINE
  5
20E0
  8
0
 66
     1
 10
0.0
 20
0.0
 30
0.0
 70
   128
  0
VERTEX
  5
25D0
  8
0
 10
108.5
 20
78.5
 30
0.0
  0
VERTEX
  5
25D1
  8
0
 10
107.5774893191
 20
78.506273586800006
 30
0.0
  0
VERTEX
  5
25D2
  8
0
 10
106.6484416484
 20
78.533148079500009
 30
0.0
  0
VERTEX
  5
25D3
  8
0
 10
105.69478892230001
 20
78.597543490700005
 30
0.0
  0
VERTEX
  5
25D4
  8
0
 10
104.75388977750001
 20
78.700113477800002
 30
0.0
  0
VERTEX
  5
25D5
  8
0
 10
103.8204006174
 20
78.826133423800002
 30
0.0
  0
VERTEX
  5
25D6
  8
0
 10
102.7888199936
 20
78.981622390100014
 30
0.0
  0
VERTEX
  5
25D7
  8
0
 10
101.8805883916
 20
79.126183954599995
 30
0.0
  0
VERTEX
  5
25D8
  8
0
 10
101.4225973809
 20
79.200353260900002
 30
0.0
  0
VERTEX
  5
25D9
  8
0
 10
100.98532365130001
 20
79.271372587700014
 30
0.0
  0
VERTEX
  5
25DA
  8
0
 10
100.5702770792
 20
79.338600477300005
 30
0.0
  0
VERTEX
  5
25DB
  8
0
 10
100.1785821105
 20
79.401575497700009
 30
0.0
  0
VERTEX
  5
25DC
  8
0
 10
99.727916740300003
 20
79.473084815299998
 30
0.0
  0
VERTEX
  5
25DD
  8
0
 10
99.313890199200017
 20
79.537511874000003
 30
0.0
  0
VERTEX
  5
25DE
  8
0
 10
98.866406679099995
 20
79.60532534810001
 30
0.0
  0
VERTEX
  5
25DF
  8
0
 10
98.441771821299994
 20
79.667456523600009
 30
0.0
  0
VERTEX
  5
25E0
  8
0
 10
97.947901708200021
 20
79.736301175299985
 30
0.0
  0
VERTEX
  5
25E1
  8
0
 10
97.501947912300011
 20
79.794554065900002
 30
0.0
  0
VERTEX
  5
25E2
  8
0
 10
97.296675202900005
 20
79.819882893100015
 30
0.0
  0
VERTEX
  5
25E3
  8
0
 10
97.102993082300003
 20
79.842805371099999
 30
0.0
  0
VERTEX
  5
25E4
  8
0
 10
96.920706889200005
 20
79.863431531200007
 30
0.0
  0
VERTEX
  5
25E5
  8
0
 10
96.749599349600004
 20
79.881881421800017
 30
0.0
  0
VERTEX
  5
25E6
  8
0
 10
96.373268095100002
 20
79.918962160000007
 30
0.0
  0
VERTEX
  5
25E7
  8
0
 10
96.065177876900023
 20
79.945182019200004
 30
0.0
  0
VERTEX
  5
25E8
  8
0
 10
96.011296013199996
 20
79.94933304220001
 30
0.0
  0
VERTEX
  5
25E9
  8
0
 10
95.959749309300008
 20
79.953173745699985
 30
0.0
  0
VERTEX
  5
25EA
  8
0
 10
95.910506796700034
 20
79.956720175699999
 30
0.0
  0
VERTEX
  5
25EB
  8
0
 10
95.863538031299996
 20
79.959988078900011
 30
0.0
  0
VERTEX
  5
25EC
  8
0
 10
95.818813175800017
 20
79.962992863000011
 30
0.0
  0
VERTEX
  5
25ED
  8
0
 10
95.748623135900004
 20
79.967491348699994
 30
0.0
  0
VERTEX
  5
25EE
  8
0
 10
95.643328812899995
 20
79.973720110600013
 30
0.0
  0
SEQEND
  5
25EF
  8
0
  0
POLYLINE
  5
20E1
  8
0
 66
     1
 10
0.0
 20
0.0
 30
0.0
 70
   128
  0
VERTEX
  5
25F0
  8
0
 10
95.643328812899995
 20
90.026279889400001
 30
0.0
  0
VERTEX
  5
25F1
  8
0
 10
95.730321328400009
 20
90.031380438300019
 30
0.0
  0
VERTEX
  5
25F2
  8
0
 10
95.795013759100016
 20
90.035451709200018
 30
0.0
  0
VERTEX
  5
25F3
  8
0
 10
95.863524493900002
 20
90.040010995499998
 30
0.0
  0
VERTEX
  5
25F4
  8
0
 10
95.959728777500004
 20
90.046824750300004
 30
0.0
  0
VERTEX
  5
25F5
  8
0
 10
96.065177876900023
 20
90.054817980699994
 30
0.0
  0
VERTEX
  5
25F6
  8
0
 10
96.21094758000001
 20
90.066715134999995
 30
0.0
  0
VERTEX
  5
25F7
  8
0
 10
96.373234064400009
 20
90.081034724700004
 30
0.0
  0
VERTEX
  5
25F8
  8
0
 10
96.552598745100028
 20
90.098070965900007
 30
0.0
  0
VERTEX
  5
25F9
  8
0
 10
96.749599349600004
 20
90.118118578099995
 30
0.0
  0
VERTEX
  5
25FA
  8
0
 10
97.102961698000016
 20
90.157190996099999
 30
0.0
  0
VERTEX
  5
25FB
  8
0
 10
97.501905021700026
 20
90.205440537200005
 30
0.0
  0
VERTEX
  5
25FC
  8
0
 10
97.71893778590001
 20
90.233273521800001
 30
0.0
  0
VERTEX
  5
25FD
  8
0
 10
97.947868798400009
 20
90.263694378300016
 30
0.0
  0
VERTEX
  5
25FE
  8
0
 10
98.188795409600004
 20
90.296769007700007
 30
0.0
  0
VERTEX
  5
25FF
  8
0
 10
98.441771821299994
 20
90.332543476300003
 30
0.0
  0
VERTEX
  5
2600
  8
0
 10
98.928908333599992
 20
90.404014396200012
 30
0.0
  0
VERTEX
  5
2601
  8
0
 10
99.428393846199995
 20
90.480162182000001
 30
0.0
  0
VERTEX
  5
2602
  8
0
 10
99.916577751700004
 20
90.556701256500006
 30
0.0
  0
VERTEX
  5
2603
  8
0
 10
100.3994761636
 20
90.633865273800026
 30
0.0
  0
VERTEX
  5
2604
  8
0
 10
100.8643766424
 20
90.709003017499995
 30
0.0
  0
VERTEX
  5
2605
  8
0
 10
101.35878983640001
 20
90.789286044800008
 30
0.0
  0
VERTEX
  5
2606
  8
0
 10
101.8805883916
 20
90.873816045299989
 30
0.0
  0
VERTEX
  5
2607
  8
0
 10
102.78878301260001
 20
91.018371833200007
 30
0.0
  0
VERTEX
  5
2608
  8
0
 10
103.698661257
 20
91.156227528100004
 30
0.0
  0
VERTEX
  5
2609
  8
0
 10
104.5978477382
 20
91.280161738199993
 30
0.0
  0
VERTEX
  5
260A
  8
0
 10
105.6947889179
 20
91.402456508900016
 30
0.0
  0
VERTEX
  5
260B
  8
0
 10
106.6208870887
 20
91.465584260000014
 30
0.0
  0
VERTEX
  5
260C
  8
0
 10
107.5525658127
 20
91.493335546300003
 30
0.0
  0
VERTEX
  5
260D
  8
0
 10
108.5
 20
91.500000000000014
 30
0.0
  0
SEQEND
  5
260E
  8
0
  0
LINE
  5
20E2
  8
0
 10
95.855370794300015
 20
82.75
 30
0.0
 11
96.5
 21
82.75
 31
0.0
  0
LINE
  5
20E3
  8
0
 10
96.5
 20
87.250000000000014
 30
0.0
 11
95.855370794300015
 21
87.250000000000014
 31
0.0
  0
ARC
  5
20E4
  8
0
 10
96.5
 20
83.250000000000014
 30
0.0
 40
0.5
 50
270.0
 51
0.0
  0
ARC
  5
20E5
  8
0
 10
96.5
 20
86.75
 30
0.0
 40
0.4999999999990052
 50
359.9999999998999
 51
90.000000000099334
  0
LINE
  5
20E6
  8
0
 10
97.0
 20
83.250000000000014
 30
0.0
 11
97.0
 21
86.75
 31
0.0
  0
ARC
  5
20E7
  8
0
 10
108.4999999999999
 20
85.000000000000014
 30
0.0
 40
6.5000000000000284
 50
270.00000000000171
 51
90.0
  0
LINE
  5
20EB
  8
0
 10
112.66570282230001
 20
80.010318647800005
 30
0.0
 11
112.6993552755
 21
80.040254085600026
 31
0.0
  0
LINE
  5
2119
  8
0
 10
144.99975331849549
 20
117.0
 30
0.0
 11
145.5
 21
117.0
 31
0.0
  0
LINE
  5
211A
  8
0
 10
134.49999999999989
 20
117.0
 30
0.0
 11
135.0004005512526
 21
117.0
 31
0.0
  0
LINE
  5
211C
  8
0
 10
143.77204881459991
 20
124.8089986709
 30
0.0
 11
136.22637652619991
 21
124.8089986709
 31
0.0
  0
POLYLINE
  5
211D
  8
0
 66
     1
 10
0.0
 20
0.0
 30
0.0
 70
   128
  0
VERTEX
  5
260F
  8
0
 10
144.58148761289991
 20
124.6648387992
 30
0.0
  0
VERTEX
  5
2610
  8
0
 10
144.17684701789989
 20
124.7761069308
 30
0.0
  0
VERTEX
  5
2611
  8
0
 10
143.77204881459991
 20
124.8089986709
 30
0.0
  0
SEQEND
  5
2612
  8
0
  0
POLYLINE
  5
211E
  8
0
 66
     1
 10
0.0
 20
0.0
 30
0.0
 70
   128
  0
VERTEX
  5
2613
  8
0
 10
136.22637652619991
 20
124.8089986709
 30
0.0
  0
VERTEX
  5
2614
  8
0
 10
135.82315298200001
 20
124.7761069308
 30
0.0
  0
VERTEX
  5
2615
  8
0
 10
135.41851238699991
 20
124.6648387992
 30
0.0
  0
SEQEND
  5
2616
  8
0
  0
ARC
  5
211F
  8
0
 10
145.5437411380874
 20
120.2437396995261
 30
0.0
 40
0.9171444488220497
 50
268.30923522507589
 51
354.03854354775427
  0
ARC
  5
2120
  8
0
 10
134.45626661249781
 20
120.24374971402069
 30
0.0
 40
0.9171570906648368
 50
185.96208665604581
 51
271.69630691202241
  0
LINE
  5
2121
  8
0
 10
134.4834161277999
 20
119.3269945489
 30
0.0
 11
145.5166806723
 21
119.3269945489
 31
0.0
  0
ARC
  5
2122
  8
0
 10
144.0874043100155
 20
122.15490333820949
 30
0.0
 40
2.5580923234605311
 50
21.17841612609401
 51
78.862113492892362
  0
ARC
  5
2123
  8
0
 10
135.82058603764369
 20
122.2661202979242
 30
0.0
 40
2.4321696219229421
 50
99.517085675215938
 51
160.45649871104229
  0
ARC
  5
2124
  8
0
 10
158.0824997142
 20
117.9642739188
 30
0.0
 40
13.06217158718397
 50
174.01167942520041
 51
180.1831892295003
  0
ARC
  5
2125
  8
0
 10
121.9175002857
 20
117.9642739188
 30
0.0
 40
13.06217158718858
 50
359.81681077049973
 51
5.9883205747996051
  0
POLYLINE
  5
2126
  8
0
 66
     1
 10
0.0
 20
0.0
 30
0.0
 70
   128
  0
VERTEX
  5
2617
  8
0
 10
141.74999999999989
 20
119.3076447474
 30
0.0
  0
VERTEX
  5
2618
  8
0
 10
141.7734585538999
 20
119.3073929947
 30
0.0
  0
VERTEX
  5
2619
  8
0
 10
141.8936921918
 20
119.2981658854
 30
0.0
  0
VERTEX
  5
261A
  8
0
 10
142.0013642676
 20
119.2768862575
 30
0.0
  0
VERTEX
  5
261B
  8
0
 10
142.08788480559991
 20
119.24709446609999
 30
0.0
  0
VERTEX
  5
261C
  8
0
 10
142.1495539494999
 20
119.21361736999999
 30
0.0
  0
VERTEX
  5
261D
  8
0
 10
142.19104703239989
 20
119.17860711740001
 30
0.0
  0
VERTEX
  5
261E
  8
0
 10
142.2188764743
 20
119.13953878789999
 30
0.0
  0
VERTEX
  5
261F
  8
0
 10
142.24006475999991
 20
119.0795735657
 30
0.0
  0
VERTEX
  5
2620
  8
0
 10
142.24976080850001
 20
118.9954974595
 30
0.0
  0
VERTEX
  5
2621
  8
0
 10
142.24999999999989
 20
118.9782099744
 30
0.0
  0
SEQEND
  5
2622
  8
0
  0
POLYLINE
  5
2127
  8
0
 66
     1
 10
0.0
 20
0.0
 30
0.0
 70
   128
  0
VERTEX
  5
2623
  8
0
 10
137.74999999999989
 20
118.9782099744
 30
0.0
  0
VERTEX
  5
2624
  8
0
 10
137.75555195169991
 20
119.05652215009999
 30
0.0
  0
VERTEX
  5
2625
  8
0
 10
137.77372511499999
 20
119.1239022072
 30
0.0
  0
VERTEX
  5
2626
  8
0
 10
137.8035859927999
 20
119.17251450880001
 30
0.0
  0
VERTEX
  5
2627
  8
0
 10
137.84067648719989
 20
119.20670851600001
 30
0.0
  0
VERTEX
  5
2628
  8
0
 10
137.89941640020001
 20
119.2411879423
 30
0.0
  0
VERTEX
  5
2629
  8
0
 10
137.97608898119989
 20
119.2704801343
 30
0.0
  0
VERTEX
  5
262A
  8
0
 10
138.08072958229999
 20
119.2943347465
 30
0.0
  0
VERTEX
  5
262B
  8
0
 10
138.19726201109989
 20
119.3063948978
 30
0.0
  0
VERTEX
  5
262C
  8
0
 10
138.2499347486999
 20
119.3076447474
 30
0.0
  0
SEQEND
  5
262D
  8
0
  0
LINE
  5
2128
  8
0
 10
138.25
 20
119.3076447474
 30
0.0
 11
141.74999999999989
 21
119.3076447474
 31
0.0
  0
LINE
  5
2129
  8
0
 10
144.5
 20
125.0120523626
 30
0.0
 11
142.5499999999999
 21
125.0120523626
 31
0.0
  0
ARC
  5
212A
  8
0
 10
142.54999999399999
 20
124.71205201239999
 30
0.0
 40
0.2999999984989548
 50
90.261684834800022
 51
161.14613428189989
  0
ARC
  5
212B
  8
0
 10
142.54999929280001
 20
114.1921254956
 30
0.0
 40
0.2999992928321757
 50
179.99405219999969
 51
255.25930289659999
  0
ARC
  5
212C
  8
0
 10
137.45000014339999
 20
114.192113466
 30
0.0
 40
0.2999998565023899
 50
284.75013269750059
 51
0.001443803800243
  0
ARC
  5
212D
  8
0
 10
137.45000000479999
 20
124.7120521519
 30
0.0
 40
0.2999999973125911
 50
18.853837631200221
 51
90.09019284590012
  0
LINE
  5
212E
  8
0
 10
137.44999999999999
 20
125.0120523626
 30
0.0
 11
135.49999999999989
 21
125.0120523626
 31
0.0
  0
ARC
  5
212F
  8
0
 10
184.74292842022919
 20
116.572216410796
 30
0.0
 40
39.74547730203097
 50
178.05308504949471
 51
180.64888979049249
  0
ARC
  5
2130
  8
0
 10
95.848187111504615
 20
116.5789125025737
 30
0.0
 40
39.15447780155003
 50
359.3315161838384
 51
1.9665089775725551
  0
ARC
  5
2131
  8
0
 10
144.51844791879989
 20
114.38248898480001
 30
0.0
 40
0.4816485892848755
 50
273.97662473830019
 51
1.1469956775003201
  0
ARC
  5
2132
  8
0
 10
144.49638706100001
 20
124.5079708297
 30
0.0
 40
0.5036177021930292
 50
4.2252522712891931
 51
89.588958190099646
  0
ARC
  5
2133
  8
0
 10
135.50378228109989
 20
124.5078034278
 30
0.0
 40
0.5037863427115729
 50
90.430164065800312
 51
174.48040336070321
  0
ARC
  5
2134
  8
0
 10
135.48155208109989
 20
114.38248898480001
 30
0.0
 40
0.4816485892848477
 50
178.85300432249949
 51
266.0233752616997
  0
LINE
  5
2139
  8
0
 10
145.5
 20
119.3269945489
 30
0.0
 11
145.50000000000011
 21
117.0
 31
0.0
  0
ARC
  5
213C
  8
0
 10
140.00059753909991
 20
112.5581953241
 30
0.0
 40
5.2688460138804549
 50
64.727424872499242
 51
115.2869473173006
  0
LINE
  5
213D
  8
0
 10
134.49999999999989
 20
117.0
 30
0.0
 11
134.49999999999989
 21
119.3269945489
 31
0.0
  0
ARC
  5
213E
  8
0
 10
146.28024761169999
 20
122.9730327016
 30
0.0
 40
0.2197532642802074
 50
359.8382163170005
 51
28.851849775000321
  0
LINE
  5
213F
  8
0
 10
146.49999999999989
 20
120.1746624493
 30
0.0
 11
146.49999999999989
 21
122.97241219439999
 31
0.0
  0
LINE
  5
2140
  8
0
 10
146.45592565859991
 20
120.14848561540001
 30
0.0
 11
146.49999999999989
 21
120.1746624493
 31
0.0
  0
LINE
  5
2143
  8
0
 10
133.49999999999989
 20
120.1746624493
 30
0.0
 11
133.54407056619991
 21
120.1484842836
 31
0.0
  0
LINE
  5
2144
  8
0
 10
133.49999999999989
 20
120.1746624493
 30
0.0
 11
133.49999999999989
 21
122.97241219439999
 31
0.0
  0
ARC
  5
2145
  8
0
 10
133.69064374690001
 20
122.97917306470001
 30
0.0
 40
0.190763590903622
 50
148.18635583090011
 51
182.03105044470021
  0
LINE
  5
2146
  8
0
 10
142.24999999999989
 20
117.88576894240001
 30
0.0
 11
142.24999999999989
 21
118.9782099744
 31
0.0
  0
LINE
  5
2147
  8
0
 10
137.74999999999989
 20
118.9782099744
 30
0.0
 11
137.74999999999989
 21
117.88576894240001
 31
0.0
  0
LINE
  5
2148
  8
0
 10
142.24999999999989
 20
114.1929075443
 30
0.0
 11
142.24999999999989
 21
117.88576894240001
 31
0.0
  0
LINE
  5
2149
  8
0
 10
137.74999999999989
 20
117.88576894240001
 30
0.0
 11
137.74999999999989
 21
114.2015213089
 31
0.0
  0
LINE
  5
214C
  8
0
 10
145.0
 20
116.12209803659999
 30
0.0
 11
145.0
 21
114.3921303921
 31
0.0
  0
LINE
  5
214E
  8
0
 10
134.99999999999989
 20
114.3921303921
 30
0.0
 11
134.99999999999989
 21
116.12209803659999
 31
0.0
  0
POLYLINE
  5
214F
  8
0
 66
     1
 10
0.0
 20
0.0
 30
0.0
 70
   128
  0
VERTEX
  5
262E
  8
0
 10
144.98968135209989
 20
123.73174571840001
 30
0.0
  0
VERTEX
  5
262F
  8
0
 10
144.71868654979991
 20
123.7931544673
 30
0.0
  0
VERTEX
  5
2630
  8
0
 10
144.40299884119989
 20
123.80819131529999
 30
0.0
  0
VERTEX
  5
2631
  8
0
 10
144.06096011909989
 20
123.7796839648
 30
0.0
  0
VERTEX
  5
2632
  8
0
 10
143.84286201099991
 20
123.744046488
 30
0.0
  0
VERTEX
  5
2633
  8
0
 10
143.60861926519991
 20
123.69430949159999
 30
0.0
  0
VERTEX
  5
2634
  8
0
 10
143.35784212759989
 20
123.6304729757
 30
0.0
  0
VERTEX
  5
2635
  8
0
 10
143.09023568009999
 20
123.5525369404
 30
0.0
  0
VERTEX
  5
2636
  8
0
 10
142.80561553499999
 20
123.4605013855
 30
0.0
  0
VERTEX
  5
2637
  8
0
 10
142.63620467960001
 20
123.4018855517
 30
0.0
  0
VERTEX
  5
2638
  8
0
 10
142.45788854499989
 20
123.3375738332
 30
0.0
  0
VERTEX
  5
2639
  8
0
 10
142.2705710219999
 20
123.2675662297999
 30
0.0
  0
VERTEX
  5
263A
  8
0
 10
142.07418618109989
 20
123.1918627416
 30
0.0
  0
VERTEX
  5
263B
  8
0
 10
141.86870240229999
 20
123.11046336850001
 30
0.0
  0
VERTEX
  5
263C
  8
0
 10
141.65412665650001
 20
123.02336811070001
 30
0.0
  0
VERTEX
  5
263D
  8
0
 10
141.4305089202
 20
122.930576968
 30
0.0
  0
VERTEX
  5
263E
  8
0
 10
141.06427984749999
 20
122.7744128172
 30
0.0
  0
VERTEX
  5
263F
  8
0
 10
140.58751870579999
 20
122.5672200515
 30
0.0
  0
VERTEX
  5
2640
  8
0
 10
139.99999999999989
 20
122.3089986709
 30
0.0
  0
SEQEND
  5
2641
  8
0
  0
ARC
  5
2150
  8
0
 10
144.6104918769999
 20
120.8588620691
 30
0.0
 40
2.8978000484047088
 50
50.011326390599329
 51
82.48104060540004
  0
ARC
  5
2151
  8
0
 10
92.334896464499963
 20
-68.792570916700015
 30
0.0
 40
196.53958543897559
 50
74.015958228699333
 51
74.793824194600205
  0
ARC
  5
2152
  8
0
 10
149.39305126619999
 20
141.64744044119999
 30
0.0
 40
21.498947467092592
 50
244.09326705619921
 51
255.1576996360007
  0
ARC
  5
2154
  8
0
 10
133.32273219353181
 20
116.3280476815718
 30
0.0
 40
8.9642445355993239
 50
41.851385915732507
 51
71.100206818752213
  0
ARC
  5
2155
  8
0
 10
129.1531453577
 20
133.68664356229999
 30
0.0
 40
15.719575659188409
 50
298.74107327080048
 51
313.63185847470078
  0
ARC
  5
2156
  8
0
 10
149.95889896989999
 20
132.47280447840001
 30
0.0
 40
14.22963868786532
 50
225.58341516990049
 51
242.04365308460001
  0
ARC
  5
2158
  8
0
 10
130.3395779773999
 20
142.36735864049999
 30
0.0
 40
22.263457914844651
 50
285.03283476530021
 51
295.71619854260069
  0
ARC
  5
2159
  8
0
 10
128.2401764503999
 20
144.1137546102
 30
0.0
 40
24.545172124513179
 50
282.4793106144005
 51
288.7109184687996
  0
ARC
  5
215A
  8
0
 10
135.56027045019999
 20
120.4721316426
 30
0.0
 40
3.3056816102083029
 50
99.576575858700224
 51
127.9241670272997
  0
POLYLINE
  5
215B
  8
0
 66
     1
 10
0.0
 20
0.0
 30
0.0
 70
   128
  0
VERTEX
  5
2642
  8
0
 10
139.99999999999989
 20
122.3089986709
 30
0.0
  0
VERTEX
  5
2643
  8
0
 10
139.73478088949989
 20
122.42590699350001
 30
0.0
  0
VERTEX
  5
2644
  8
0
 10
139.4896893932999
 20
122.53344484180001
 30
0.0
  0
VERTEX
  5
2645
  8
0
 10
139.2649451421
 20
122.6316122157
 30
0.0
  0
VERTEX
  5
2646
  8
0
 10
139.06062531559991
 20
122.7204091153
 30
0.0
  0
VERTEX
  5
2647
  8
0
 10
138.87669619089999
 20
122.7998355405
 30
0.0
  0
VERTEX
  5
2648
  8
0
 10
138.71304201579991
 20
122.8698914914
 30
0.0
  0
VERTEX
  5
2649
  8
0
 10
138.56949107969999
 20
122.930576968
 30
0.0
  0
VERTEX
  5
264A
  8
0
 10
138.25898113929989
 20
123.0588793422
 30
0.0
  0
VERTEX
  5
264B
  8
0
 10
137.96622214670001
 20
123.1760229711
 30
0.0
  0
VERTEX
  5
264C
  8
0
 10
137.69128094849989
 20
123.2820078546
 30
0.0
  0
VERTEX
  5
264D
  8
0
 10
137.43407282730001
 20
123.3768339927
 30
0.0
  0
VERTEX
  5
264E
  8
0
 10
137.19438446489991
 20
123.4605013855
 30
0.0
  0
VERTEX
  5
264F
  8
0
 10
136.73104611939991
 20
123.6056512169
 30
0.0
  0
VERTEX
  5
2650
  8
0
 10
136.3146156075
 20
123.711857748
 30
0.0
  0
VERTEX
  5
2651
  8
0
 10
135.94371123519991
 20
123.7791209785
 30
0.0
  0
VERTEX
  5
2652
  8
0
 10
135.59653937819999
 20
123.8082097376
 30
0.0
  0
VERTEX
  5
2653
  8
0
 10
135.28113551349989
 20
123.7931369937
 30
0.0
  0
VERTEX
  5
2654
  8
0
 10
135.01031864779989
 20
123.73174571840001
 30
0.0
  0
SEQEND
  5
2655
  8
0
  0
ARC
  5
2160
  8
0
 10
140.2123183528
 20
103.4294059226
 30
0.0
 40
16.75894813735183
 50
71.5505125008996
 51
79.424648445699546
  0
ARC
  5
2161
  8
0
 10
127.2500433253999
 20
151.86554152939999
 30
0.0
 40
33.33297452409186
 50
282.53412900250021
 51
286.49071005089928
  0
LINE
  5
218C
  8
0
 10
49.999999999999972
 20
123.0
 30
0.0
 11
49.499999999999972
 21
123.0
 31
0.0
  0
LINE
  5
218D
  8
0
 10
60.499999999999943
 20
123.0
 30
0.0
 11
59.999999999999972
 21
123.0
 31
0.0
  0
LINE
  5
218E
  8
0
 10
59.999999999999972
 20
117.0
 30
0.0
 11
60.499999999999972
 21
117.0
 31
0.0
  0
LINE
  5
218F
  8
0
 10
49.499999999999972
 20
117.0
 30
0.0
 11
49.999999999999972
 21
117.0
 31
0.0
  0
LINE
  5
2192
  8
0
 10
52.44999999999996
 20
125.0120523626
 30
0.0
 11
50.499999999999972
 21
125.0120523626
 31
0.0
  0
ARC
  5
2193
  8
0
 10
52.449740839131628
 20
124.7114263632635
 30
0.0
 40
0.3006257594192734
 50
357.17014586657109
 51
89.950604940029109
  0
ARC
  5
2194
  8
0
 10
52.450000589572227
 20
114.1921255865448
 30
0.0
 40
0.2999994107417333
 50
284.74071440576932
 51
359.99737853248092
  0
LINE
  5
2195
  8
0
 10
59.499999999999972
 20
125.0120523626
 30
0.0
 11
57.549999999999947
 21
125.0120523626
 31
0.0
  0
ARC
  5
2196
  8
0
 10
57.550175623143637
 20
114.19237840838839
 30
0.0
 40
0.3003008361663016
 50
178.34537645241841
 51
255.2303072653161
  0
ARC
  5
2197
  8
0
 10
57.550000716642948
 20
124.7120511387255
 30
0.0
 40
0.3000012238752878
 50
90.000136868172675
 51
180.10536093887691
  0
ARC
  5
2198
  8
0
 10
50.504601914092092
 20
124.5074686095878
 30
0.0
 40
0.5046047378062553
 50
90.522535533801772
 51
180.1916806235995
  0
ARC
  5
2199
  8
0
 10
50.481552081099977
 20
114.38248898480001
 30
0.0
 40
0.4816485892848342
 50
178.85300432249949
 51
266.0233752616997
  0
ARC
  5
219A
  8
0
 10
59.518447918899959
 20
114.38248898480001
 30
0.0
 40
0.4816485892848247
 50
273.97662473830019
 51
1.1469956775003201
  0
ARC
  5
219B
  8
0
 10
59.495567975716803
 20
124.5076363946657
 30
0.0
 40
0.5044354384322398
 50
359.78919723041321
 51
89.496586611441089
  0
POLYLINE
  5
219C
  8
0
 66
     1
 10
0.0
 20
0.0
 30
0.0
 70
   128
  0
VERTEX
  5
2656
  8
0
 10
48.513355705299972
 20
123.114697398
 30
0.0
  0
VERTEX
  5
2657
  8
0
 10
48.499999999999972
 20
122.97241219439999
 30
0.0
  0
SEQEND
  5
2658
  8
0
  0
POLYLINE
  5
21A0
  8
0
 66
     1
 10
0.0
 20
0.0
 30
0.0
 70
   128
  0
VERTEX
  5
2659
  8
0
 10
61.499999999999972
 20
122.97241219439999
 30
0.0
  0
VERTEX
  5
265A
  8
0
 10
61.486644294799959
 20
123.114697398
 30
0.0
  0
SEQEND
  5
265B
  8
0
  0
POLYLINE
  5
21A2
  8
0
 66
     1
 10
0.0
 20
0.0
 30
0.0
 70
   128
  0
VERTEX
  5
265C
  8
0
 10
48.504531836399927
 20
120.2338343129
 30
0.0
  0
VERTEX
  5
265D
  8
0
 10
48.504209044199939
 20
120.1312076307
 30
0.0
  0
VERTEX
  5
265E
  8
0
 10
48.513355705299972
 20
120.0294055618
 30
0.0
  0
SEQEND
  5
265F
  8
0
  0
POLYLINE
  5
21A3
  8
0
 66
     1
 10
0.0
 20
0.0
 30
0.0
 70
   128
  0
VERTEX
  5
2660
  8
0
 10
61.486644294799959
 20
120.0294055618
 30
0.0
  0
VERTEX
  5
2661
  8
0
 10
61.495790955899963
 20
120.1312076307
 30
0.0
  0
VERTEX
  5
2662
  8
0
 10
61.495468163599952
 20
120.2338343129
 30
0.0
  0
SEQEND
  5
2663
  8
0
  0
LINE
  5
21A4
  8
0
 10
49.483319327699952
 20
119.3269945489
 30
0.0
 11
49.499999999999972
 21
119.3269945489
 31
0.0
  0
LINE
  5
21A5
  8
0
 10
60.499999999999972
 20
119.3269945489
 30
0.0
 11
60.516583872199959
 21
119.3269945489
 31
0.0
  0
ARC
  5
21AB
  8
0
 10
50.527412687199948
 20
122.4273595635
 30
0.0
 40
2.128111563108146
 50
104.3492176064001
 51
161.15675097689979
  0
ARC
  5
21AC
  8
0
 10
59.395564249399968
 20
122.3393184999
 30
0.0
 40
2.230208105057887
 50
20.34493498839975
 51
74.274901422359804
  0
ARC
  5
21AD
  8
0
 10
49.410083471899981
 20
120.2467682426
 30
0.0
 40
0.9226956282222335
 50
193.62543373429941
 51
274.5610037614
  0
ARC
  5
21AE
  8
0
 10
60.58991652819995
 20
120.2467682426
 30
0.0
 40
0.92269562822077
 50
265.43899623860011
 51
346.3745662657999
  0
LINE
  5
21AF
  8
0
 10
57.266096189499962
 20
124.8089986709
 30
0.0
 11
52.733903765199948
 21
124.8089986709
 31
0.0
  0
LINE
  5
21B4
  8
0
 10
49.499999999999972
 20
117.0
 30
0.0
 11
49.499999999999972
 21
123.0
 31
0.0
  0
ARC
  5
21B7
  8
0
 10
55.000766875899949
 20
127.4485024271
 30
0.0
 40
5.2751447181261826
 50
244.74333442060041
 51
295.23824737979999
  0
ARC
  5
21B8
  8
0
 10
55.000116353199957
 20
112.5719492968
 30
0.0
 40
5.256285751761296
 50
64.656966128699395
 51
115.3458406187991
  0
LINE
  5
21B9
  8
0
 10
60.499999999999972
 20
123.0
 30
0.0
 11
60.499999999999972
 21
117.0
 31
0.0
  0
LINE
  5
21BB
  8
0
 10
52.749999999999972
 20
124.69658441120001
 30
0.0
 11
52.749999999999972
 21
114.19211186059999
 31
0.0
  0
LINE
  5
21BD
  8
0
 10
57.249999999999972
 20
124.7114994682
 30
0.0
 11
57.249999999999972
 21
114.2010494794
 31
0.0
  0
LINE
  5
21BE
  8
0
 10
49.999999999999972
 20
114.3921303921
 30
0.0
 11
49.999999999999972
 21
124.50578047880001
 31
0.0
  0
LINE
  5
21BF
  8
0
 10
59.999999999999972
 20
124.50578047880001
 30
0.0
 11
59.999999999999972
 21
114.3921303921
 31
0.0
  0
LINE
  5
21C2
  8
0
 10
48.499999999999972
 20
120.1746624493
 30
0.0
 11
48.499999999999972
 21
122.97241219439999
 31
0.0
  0
LINE
  5
21C4
  8
0
 10
61.499999999999972
 20
120.1746624493
 30
0.0
 11
61.499999999999972
 21
122.97241219439999
 31
0.0
  0
LINE
  5
222C
  8
0
 10
90.750000000000014
 20
120.4200574172735
 30
0.0
 11
90.750000000000014
 21
119.55403201348911
 31
0.0
  0
LINE
  5
222D
  8
0
 10
89.25
 20
120.4200574172735
 30
0.0
 11
89.25
 21
119.55403201348911
 31
0.0
  0
LINE
  5
222E
  8
0
 10
90.0
 20
119.1210193115968
 30
0.0
 11
90.750000000000014
 21
119.55403201348911
 31
0.0
  0
LINE
  5
222F
  8
0
 10
89.249999999999886
 20
120.4200574172734
 30
0.0
 11
89.999999999999886
 21
120.85307011916569
 31
0.0
  0
LINE
  5
2230
  8
0
 10
90.0
 20
119.1210193115968
 30
0.0
 11
89.25
 21
119.55403201348911
 31
0.0
  0
LINE
  5
2231
  8
0
 10
90.750000000000114
 20
120.4200574172734
 30
0.0
 11
90.000000000000114
 21
120.85307011916569
 31
0.0
  0
CIRCLE
  5
227C
  8
0
 10
90.0
 20
155.0
 30
0.0
 40
1.6209999999999991
  0
CIRCLE
  5
227D
  8
3
 10
90.0
 20
155.0
 30
0.0
 40
2.0
  0
LINE
  5
2286
  8
2
 10
56.621116353199731
 20
117.5720391864089
 30
0.0
 11
56.62111635319971
 21
122.42838097751439
 31
0.0
  0
LINE
  5
2287
  8
2
 10
57.00011635319995
 20
117.43286895301409
 30
0.0
 11
57.00011635319995
 21
122.566929579667
 31
0.0
  0
LINE
  5
2288
  8
2
 10
53.379116353200203
 20
117.5720391864089
 30
0.0
 11
53.379116353200203
 21
122.42880110337541
 31
0.0
  0
LINE
  5
2289
  8
2
 10
53.000116353199957
 20
117.43286895301409
 30
0.0
 11
53.000116353199957
 21
122.5674626522984
 31
0.0
  0
LINE
  5
228A
  8
2
 10
91.621128744795726
 20
117.4757294929431
 30
0.0
 11
91.621128744795655
 21
122.5242705070569
 31
0.0
  0
LINE
  5
228B
  8
2
 10
92.000128744795916
 20
117.7640471820181
 30
0.0
 11
92.000128744795916
 21
122.2359528179818
 31
0.0
  0
LINE
  5
228C
  8
2
 10
88.379128744796176
 20
117.4755641473679
 30
0.0
 11
88.379128744796162
 21
122.524435852632
 31
0.0
  0
LINE
  5
228D
  8
2
 10
88.000128744796001
 20
117.763816876325
 30
0.0
 11
88.000128744795958
 21
122.23618312367491
 31
0.0
  0
LINE
  5
22D1
  8
0
 10
60.999999999999879
 20
111.902
 30
0.0
 11
60.999999999999858
 21
113.902
 31
0.0
  0
LINE
  5
22D2
  8
0
 10
49.00000000000005
 20
113.9019999999999
 30
0.0
 11
49.00000000000005
 21
111.9019999999998
 31
0.0
  0
LINE
  5
22D3
  8
0
 10
49.00000000000005
 20
113.9019999999999
 30
0.0
 11
60.999999999999858
 21
113.902
 31
0.0
  0
LINE
  5
22D4
  8
0
 10
49.00000000000005
 20
113.9019999999999
 30
0.0
 11
49.00000000000005
 21
113.9019999999999
 31
0.0
  0
LINE
  5
22D5
  8
0
 10
60.999999999999879
 20
111.902
 30
0.0
 11
48.999999999999829
 21
111.9019999999998
 31
0.0
  0
LINE
  5
22D6
  8
2
 10
56.999999999999922
 20
111.9019999999999
 30
0.0
 11
56.999999999999922
 21
113.902
 31
0.0
  0
LINE
  5
22D7
  8
2
 10
52.999999999999908
 20
113.902
 30
0.0
 11
52.999999999999893
 21
111.9019999999999
 31
0.0
  0
LINE
  5
22D8
  8
0
 10
145.9999999999998
 20
111.902
 30
0.0
 11
145.9999999999998
 21
113.902
 31
0.0
  0
LINE
  5
22D9
  8
0
 10
134.00000000000011
 20
113.9019999999999
 30
0.0
 11
134.00000000000011
 21
111.9019999999998
 31
0.0
  0
LINE
  5
22DA
  8
0
 10
134.00000000000011
 20
113.9019999999999
 30
0.0
 11
145.9999999999998
 21
113.902
 31
0.0
  0
LINE
  5
22DB
  8
0
 10
134.00000000000011
 20
113.9019999999999
 30
0.0
 11
134.00000000000011
 21
113.9019999999999
 31
0.0
  0
LINE
  5
22DC
  8
0
 10
145.9999999999998
 20
111.902
 30
0.0
 11
133.9999999999998
 21
111.9019999999998
 31
0.0
  0
LINE
  5
22DD
  8
2
 10
141.99999999999989
 20
111.9019999999999
 30
0.0
 11
141.99999999999989
 21
113.902
 31
0.0
  0
LINE
  5
22DE
  8
2
 10
137.99999999999989
 20
113.902
 30
0.0
 11
137.9999999999998
 21
111.9019999999999
 31
0.0
  0
ARC
  5
2378
  8
0
 10
146.67569314726811
 20
116.3280476815718
 30
0.0
 40
8.9642445355993239
 50
108.8997931812461
 51
138.1486140842695
  0
LINE
  5
237D
  8
1
 10
54.999999999999851
 20
109.4019999999999
 30
0.0
 11
54.999999999999851
 21
127.5120523626
 31
0.0
  0
LINE
  5
237E
  8
1
 10
89.999999999999986
 20
109.4019999999999
 30
0.0
 11
89.999999999999986
 21
127.5120523626
 31
0.0
  0
LINE
  5
237F
  8
1
 10
139.9999999999998
 20
109.4019999999999
 30
0.0
 11
139.9999999999998
 21
127.5120523626
 31
0.0
  0
LINE
  5
2384
  8
1
 10
45.999999999999957
 20
120.0
 30
0.0
 11
63.999999999999972
 21
120.0
 31
0.0
  0
LINE
  5
2385
  8
1
 10
131.0
 20
120.0
 30
0.0
 11
149.0
 21
120.0
 31
0.0
  0
LINE
  5
238A
  8
1
 10
86.0
 20
120.0
 30
0.0
 11
94.0
 21
120.0
 31
0.0
  0
LINE
  5
2393
  8
1
 10
81.5
 20
155.0
 30
0.0
 11
117.4999999999998
 21
155.0
 31
0.0
  0
LINE
  5
2394
  8
1
 10
90.000000000000028
 20
146.5
 30
0.0
 11
90.000000000000028
 21
163.5
 31
0.0
  0
LINE
  5
2395
  8
1
 10
81.5
 20
85.0
 30
0.0
 11
117.4999999999998
 21
85.0
 31
0.0
  0
LINE
  5
2396
  8
1
 10
90.000000000000028
 20
76.500000000000028
 30
0.0
 11
90.000000000000028
 21
93.499999999999986
 31
0.0
  0
ARC
  5
24C9
  8
0
 10
53.184290389575693
 20
126.813417391193
 30
0.0
 40
3.4982411288107742
 50
262.86859615453699
 51
271.07628509229869
  0
LINE
  5
24CA
  8
0
 10
56.749999999999858
 20
123.3157993138999
 30
0.0
 11
53.249999999999851
 21
123.3157993138999
 31
0.0
  0
ARC
  5
24CB
  8
0
 10
56.815709610424022
 20
126.813417391193
 30
0.0
 40
3.4982411288107742
 50
268.9237149077012
 51
277.13140384546301
  0
ENDSEC
  0
EOF
