  0
SECTION
  2
HEADER
  9
$ACADVER
  1
AC1009
  9
$INSBASE
 10
0.0
 20
0.0
 30
0.0
  9
$EXTMIN
 10
0.0
 20
-302.74654127797112
 30
0.0
  9
$EXTMAX
 10
509.14871255001208
 20
196.7158743247968
 30
0.0
  9
$LIMMIN
 10
0.0
 20
0.0
  9
$LIMMAX
 10
187.5
 20
135.0
  9
$ORTHOMODE
 70
     1
  9
$REGENMODE
 70
     1
  9
$FILLMODE
 70
     1
  9
$QTEXTMODE
 70
     0
  9
$MIRRTEXT
 70
     0
  9
$DRAGMODE
 70
     2
  9
$LTSCALE
 40
5.0
  9
$OSMODE
 70
    37
  9
$ATTMODE
 70
     1
  9
$TEXTSIZE
 40
0.2
  9
$TRACEWID
 40
0.05
  9
$TEXTSTYLE
  7
STANDARD
  9
$CLAYER
  8
0
  9
$CELTYPE
  6
BYLAYER
  9
$CECOLOR
 62
   256
  9
$DIMSCALE
 40
0.5
  9
$DIMASZ
 40
3.0
  9
$DIMEXO
 40
2.0
  9
$DIMDLI
 40
0.3799999999999999
  9
$DIMRND
 40
0.0
  9
$DIMDLE
 40
0.0
  9
$DIMEXE
 40
2.0
  9
$DIMTP
 40
0.0
  9
$DIMTM
 40
0.0
  9
$DIMTXT
 40
3.2000000000000002
  9
$DIMCEN
 40
0.0
  9
$DIMTSZ
 40
0.0
  9
$DIMTOL
 70
     0
  9
$DIMLIM
 70
     0
  9
$DIMTIH
 70
     0
  9
$DIMTOH
 70
     0
  9
$DIMSE1
 70
     0
  9
$DIMSE2
 70
     0
  9
$DIMTAD
 70
     1
  9
$DIMZIN
 70
     8
  9
$DIMBLK
  1

  9
$DIMASO
 70
     0
  9
$DIMSHO
 70
     0
  9
$DIMPOST
  1

  9
$DIMAPOST
  1

  9
$DIMALT
 70
     0
  9
$DIMALTD
 70
     2
  9
$DIMALTF
 40
25.399999999999999
  9
$DIMLFAC
 40
1.0
  9
$DIMTOFL
 70
     0
  9
$DIMTVP
 40
1.6000000000000001
  9
$DIMTIX
 70
     1
  9
$DIMSOXD
 70
     0
  9
$DIMSAH
 70
     0
  9
$DIMBLK1
  1

  9
$DIMBLK2
  1

  9
$DIMSTYLE
  2
STANDARD
  9
$DIMCLRD
 70
     0
  9
$DIMCLRE
 70
     0
  9
$DIMCLRT
 70
     0
  9
$DIMTFAC
 40
1.0
  9
$DIMGAP
 40
1.0
  9
$LUNITS
 70
     2
  9
$LUPREC
 70
     1
  9
$SKETCHINC
 40
0.1
  9
$FILLETRAD
 40
0.4
  9
$AUNITS
 70
     0
  9
$AUPREC
 70
     0
  9
$MENU
  1
E:\r13\win\SUPPORT\ACAD
  9
$ELEVATION
 40
0.0
  9
$PELEVATION
 40
0.0
  9
$THICKNESS
 40
0.0
  9
$LIMCHECK
 70
     0
  9
$BLIPMODE
 70
     0
  9
$CHAMFERA
 40
0.0
  9
$CHAMFERB
 40
0.0
  9
$SKPOLY
 70
     0
  9
$TDCREATE
 40
2451824.7531229062
  9
$TDUPDATE
 40
2459191.6724509839
  9
$TDINDWG
 40
0.8234137153
  9
$TDUSRTIMER
 40
0.8234135301
  9
$USRTIMER
 70
     1
  9
$ANGBASE
 50
0.0
  9
$ANGDIR
 70
     0
  9
$PDMODE
 70
     0
  9
$PDSIZE
 40
0.0
  9
$PLINEWID
 40
0.0
  9
$COORDS
 70
     1
  9
$SPLFRAME
 70
     0
  9
$SPLINETYPE
 70
     6
  9
$SPLINESEGS
 70
     8
  9
$ATTDIA
 70
     0
  9
$ATTREQ
 70
     1
  9
$HANDLING
 70
     1
  9
$HANDSEED
  5
DBF4
  9
$SURFTAB1
 70
     6
  9
$SURFTAB2
 70
     6
  9
$SURFTYPE
 70
     6
  9
$SURFU
 70
     6
  9
$SURFV
 70
     6
  9
$UCSNAME
  2

  9
$UCSORG
 10
0.0
 20
0.0
 30
0.0
  9
$UCSXDIR
 10
1.0
 20
0.0
 30
0.0
  9
$UCSYDIR
 10
0.0
 20
1.0
 30
0.0
  9
$PUCSNAME
  2

  9
$PUCSORG
 10
0.0
 20
0.0
 30
0.0
  9
$PUCSXDIR
 10
1.0
 20
0.0
 30
0.0
  9
$PUCSYDIR
 10
0.0
 20
1.0
 30
0.0
  9
$USERI1
 70
     0
  9
$USERI2
 70
     1
  9
$USERI3
 70
     0
  9
$USERI4
 70
     0
  9
$USERI5
 70
     0
  9
$USERR1
 40
0.0
  9
$USERR2
 40
0.0
  9
$USERR3
 40
0.0
  9
$USERR4
 40
0.0
  9
$USERR5
 40
0.0
  9
$WORLDVIEW
 70
     1
  9
$SHADEDGE
 70
     3
  9
$SHADEDIF
 70
    70
  9
$TILEMODE
 70
     1
  9
$MAXACTVP
 70
    16
  9
$PLIMCHECK
 70
     0
  9
$PEXTMIN
 10
1.0000000000000000E+020
 20
1.0000000000000000E+020
 30
1.0000000000000000E+020
  9
$PEXTMAX
 10
-1.0000000000000000E+020
 20
-1.0000000000000000E+020
 30
-1.0000000000000000E+020
  9
$PLIMMIN
 10
0.0
 20
0.0
  9
$PLIMMAX
 10
12.0
 20
9.0
  9
$UNITMODE
 70
     0
  9
$VISRETAIN
 70
     0
  9
$PLINEGEN
 70
     0
  9
$PSLTSCALE
 70
     0
  0
ENDSEC
  0
SECTION
  2
TABLES
  0
TABLE
  2
VPORT
 70
     1
  0
VPORT
  2
*ACTIVE
 70
     0
 10
0.0
 20
0.0
 11
1.0
 21
1.0
 12
362.34662576687123
 22
150.0
 13
0.0
 23
0.0
 14
5.0
 24
5.0
 15
5.0
 25
5.0
 16
0.0
 26
0.0
 36
1.0
 17
0.0
 27
0.0
 37
0.0
 40
300.0
 41
2.415644171779141
 42
50.0
 43
0.0
 44
0.0
 50
0.0
 51
0.0
 71
     0
 72
   500
 73
     1
 74
     0
 75
     0
 76
     0
 77
     0
 78
     2
  0
ENDTAB
  0
TABLE
  2
LTYPE
 70
     5
  0
LTYPE
  2
CONTINUOUS
 70
     0
  3
Solid Line
 72
    65
 73
     0
 40
0.0
  0
LTYPE
  2
CENTER
 70
     0
  3
____ _ ____ _ ____ _ ____ _ ____ _ ____ _ ____
 72
    65
 73
     4
 40
2.0
 49
1.25
 49
-0.25
 49
0.25
 49
-0.25
  0
LTYPE
  2
PHANTOM2
 70
     0
  3
___ _ _ ___ _ _ ___ _ _ ___ _ _
 72
    65
 73
     6
 40
1.25
 49
0.625
 49
-0.125
 49
0.125
 49
-0.125
 49
0.125
 49
-0.125
  0
LTYPE
  2
HIDDEN
 70
     0
  3
__ __ __ __ __ __ __ __ __ __ __ __ __ __ __ __
 72
    65
 73
     2
 40
0.375
 49
0.25
 49
-0.125
  0
LTYPE
  2
PHANTOM
 70
     0
  3
_____ _ _ _____ _ _ _____ _ _ _____ _ _ ____
 72
    65
 73
     6
 40
2.5
 49
1.25
 49
-0.25
 49
0.25
 49
-0.25
 49
0.25
 49
-0.25
  0
ENDTAB
  0
TABLE
  2
LAYER
 70
     6
  0
LAYER
  2
0
 70
     0
 62
     7
  6
CONTINUOUS
  0
LAYER
  2
1
 70
     0
 62
     1
  6
CENTER
  0
LAYER
  2
DEFPOINTS
 70
     0
 62
     7
  6
CONTINUOUS
  0
LAYER
  2
2
 70
     0
 62
     2
  6
HIDDEN
  0
LAYER
  2
5
 70
     0
 62
     3
  6
PHANTOM
  0
LAYER
  2
3
 70
     0
 62
     3
  6
CONTINUOUS
  0
ENDTAB
  0
TABLE
  2
STYLE
 70
     2
  0
STYLE
  2
STANDARD
 70
     0
 40
0.0
 41
1.0
 50
0.0
 71
     0
 42
0.2
  3
TXT
  4
BIGFONT
  0
STYLE
  2
STANDARD1
 70
     0
 40
0.0
 41
1.0
 50
0.0
 71
     0
 42
3.0
  3
txt
  4

  0
ENDTAB
  0
TABLE
  2
VIEW
 70
     0
  0
ENDTAB
  0
TABLE
  2
UCS
 70
     0
  0
ENDTAB
  0
TABLE
  2
APPID
 70
    11
  0
APPID
  2
ACAD
 70
     0
  0
APPID
  2
ACAD_MLEADERVER
 70
     0
  0
APPID
  2
ACAD_EXEMPT_FROM_CAD_STANDARDS
 70
     0
  0
APPID
  2
ACAD_DSTYLE_DIMJAG
 70
     0
  0
APPID
  2
ACAD_DSTYLE_DIMTALN
 70
     0
  0
APPID
  2
ACAD_NAV_VCDISPLAY
 70
     0
  0
APPID
  2
ACAD_PSEXT
 70
     0
  0
APPID
  2
ACAECLAYERSTANDARD
 70
     0
  0
APPID
  2
ACCMTRANSPARENCY
 70
     0
  0
APPID
  2
ACAD_DSTYLE_DIMRADIAL_EXTENSION
 70
     0
  0
APPID
  2
ACADANNOTATIVE
 70
     0
  0
ENDTAB
  0
TABLE
  2
DIMSTYLE
 70
     1
  0
DIMSTYLE
  2
STANDARD
 70
     0
  3

  4

  5

  6

  7

 40
1.0
 41
0.18
 42
0.0625
 43
0.38
 44
0.18
 45
0.0
 46
0.0
 47
0.0
 48
0.0
140
0.18
141
0.09
142
0.0
143
25.399999999999999
144
1.0
145
0.0
146
1.0
147
0.09
 71
     0
 72
     0
 73
     1
 74
     1
 75
     0
 76
     0
 77
     0
 78
     0
170
     0
171
     2
172
     0
173
     0
174
     0
175
     0
176
     0
177
     0
178
     0
  0
ENDTAB
  0
ENDSEC
  0
SECTION
  2
BLOCKS
  0
BLOCK
  8
0
  2
$MODEL_SPACE
 70
     0
 10
0.0
 20
0.0
 30
0.0
  3
$MODEL_SPACE
  1

  0
ENDBLK
  5
9
  8
0
  0
BLOCK
 67
     1
  8
0
  2
$PAPER_SPACE
 70
     0
 10
0.0
 20
0.0
 30
0.0
  3
$PAPER_SPACE
  1

  0
ENDBLK
  5
E
 67
     1
  8
0
  0
ENDSEC
  0
SECTION
  2
ENTITIES
  0
LINE
  5
920F
  8
0
 10
131.6487077630141
 20
123.715874160884
 30
0.0
 11
131.6487077630141
 21
124.215875174163
 31
0.0
  0
LINE
  5
9210
  8
0
 10
116.6487080982903
 20
124.215875174163
 30
0.0
 11
116.6487080982903
 21
123.715874160884
 31
0.0
  0
LINE
  5
9211
  8
0
 10
131.6487077630141
 20
124.215875174163
 30
0.0
 11
131.148708146719
 21
124.7158743247968
 31
0.0
  0
LINE
  5
9212
  8
0
 10
117.1487077145854
 20
124.7158743247968
 30
0.0
 11
116.6487080982903
 21
124.215875174163
 31
0.0
  0
LINE
  5
9213
  8
0
 10
128.148708120642
 20
99.615874354971666
 30
0.0
 11
128.148708120642
 21
108.2158744142038
 31
0.0
  0
LINE
  5
9214
  8
0
 10
120.1487077406625
 20
108.2158744142038
 30
0.0
 11
120.1487077406625
 21
99.615874354971666
 31
0.0
  0
LINE
  5
9215
  8
0
 10
120.1487077406625
 20
99.615874354971666
 30
0.0
 11
121.5920835739949
 21
97.115874178020377
 31
0.0
  0
LINE
  5
9216
  8
0
 10
126.7053322873095
 20
97.115874178020377
 30
0.0
 11
128.148708120642
 21
99.615874354971666
 31
0.0
  0
LINE
  5
9217
  8
0
 10
141.14870885452419
 20
114.2158744663578
 30
0.0
 11
141.14870885452419
 21
120.3768834278566
 31
0.0
  0
LINE
  5
9218
  8
0
 10
107.1487070067803
 20
120.3768834278566
 30
0.0
 11
107.1487070067803
 21
114.2158744663578
 31
0.0
  0
ARC
  5
9219
  8
0
 10
108.14870793065229
 20
120.3768825434537
 30
0.0
 40
1.0
 50
110.0000000000001
 51
180.0
  0
ARC
  5
921A
  8
0
 10
140.14870793065231
 20
120.3768825434537
 30
0.0
 40
1.0
 50
0.0
 51
70.000000000003539
  0
LINE
  5
921B
  8
0
 10
107.1487070067803
 20
114.2158744663578
 30
0.0
 11
107.6487080200592
 21
113.7158743844014
 31
0.0
  0
LINE
  5
921C
  8
0
 10
140.6487078412452
 20
113.7158743844014
 30
0.0
 11
141.14870885452419
 21
114.2158744663578
 31
0.0
  0
LINE
  5
921D
  8
0
 10
140.4907275929132
 20
121.3165748671275
 30
0.0
 11
133.8987081318179
 21
123.715874160884
 31
0.0
  0
LINE
  5
9220
  8
0
 10
114.3987077294866
 20
123.715874160884
 30
0.0
 11
107.8066882683913
 21
121.3165748671275
 31
0.0
  0
ARC
  5
9223
  8
0
 10
133.5487079306522
 20
113.3158742800933
 30
0.0
 40
0.4000000000000199
 50
90.0
 51
180.0
  0
ARC
  5
9224
  8
0
 10
114.7487079306522
 20
113.3158742800933
 30
0.0
 40
0.4000000000000199
 50
0.0
 51
90.0
  0
LINE
  5
9225
  8
0
 10
115.1487083180825
 20
109.2158741124553
 30
0.0
 11
116.1487075506727
 21
108.2158744142038
 31
0.0
  0
LINE
  5
9226
  8
0
 10
132.1487083106318
 20
108.2158744142038
 30
0.0
 11
133.148707543222
 21
109.2158741124553
 31
0.0
  0
LINE
  5
9227
  8
0
 10
133.148707543222
 20
109.2158741124553
 30
0.0
 11
133.148707543222
 21
113.31587413257181
 31
0.0
  0
LINE
  5
9228
  8
0
 10
115.1487083180825
 20
113.31587413257181
 30
0.0
 11
115.1487083180825
 21
109.2158741124553
 31
0.0
  0
LINE
  5
9250
  8
0
 10
117.1487077145854
 20
124.7158743247968
 30
0.0
 11
131.148708146719
 21
124.7158743247968
 31
0.0
  0
LINE
  5
9251
  8
0
 10
120.1487077406625
 20
99.615874354971666
 30
0.0
 11
128.148708120642
 21
99.615874354971666
 31
0.0
  0
LINE
  5
9252
  8
0
 10
126.7053322873095
 20
97.115874178020377
 30
0.0
 11
121.5920835739949
 21
97.115874178020377
 31
0.0
  0
CIRCLE
  5
9253
  8
0
 10
124.14870793065219
 20
102.11587428009329
 30
0.0
 40
1.7000000000000171
  0
CIRCLE
  5
9254
  8
0
 10
124.14870793065219
 20
102.11587428009329
 30
0.0
 40
2.0000000000000142
  0
LINE
  5
9256
  8
0
 10
140.6487078412452
 20
113.7158743844014
 30
0.0
 11
107.6487080200592
 21
113.7158743844014
 31
0.0
  0
LINE
  5
9269
  8
0
 10
133.8987081318179
 20
123.715874160884
 30
0.0
 11
114.3987077294866
 21
123.715874160884
 31
0.0
  0
LINE
  5
92AA
  8
0
 10
132.1487083106318
 20
108.2158744142038
 30
0.0
 11
116.1487075506727
 21
108.2158744142038
 31
0.0
  0
LINE
  5
92AB
  8
0
 10
115.1487083180825
 20
109.2158741124553
 30
0.0
 11
121.3987079455534
 21
109.2158741124553
 31
0.0
  0
LINE
  5
92BA
  8
0
 10
107.8066882683913
 20
121.3165748671275
 30
0.0
 11
140.4907275929132
 21
121.3165748671275
 31
0.0
  0
CIRCLE
  5
9333
  8
0
 10
191.1487088545239
 20
174.7158743247968
 30
0.0
 40
16.999999999999979
  0
LINE
  5
933A
  8
0
 10
184.4487090601599
 20
49.115874273015258
 30
0.0
 11
184.14870863845709
 21
48.815874200558362
 31
0.0
  0
LINE
  5
933B
  8
0
 10
184.14870863845709
 20
45.415874155482349
 30
0.0
 11
184.4487090601599
 21
45.11587408302546
 31
0.0
  0
LINE
  5
933C
  8
0
 10
184.4487090601599
 20
45.11587408302546
 30
0.0
 11
187.684607273621
 21
45.11587408302546
 31
0.0
  0
LINE
  5
933D
  8
0
 10
194.61281043542681
 20
45.11587408302546
 30
0.0
 11
197.84870864888791
 21
45.115874083025481
 31
0.0
  0
LINE
  5
933E
  8
0
 10
197.84870864888791
 20
49.115874273015301
 30
0.0
 11
194.61281043542681
 21
49.115874273015258
 31
0.0
  0
LINE
  5
933F
  8
0
 10
187.684607273621
 20
49.115874273015258
 30
0.0
 11
184.4487090601599
 21
49.115874273015258
 31
0.0
  0
LINE
  5
9340
  8
0
 10
197.84870864888791
 20
45.115874083025481
 30
0.0
 11
198.14870907059071
 21
45.415874155482378
 31
0.0
  0
LINE
  5
9341
  8
0
 10
198.14870907059071
 20
48.815874200558397
 30
0.0
 11
197.84870864888791
 21
49.115874273015301
 31
0.0
  0
CIRCLE
  5
9342
  8
0
 10
191.1487088545239
 20
47.115874178020363
 30
0.0
 40
2.5566243270259572
  0
CIRCLE
  5
9343
  8
0
 10
191.1487088545239
 20
47.115874178020363
 30
0.0
 40
4.0
  0
CIRCLE
  5
9345
  8
0
 10
191.1487088545239
 20
47.115874178020363
 30
0.0
 40
1.229499999999923
  0
CIRCLE
  5
9346
  8
0
 10
191.1487088545239
 20
47.115874178020363
 30
0.0
 40
1.4999999999999889
  0
LINE
  5
9347
  8
0
 10
191.58161490010309
 20
47.865935730328538
 30
0.0
 11
190.71558950781539
 21
47.865812570058552
 31
0.0
  0
LINE
  5
9348
  8
0
 10
190.71558950781539
 20
47.865812570058552
 30
0.0
 11
190.28268346223621
 21
47.115751017750313
 31
0.0
  0
LINE
  5
9349
  8
0
 10
190.28268346223621
 20
47.115751017750313
 30
0.0
 11
190.71580280894469
 21
46.365812625712117
 31
0.0
  0
LINE
  5
934A
  8
0
 10
190.71580280894469
 20
46.365812625712117
 30
0.0
 11
191.58182820123241
 21
46.36593578598211
 31
0.0
  0
LINE
  5
934B
  8
0
 10
191.58182820123241
 20
46.36593578598211
 30
0.0
 11
192.0147342468116
 21
47.115997338290299
 31
0.0
  0
LINE
  5
934C
  8
0
 10
192.0147342468116
 20
47.115997338290299
 30
0.0
 11
191.58161490010309
 21
47.865935730328538
 31
0.0
  0
CIRCLE
  5
934D
  8
0
 10
192.65838276756739
 20
52.60289222348473
 30
0.0
 40
0.5
  0
LINE
  5
9350
  8
0
 10
191.45838277829009
 20
51.103868688700743
 30
0.0
 11
191.45838277829009
 21
53.802892267016709
 31
0.0
  0
LINE
  5
9351
  8
0
 10
191.45838277829009
 20
53.802892267016709
 30
0.0
 11
192.858382757475
 21
53.802892267016709
 31
0.0
  0
ARC
  5
9352
  8
0
 10
192.85838276756729
 20
52.802892223484712
 30
0.0
 40
1.0
 50
0.0
 51
90.0
  0
LINE
  5
9353
  8
0
 10
193.85838280497251
 20
52.802892103103943
 30
0.0
 11
193.85838280497251
 21
51.074384878633559
 31
0.0
  0
ARC
  5
9354
  8
0
 10
194.85838276756729
 20
51.074385079530479
 30
0.0
 40
1.000000000000016
 50
180.0
 51
230.23807925224139
  0
ARC
  5
9359
  8
0
 10
191.1487088545239
 20
46.615874178020363
 30
0.0
 40
4.799999999999998
 50
31.388166464351031
 51
50.238079252236837
  0
ARC
  5
935A
  8
0
 10
191.1487088545239
 20
46.615874178020363
 30
0.0
 40
4.7999999999999998
 50
198.20995686428279
 51
341.79004313571721
  0
LINE
  5
935D
  8
0
 10
184.4487090601599
 20
49.115874273015258
 30
0.0
 11
184.4487090601599
 21
45.115874083025517
 31
0.0
  0
LINE
  5
935E
  8
0
 10
184.14870863845709
 20
45.415874155482349
 30
0.0
 11
184.14870863845709
 21
48.815874200558362
 31
0.0
  0
LINE
  5
9360
  8
0
 10
197.84870864888791
 20
45.115874083025481
 30
0.0
 11
197.84870864888791
 21
49.115874273015301
 31
0.0
  0
LINE
  5
9363
  8
0
 10
198.14870907059071
 20
48.815874200558397
 30
0.0
 11
198.14870907059071
 21
45.415874155482378
 31
0.0
  0
CIRCLE
  5
936C
  8
0
 10
191.1487088545239
 20
47.115874178020363
 30
0.0
 40
9.0000000000000284
  0
CIRCLE
  5
936D
  8
0
 10
191.1487088545239
 20
47.115874178020363
 30
0.0
 40
7.5000000000000284
  0
CIRCLE
  5
9371
  8
0
 10
191.1487088545239
 20
47.115874178020363
 30
0.0
 40
17.000000000000028
  0
LINE
  5
946E
  8
0
 10
198.6487086868857
 20
123.715874160884
 30
0.0
 11
198.6487086868857
 21
124.215875174163
 31
0.0
  0
LINE
  5
946F
  8
0
 10
183.64870902216191
 20
124.215875174163
 30
0.0
 11
183.64870902216191
 21
123.715874160884
 31
0.0
  0
LINE
  5
9470
  8
0
 10
198.6487086868857
 20
124.215875174163
 30
0.0
 11
198.1487090705906
 21
124.7158743247968
 31
0.0
  0
LINE
  5
9471
  8
0
 10
184.14870863845701
 20
124.7158743247968
 30
0.0
 11
183.64870902216191
 21
124.215875174163
 31
0.0
  0
LINE
  5
9472
  8
0
 10
195.14870904451359
 20
104.1158743940872
 30
0.0
 11
195.14870904451359
 21
108.2158744142038
 31
0.0
  0
LINE
  5
9473
  8
0
 10
195.14870904451359
 20
99.615874354971666
 30
0.0
 11
195.14870904451359
 21
100.1158743205127
 31
0.0
  0
LINE
  5
9474
  8
0
 10
187.14870866453401
 20
100.1158743205127
 30
0.0
 11
187.14870866453401
 21
99.615874354971666
 31
0.0
  0
LINE
  5
9475
  8
0
 10
187.14870866453401
 20
108.2158744142038
 30
0.0
 11
187.14870866453401
 21
104.1158743940872
 31
0.0
  0
LINE
  5
9476
  8
0
 10
187.14870866453401
 20
99.615874354971666
 30
0.0
 11
188.59208449786649
 21
97.115874178020377
 31
0.0
  0
LINE
  5
9477
  8
0
 10
193.705333211181
 20
97.115874178020377
 30
0.0
 11
195.14870904451359
 21
99.615874354971666
 31
0.0
  0
LINE
  5
9478
  8
0
 10
184.4487090601599
 20
100.1158743205127
 30
0.0
 11
187.14870866453401
 21
100.1158743205127
 31
0.0
  0
LINE
  5
9479
  8
0
 10
195.14870904451359
 20
100.1158743205127
 30
0.0
 11
197.84870864888779
 21
100.1158743205127
 31
0.0
  0
LINE
  5
947A
  8
0
 10
197.84870864888779
 20
104.1158743940872
 30
0.0
 11
195.14870904451359
 21
104.1158743940872
 31
0.0
  0
LINE
  5
947B
  8
0
 10
187.14870866453401
 20
104.1158743940872
 30
0.0
 11
184.4487090601599
 21
104.1158743940872
 31
0.0
  0
LINE
  5
947C
  8
0
 10
197.84870864888779
 20
100.1158743205127
 30
0.0
 11
198.1487090705906
 21
100.41587427655431
 31
0.0
  0
LINE
  5
947D
  8
0
 10
198.1487090705906
 20
103.815874205215
 30
0.0
 11
197.84870864888779
 21
104.1158743940872
 31
0.0
  0
LINE
  5
947E
  8
0
 10
184.4487090601599
 20
104.1158743940872
 30
0.0
 11
184.14870863845701
 21
103.815874205215
 31
0.0
  0
LINE
  5
947F
  8
0
 10
184.14870863845701
 20
100.41587427655431
 30
0.0
 11
184.4487090601599
 21
100.1158743205127
 31
0.0
  0
LINE
  5
9480
  8
0
 10
179.89870840748901
 20
108.2158744142038
 30
0.0
 11
179.89870840748901
 21
111.2158739746195
 31
0.0
  0
LINE
  5
9481
  8
0
 10
174.3987084372913
 20
111.2158739746195
 30
0.0
 11
174.3987084372913
 21
108.2158744142038
 31
0.0
  0
LINE
  5
9482
  8
0
 10
178.6487086682593
 20
111.2158739746195
 30
0.0
 11
178.6487086682593
 21
113.7158743844014
 31
0.0
  0
LINE
  5
9483
  8
0
 10
175.64870910784359
 20
113.7158743844014
 30
0.0
 11
175.64870910784359
 21
111.2158739746195
 31
0.0
  0
LINE
  5
9484
  8
0
 10
208.14870977839581
 20
114.2158744663578
 30
0.0
 11
208.14870977839581
 21
120.3768834278566
 31
0.0
  0
LINE
  5
9485
  8
0
 10
174.14870793065191
 20
120.3768834278566
 30
0.0
 11
174.14870793065191
 21
114.2158744663578
 31
0.0
  0
ARC
  5
9486
  8
0
 10
175.14870885452379
 20
120.3768825434537
 30
0.0
 40
1.00000000000001
 50
110.0
 51
180.0
  0
ARC
  5
9487
  8
0
 10
207.1487088545239
 20
120.3768825434537
 30
0.0
 40
1.000000000000014
 50
0.0
 51
70.000000000003425
  0
LINE
  5
9488
  8
0
 10
174.14870793065191
 20
114.2158744663578
 30
0.0
 11
174.64870894393081
 21
113.7158743844014
 31
0.0
  0
LINE
  5
9489
  8
0
 10
207.64870876511691
 20
113.7158743844014
 30
0.0
 11
208.14870977839581
 21
114.2158744663578
 31
0.0
  0
LINE
  5
948A
  8
0
 10
207.4907285167848
 20
121.3165748671275
 30
0.0
 11
200.89870905568949
 21
123.715874160884
 31
0.0
  0
LINE
  5
948B
  8
0
 10
181.3987086533582
 20
123.715874160884
 30
0.0
 11
174.80668919226281
 21
121.3165748671275
 31
0.0
  0
ARC
  5
948C
  8
0
 10
200.54870885452391
 20
113.3158742800933
 30
0.0
 40
0.4000000000000057
 50
90.0
 51
180.0
  0
ARC
  5
948D
  8
0
 10
181.74870885452381
 20
113.3158742800933
 30
0.0
 40
0.4000000000000057
 50
0.0
 51
90.0
  0
LINE
  5
948E
  8
0
 10
182.14870924195401
 20
109.2158741124553
 30
0.0
 11
183.14870847454421
 21
108.2158744142038
 31
0.0
  0
LINE
  5
9490
  8
0
 10
200.1487084670936
 20
111.2158739746195
 30
0.0
 11
200.1487084670936
 21
113.31587413257181
 31
0.0
  0
LINE
  5
9491
  8
0
 10
182.14870924195401
 20
113.31587413257181
 30
0.0
 11
182.14870924195401
 21
109.2158741124553
 31
0.0
  0
LINE
  5
94B3
  8
0
 10
184.14870863845701
 20
124.7158743247968
 30
0.0
 11
198.1487090705906
 21
124.7158743247968
 31
0.0
  0
LINE
  5
94B4
  8
0
 10
187.14870866453401
 20
99.615874354971666
 30
0.0
 11
195.14870904451359
 21
99.615874354971666
 31
0.0
  0
POLYLINE
  5
94B5
  8
0
 66
     1
 10
0.0
 20
0.0
 30
0.0
 70
   128
  0
VERTEX
  5
DA5C
  8
0
 10
195.14543591132511
 20
104.10931718467
 30
0.0
  0
VERTEX
  5
DA5D
  8
0
 10
195.14696560865389
 20
104.1123851940614
 30
0.0
  0
VERTEX
  5
DA5E
  8
0
 10
195.12707302412139
 20
104.072243561281
 30
0.0
  0
VERTEX
  5
DA5F
  8
0
 10
195.0852864428436
 20
103.9858051848245
 30
0.0
  0
VERTEX
  5
DA60
  8
0
 10
195.02652604198209
 20
103.8587073602361
 30
0.0
  0
VERTEX
  5
DA61
  8
0
 10
194.95353852464009
 20
103.68963692268549
 30
0.0
  0
VERTEX
  5
DA62
  8
0
 10
194.86813484756399
 20
103.47017506534431
 30
0.0
  0
VERTEX
  5
DA63
  8
0
 10
194.7809707379912
 20
103.2082693458182
 30
0.0
  0
VERTEX
  5
DA64
  8
0
 10
194.70132961934559
 20
102.90398204630429
 30
0.0
  0
VERTEX
  5
DA65
  8
0
 10
194.64122904529921
 20
102.5605062062499
 30
0.0
  0
VERTEX
  5
DA66
  8
0
 10
194.61501510879151
 20
102.2394810610098
 30
0.0
  0
VERTEX
  5
DA67
  8
0
 10
194.61938906526319
 20
101.90228470707039
 30
0.0
  0
VERTEX
  5
DA68
  8
0
 10
194.64851338481651
 20
101.61724390160489
 30
0.0
  0
VERTEX
  5
DA69
  8
0
 10
194.6990532341425
 20
101.33809232899181
 30
0.0
  0
VERTEX
  5
DA6A
  8
0
 10
194.7663585196261
 20
101.0730951132831
 30
0.0
  0
VERTEX
  5
DA6B
  8
0
 10
194.84456772981329
 20
100.827707738394
 30
0.0
  0
VERTEX
  5
DA6C
  8
0
 10
194.93293883344279
 20
100.5925898247045
 30
0.0
  0
VERTEX
  5
DA6D
  8
0
 10
195.0172167743568
 20
100.3938542020154
 30
0.0
  0
VERTEX
  5
DA6E
  8
0
 10
195.08574605053411
 20
100.2449757692051
 30
0.0
  0
VERTEX
  5
DA6F
  8
0
 10
195.13247935166709
 20
100.1485342898053
 30
0.0
  0
VERTEX
  5
DA70
  8
0
 10
195.14847481688611
 20
100.1163420772758
 30
0.0
  0
VERTEX
  5
DA71
  8
0
 10
195.1471658430074
 20
100.11897085165801
 30
0.0
  0
SEQEND
  5
DA72
  8
0
  0
POLYLINE
  5
94B6
  8
0
 66
     1
 10
0.0
 20
0.0
 30
0.0
 70
   128
  0
VERTEX
  5
DA73
  8
0
 10
187.1519817977225
 20
100.1224312970993
 30
0.0
  0
VERTEX
  5
DA74
  8
0
 10
187.15045210039369
 20
100.11936340412321
 30
0.0
  0
VERTEX
  5
DA75
  8
0
 10
187.17034468492619
 20
100.1595049204883
 30
0.0
  0
VERTEX
  5
DA76
  8
0
 10
187.21213126620401
 20
100.2459434133601
 30
0.0
  0
VERTEX
  5
DA77
  8
0
 10
187.27089166706551
 20
100.37304135436391
 30
0.0
  0
VERTEX
  5
DA78
  8
0
 10
187.34387918440751
 20
100.54211155908381
 30
0.0
  0
VERTEX
  5
DA79
  8
0
 10
187.42928286148361
 20
100.7615735328403
 30
0.0
  0
VERTEX
  5
DA7A
  8
0
 10
187.5164469710563
 20
101.0234791941588
 30
0.0
  0
VERTEX
  5
DA7B
  8
0
 10
187.59608808970199
 20
101.3277665227764
 30
0.0
  0
VERTEX
  5
DA7C
  8
0
 10
187.6561886637484
 20
101.6712423773828
 30
0.0
  0
VERTEX
  5
DA7D
  8
0
 10
187.6824026002561
 20
101.99226747896719
 30
0.0
  0
VERTEX
  5
DA7E
  8
0
 10
187.67802864378439
 20
102.3294638765623
 30
0.0
  0
VERTEX
  5
DA7F
  8
0
 10
187.64890432423101
 20
102.6145046383721
 30
0.0
  0
VERTEX
  5
DA80
  8
0
 10
187.598364474905
 20
102.8936562400889
 30
0.0
  0
VERTEX
  5
DA81
  8
0
 10
187.5310591894214
 20
103.15865348490151
 30
0.0
  0
VERTEX
  5
DA82
  8
0
 10
187.4528499792342
 20
103.40404080158289
 30
0.0
  0
VERTEX
  5
DA83
  8
0
 10
187.36447887560479
 20
103.6391587734801
 30
0.0
  0
VERTEX
  5
DA84
  8
0
 10
187.2802009346907
 20
103.8378943961692
 30
0.0
  0
VERTEX
  5
DA85
  8
0
 10
187.21167165851341
 20
103.9867728289795
 30
0.0
  0
VERTEX
  5
DA86
  8
0
 10
187.16493835738049
 20
104.0832143083793
 30
0.0
  0
VERTEX
  5
DA87
  8
0
 10
187.1489428921615
 20
104.1154066373241
 30
0.0
  0
VERTEX
  5
DA88
  8
0
 10
187.15025186604009
 20
104.1127777465266
 30
0.0
  0
SEQEND
  5
DA89
  8
0
  0
LINE
  5
94B7
  8
0
 10
193.705333211181
 20
97.115874178020377
 30
0.0
 11
188.59208449786649
 21
97.115874178020377
 31
0.0
  0
LINE
  5
94B8
  8
0
 10
197.84870864888779
 20
100.1158743205127
 30
0.0
 11
197.84870864888779
 21
104.1158743940872
 31
0.0
  0
LINE
  5
94B9
  8
0
 10
184.4487090601599
 20
104.1158743940872
 30
0.0
 11
184.4487090601599
 21
100.1158743205127
 31
0.0
  0
LINE
  5
94BA
  8
0
 10
198.1487090705906
 20
103.815874205215
 30
0.0
 11
198.1487090705906
 21
100.41587427655431
 31
0.0
  0
LINE
  5
94BB
  8
0
 10
184.14870863845701
 20
100.41587427655431
 30
0.0
 11
184.14870863845701
 21
103.815874205215
 31
0.0
  0
LINE
  5
94BD
  8
0
 10
179.89870840748901
 20
108.2158744142038
 30
0.0
 11
174.3987084372913
 21
108.2158744142038
 31
0.0
  0
LINE
  5
94BF
  8
0
 10
179.89870840748901
 20
111.2158739746195
 30
0.0
 11
174.3987084372913
 21
111.2158739746195
 31
0.0
  0
LINE
  5
94C1
  8
0
 10
207.64870876511691
 20
113.7158743844014
 30
0.0
 11
174.64870894393081
 21
113.7158743844014
 31
0.0
  0
LINE
  5
94C2
  8
0
 10
200.89870905568949
 20
123.715874160884
 30
0.0
 11
181.3987086533582
 21
123.715874160884
 31
0.0
  0
LINE
  5
94C3
  8
0
 10
202.31796642830719
 20
123.0903308645469
 30
0.0
 11
205.28718577763189
 21
122.09231628036321
 31
0.0
  0
LINE
  5
94C4
  8
0
 10
202.2376361309563
 20
123.07323737001239
 30
0.0
 11
202.31796642830719
 21
123.0903308645469
 31
0.0
  0
LINE
  5
94C5
  8
0
 10
205.67232118984811
 20
121.8135099664909
 30
0.0
 11
202.2376361309563
 21
123.07323737001239
 31
0.0
  0
LINE
  5
94C6
  8
0
 10
205.7496489032184
 20
121.8259859637004
 30
0.0
 11
205.67232118984811
 21
121.8135099664909
 31
0.0
  0
LINE
  5
94C7
  8
0
 10
203.03793652048461
 20
122.82369879936989
 30
0.0
 11
205.7496489032184
 21
121.8259859637004
 31
0.0
  0
LINE
  5
94C8
  8
0
 10
206.00415328582881
 20
121.8268818960172
 30
0.0
 11
203.03793652048461
 21
122.82369879936989
 31
0.0
  0
LINE
  5
94C9
  8
0
 10
206.08748616716019
 20
121.8134522244912
 30
0.0
 11
206.00415328582881
 21
121.8268818960172
 31
0.0
  0
LINE
  5
94CA
  8
0
 10
202.65280203959099
 20
123.0732094303352
 30
0.0
 11
206.08748616716019
 21
121.8134522244912
 31
0.0
  0
LINE
  5
94CB
  8
0
 10
202.5754743262207
 20
123.0897851095182
 30
0.0
 11
202.65280203959099
 21
123.0732094303352
 31
0.0
  0
LINE
  5
94CC
  8
0
 10
205.28718577763189
 20
122.09231628036321
 30
0.0
 11
202.5754743262207
 21
123.0897851095182
 31
0.0
  0
LINE
  5
94CD
  8
0
 10
195.39870886942489
 20
108.2158744142037
 30
0.0
 11
183.14870847454421
 21
108.2158744142038
 31
0.0
  0
LINE
  5
94CE
  8
0
 10
182.14870924195401
 20
109.2158741124553
 30
0.0
 11
195.39870886942481
 21
109.2158741124553
 31
0.0
  0
LINE
  5
94DF
  8
0
 10
174.80668919226281
 20
121.3165748671275
 30
0.0
 11
207.49072851678491
 21
121.3165748671275
 31
0.0
  0
LINE
  5
9887
  8
1
 10
124.14870793065219
 20
92.115874178020377
 30
0.0
 11
124.14870793065219
 21
129.7158743247968
 31
0.0
  0
LINE
  5
9888
  8
1
 10
120.14870793065209
 20
102.11587438440149
 30
0.0
 11
128.14870793065211
 21
102.11587438440149
 31
0.0
  0
LINE
  5
9889
  8
1
 10
191.14870885452379
 20
92.115874178020377
 30
0.0
 11
191.14870885452379
 21
129.7158743247968
 31
0.0
  0
LINE
  5
988A
  8
1
 10
182.14870863845701
 20
102.11587438440149
 30
0.0
 11
200.14870907059071
 21
102.11587438440149
 31
0.0
  0
LINE
  5
988D
  8
1
 10
191.1487088545239
 20
152.7158743247968
 30
0.0
 11
191.1487088545239
 21
196.7158743247968
 31
0.0
  0
LINE
  5
988E
  8
1
 10
169.1487088545239
 20
174.7158743247968
 30
0.0
 11
213.1487088545239
 21
174.7158743247968
 31
0.0
  0
LINE
  5
988F
  8
1
 10
191.14870885452379
 20
69.115874178020363
 30
0.0
 11
191.1487088545239
 21
25.115874178020359
 31
0.0
  0
LINE
  5
9890
  8
1
 10
213.1487088545239
 20
47.11587417802042
 30
0.0
 11
169.1487088545239
 21
47.115874178020299
 31
0.0
  0
LINE
  5
9B58
  8
0
 10
139.02306356873319
 20
108.2158744142038
 30
0.0
 11
139.02306356873319
 21
111.2158739746195
 31
0.0
  0
LINE
  5
9B59
  8
0
 10
133.52306359853549
 20
111.2158739746195
 30
0.0
 11
133.52306359853549
 21
108.2158744142038
 31
0.0
  0
LINE
  5
9B5A
  8
0
 10
137.77306382950351
 20
111.2158739746195
 30
0.0
 11
137.77306382950351
 21
113.7158743844014
 31
0.0
  0
LINE
  5
9B5B
  8
0
 10
134.7730642690878
 20
113.7158743844014
 30
0.0
 11
134.7730642690878
 21
111.2158739746195
 31
0.0
  0
LINE
  5
9B5C
  8
0
 10
139.02306356873319
 20
108.2158744142038
 30
0.0
 11
133.52306359853549
 21
108.2158744142038
 31
0.0
  0
LINE
  5
9B5D
  8
0
 10
139.02306356873319
 20
111.2158739746195
 30
0.0
 11
133.52306359853549
 21
111.2158739746195
 31
0.0
  0
LINE
  5
9B5E
  8
1
 10
136.27306358363441
 20
106.2158744142038
 30
0.0
 11
136.27306358363441
 21
115.7158743844014
 31
0.0
  0
LINE
  5
9B5F
  8
0
 10
114.7743522627689
 20
108.2158744142038
 30
0.0
 11
114.7743522627689
 21
111.2158739746195
 31
0.0
  0
LINE
  5
9B60
  8
0
 10
109.27435229257119
 20
111.2158739746195
 30
0.0
 11
109.27435229257119
 21
108.2158744142038
 31
0.0
  0
LINE
  5
9B61
  8
0
 10
113.52435252353921
 20
111.2158739746195
 30
0.0
 11
113.52435252353921
 21
113.7158743844014
 31
0.0
  0
LINE
  5
9B62
  8
0
 10
110.5243529631235
 20
113.7158743844014
 30
0.0
 11
110.5243529631235
 21
111.2158739746195
 31
0.0
  0
LINE
  5
9B63
  8
0
 10
114.7743522627689
 20
108.2158744142038
 30
0.0
 11
109.27435229257119
 21
108.2158744142038
 31
0.0
  0
LINE
  5
9B64
  8
0
 10
114.7743522627689
 20
111.2158739746195
 30
0.0
 11
109.27435229257119
 21
111.2158739746195
 31
0.0
  0
LINE
  5
9B65
  8
1
 10
112.02435227767
 20
106.2158744142038
 30
0.0
 11
112.02435227767
 21
115.7158743844014
 31
0.0
  0
LINE
  5
9C3A
  8
1
 10
177.1487084223902
 20
106.2158744142038
 30
0.0
 11
177.1487084223902
 21
115.7158743844014
 31
0.0
  0
LINE
  5
9C3B
  8
0
 10
200.89870883962249
 20
108.2158744142038
 30
0.0
 11
200.89870883962249
 21
111.2158739746195
 31
0.0
  0
LINE
  5
9C3C
  8
0
 10
195.39870886942481
 20
111.2158739746195
 30
0.0
 11
195.39870886942481
 21
108.2158744142038
 31
0.0
  0
LINE
  5
9C3D
  8
0
 10
199.64870910039281
 20
111.2158739746195
 30
0.0
 11
199.64870910039281
 21
113.7158743844014
 31
0.0
  0
LINE
  5
9C3E
  8
0
 10
196.64870953997709
 20
113.7158743844014
 30
0.0
 11
196.64870953997709
 21
111.2158739746195
 31
0.0
  0
LINE
  5
9C3F
  8
0
 10
200.89870883962249
 20
108.2158744142038
 30
0.0
 11
195.39870886942481
 21
108.2158744142038
 31
0.0
  0
LINE
  5
9C40
  8
0
 10
200.89870883962249
 20
111.2158739746195
 30
0.0
 11
195.39870886942481
 21
111.2158739746195
 31
0.0
  0
LINE
  5
9C41
  8
1
 10
198.1487088545237
 20
106.2158744142038
 30
0.0
 11
198.1487088545237
 21
115.7158743844014
 31
0.0
  0
CIRCLE
  5
9D34
  8
0
 10
177.14870885452379
 20
47.115874178020327
 30
0.0
 40
2.7499999999999978
  0
LINE
  5
9D36
  8
0
 10
176.42702101803681
 20
48.365874178020448
 30
0.0
 11
175.70533318154989
 21
47.115874178020327
 31
0.0
  0
LINE
  5
9D37
  8
0
 10
177.87039669101091
 20
48.365874178020448
 30
0.0
 11
176.4270210180367
 21
48.365874178020448
 31
0.0
  0
LINE
  5
9D38
  8
0
 10
177.87039669101091
 20
48.365874178020448
 30
0.0
 11
178.5920845274978
 21
47.115874178020327
 31
0.0
  0
LINE
  5
9D39
  8
0
 10
176.4270210180369
 20
45.865874178020327
 30
0.0
 11
175.70533318154989
 21
47.115874178020327
 31
0.0
  0
LINE
  5
9D3A
  8
0
 10
177.87039669101091
 20
45.865874178020448
 30
0.0
 11
176.42702101803681
 21
45.865874178020327
 31
0.0
  0
LINE
  5
9D3B
  8
0
 10
177.87039669101091
 20
45.865874178020448
 30
0.0
 11
178.5920845274978
 21
47.115874178020448
 31
0.0
  0
LINE
  5
9D3C
  8
1
 10
195.7737088545237
 20
55.126609163026423
 30
0.0
 11
200.5237088545237
 21
63.353850498978566
 31
0.0
  0
LINE
  5
9D3D
  8
1
 10
195.7737088545237
 20
39.105139193014367
 30
0.0
 11
200.52370885452379
 21
30.877897857062209
 31
0.0
  0
CIRCLE
  5
9D3E
  8
0
 10
198.1487088545237
 20
59.240229831002488
 30
0.0
 40
2.7499999999999978
  0
LINE
  5
9D3F
  8
0
 10
197.42702101803661
 20
60.490229831002608
 30
0.0
 11
196.70533318154961
 21
59.240229831002488
 31
0.0
  0
LINE
  5
9D40
  8
0
 10
198.87039669101071
 20
60.490229831002608
 30
0.0
 11
197.42702101803661
 21
60.490229831002608
 31
0.0
  0
LINE
  5
9D41
  8
0
 10
198.87039669101071
 20
60.490229831002608
 30
0.0
 11
199.59208452749769
 21
59.240229831002488
 31
0.0
  0
LINE
  5
9D42
  8
0
 10
197.42702101803681
 20
57.990229831002488
 30
0.0
 11
196.70533318154961
 21
59.240229831002488
 31
0.0
  0
LINE
  5
9D43
  8
0
 10
198.87039669101071
 20
57.990229831002608
 30
0.0
 11
197.4270210180367
 21
57.990229831002488
 31
0.0
  0
LINE
  5
9D44
  8
0
 10
198.87039669101071
 20
57.990229831002608
 30
0.0
 11
199.59208452749769
 21
59.240229831002608
 31
0.0
  0
CIRCLE
  5
9D45
  8
0
 10
198.14870885452379
 20
34.991518525038288
 30
0.0
 40
2.7499999999999978
  0
LINE
  5
9D46
  8
0
 10
197.4270210180367
 20
36.241518525038401
 30
0.0
 11
196.70533318154969
 21
34.991518525038288
 31
0.0
  0
LINE
  5
9D47
  8
0
 10
198.8703966910108
 20
36.241518525038288
 30
0.0
 11
197.4270210180367
 21
36.241518525038288
 31
0.0
  0
LINE
  5
9D48
  8
0
 10
198.8703966910108
 20
36.241518525038401
 30
0.0
 11
199.5920845274978
 21
34.991518525038288
 31
0.0
  0
LINE
  5
9D49
  8
0
 10
197.42702101803681
 20
33.741518525038288
 30
0.0
 11
196.70533318154969
 21
34.991518525038288
 31
0.0
  0
LINE
  5
9D4A
  8
0
 10
198.8703966910108
 20
33.741518525038401
 30
0.0
 11
197.4270210180367
 21
33.741518525038288
 31
0.0
  0
LINE
  5
9D4B
  8
0
 10
198.8703966910108
 20
33.741518525038288
 30
0.0
 11
199.5920845274978
 21
34.991518525038401
 31
0.0
  0
CIRCLE
  5
9D4C
  8
1
 10
191.1487088545239
 20
47.115874178020363
 30
0.0
 40
13.999999999999931
  0
CIRCLE
  5
9D4D
  8
0
 10
189.6390349414803
 20
52.602892223484787
 30
0.0
 40
0.5
  0
LINE
  5
9D4E
  8
0
 10
190.83903494148029
 20
51.103868920692427
 30
0.0
 11
190.83903494148041
 21
53.802892223484832
 31
0.0
  0
LINE
  5
9D4F
  8
0
 10
190.83903494148041
 20
53.802892223484832
 30
0.0
 11
189.4390349414804
 21
53.802892223484832
 31
0.0
  0
ARC
  5
9D50
  8
0
 10
189.4390349414804
 20
52.802892223484832
 30
0.0
 40
1.0000000000000031
 50
90.0
 51
180.0
  0
LINE
  5
9D51
  8
0
 10
188.4390349414804
 20
52.802892223484832
 30
0.0
 11
188.43903494148029
 21
51.074385079530543
 31
0.0
  0
ARC
  5
9D52
  8
0
 10
187.43903494148029
 20
51.074385079530657
 30
0.0
 40
1.0
 50
309.76192074775861
 51
0.0
  0
ARC
  5
9D53
  8
0
 10
191.1487088545237
 20
46.615874178020242
 30
0.0
 40
4.8000000000000167
 50
129.76192074775861
 51
148.61183353564891
  0
CIRCLE
  5
9F2D
  8
0
 10
425.14871070226792
 20
174.7158743247968
 30
0.0
 40
17.000000000000011
  0
LINE
  5
A0A0
  8
1
 10
425.14871070226792
 20
152.7158743247968
 30
0.0
 11
425.14871070226792
 21
196.7158743247968
 31
0.0
  0
LINE
  5
A0A1
  8
1
 10
403.14871070226792
 20
174.7158743247968
 30
0.0
 11
447.14871070226798
 21
174.7158743247968
 31
0.0
  0
LINE
  5
A289
  8
0
 10
432.6487105346298
 20
123.715874160884
 30
0.0
 11
432.6487105346298
 21
123.88587523376761
 31
0.0
  0
LINE
  5
A28A
  8
0
 10
417.64871086990598
 20
123.88587523376761
 30
0.0
 11
417.64871086990598
 21
123.715874160884
 31
0.0
  0
LINE
  5
A28B
  8
0
 10
432.6487105346298
 20
123.88587523376761
 30
0.0
 11
432.1487109183347
 21
124.3858743844014
 31
0.0
  0
LINE
  5
A28C
  8
0
 10
418.14871048620108
 20
124.3858743844014
 30
0.0
 11
417.64871086990598
 21
123.88587523376761
 31
0.0
  0
LINE
  5
A28D
  8
0
 10
429.14871089225772
 20
99.285874486846907
 30
0.0
 11
429.14871089225772
 21
108.2158744142038
 31
0.0
  0
LINE
  5
A28E
  8
0
 10
421.14871051227811
 20
108.2158744142038
 30
0.0
 11
421.14871051227811
 21
99.285874486846907
 31
0.0
  0
LINE
  5
A28F
  8
0
 10
421.14871051227811
 20
99.285874486846907
 30
0.0
 11
422.5920863456106
 21
96.785874309895618
 31
0.0
  0
LINE
  5
A290
  8
0
 10
427.70533505892519
 20
96.785874309895618
 30
0.0
 11
429.14871089225772
 21
99.285874486846907
 31
0.0
  0
LINE
  5
A291
  8
0
 10
442.14871162613991
 20
114.2158744663578
 30
0.0
 11
442.14871162613991
 21
120.3768834278566
 31
0.0
  0
LINE
  5
A292
  8
0
 10
408.14870977839593
 20
120.3768834278566
 30
0.0
 11
408.14870977839593
 21
114.2158744663578
 31
0.0
  0
ARC
  5
A293
  8
0
 10
409.14871070226792
 20
120.3768825434537
 30
0.0
 40
1.0
 50
110.0
 51
180.0
  0
ARC
  5
A294
  8
0
 10
441.14871070226792
 20
120.3768825434537
 30
0.0
 40
1.0
 50
0.0
 51
70.000000000003425
  0
LINE
  5
A295
  8
0
 10
408.14870977839593
 20
114.2158744663578
 30
0.0
 11
408.64871079167489
 21
113.7158743844014
 31
0.0
  0
LINE
  5
A296
  8
0
 10
441.6487106128609
 20
113.7158743844014
 30
0.0
 11
442.14871162613991
 21
114.2158744663578
 31
0.0
  0
LINE
  5
A297
  8
0
 10
441.49073036452887
 20
121.3165748671275
 30
0.0
 11
434.8987109034336
 21
123.715874160884
 31
0.0
  0
LINE
  5
A298
  8
0
 10
415.39871050110219
 20
123.715874160884
 30
0.0
 11
408.80669104000691
 21
121.3165748671275
 31
0.0
  0
ARC
  5
A299
  8
0
 10
434.54871070226801
 20
113.3158742800933
 30
0.0
 40
0.4000000000000199
 50
90.0
 51
180.0
  0
ARC
  5
A29A
  8
0
 10
415.748710702268
 20
113.3158742800933
 30
0.0
 40
0.4000000000000199
 50
0.0
 51
90.0
  0
LINE
  5
A29B
  8
0
 10
416.14871108969811
 20
109.2158741124553
 30
0.0
 11
417.14871032228831
 21
108.2158744142038
 31
0.0
  0
LINE
  5
A29D
  8
0
 10
434.14871031483767
 20
111.2158739746195
 30
0.0
 11
434.14871031483767
 21
113.31587413257181
 31
0.0
  0
LINE
  5
A29E
  8
0
 10
416.14871108969811
 20
113.31587413257181
 30
0.0
 11
416.14871108969811
 21
109.2158741124553
 31
0.0
  0
LINE
  5
A2A5
  8
0
 10
418.14871048620108
 20
124.3858743844014
 30
0.0
 11
432.1487109183347
 21
124.3858743844014
 31
0.0
  0
LINE
  5
A2A6
  8
0
 10
421.14871051227811
 20
99.285874486846907
 30
0.0
 11
429.14871089225772
 21
99.285874486846907
 31
0.0
  0
LINE
  5
A2A7
  8
0
 10
427.70533505892519
 20
96.785874309895618
 30
0.0
 11
422.5920863456106
 21
96.785874309895618
 31
0.0
  0
CIRCLE
  5
A2A8
  8
0
 10
425.14871070226792
 20
101.78587441196861
 30
0.0
 40
1.7000000000000171
  0
CIRCLE
  5
A2A9
  8
0
 10
425.14871070226792
 20
101.78587441196861
 30
0.0
 40
2.0000000000000142
  0
LINE
  5
A2AA
  8
0
 10
441.6487106128609
 20
113.7158743844014
 30
0.0
 11
408.64871079167489
 21
113.7158743844014
 31
0.0
  0
LINE
  5
A2BD
  8
0
 10
434.8987109034336
 20
123.715874160884
 30
0.0
 11
415.39871050110219
 21
123.715874160884
 31
0.0
  0
LINE
  5
A2DE
  8
0
 10
429.39871071716902
 20
108.2158744142038
 30
0.0
 11
417.14871032228831
 21
108.2158744142038
 31
0.0
  0
LINE
  5
A2DF
  8
0
 10
416.14871108969811
 20
109.2158741124553
 30
0.0
 11
429.39871071716902
 21
109.2158741124553
 31
0.0
  0
LINE
  5
A2E0
  8
0
 10
408.80669104000691
 20
121.3165748671275
 30
0.0
 11
441.49073036452887
 21
121.3165748671275
 31
0.0
  0
LINE
  5
A2E1
  8
1
 10
425.14871070226792
 20
91.785874309895618
 30
0.0
 11
425.14871070226792
 21
129.3858743844014
 31
0.0
  0
LINE
  5
A2E2
  8
1
 10
421.14871070226781
 20
101.78587451627671
 30
0.0
 11
429.14871070226781
 21
101.78587451627671
 31
0.0
  0
LINE
  5
A2F2
  8
0
 10
436.3179686310686
 20
123.0903311895641
 30
0.0
 11
439.28718785028781
 21
122.092316376046
 31
0.0
  0
LINE
  5
A2F3
  8
0
 10
436.2376383007383
 20
123.07323778538129
 30
0.0
 11
436.3179686310686
 21
123.0903311895641
 31
0.0
  0
LINE
  5
A2F4
  8
0
 10
439.67232298542291
 20
121.81350929909669
 30
0.0
 11
436.2376383007383
 21
123.07323778538129
 31
0.0
  0
LINE
  5
A2F5
  8
0
 10
439.7496503127503
 20
121.82598492406891
 30
0.0
 11
439.67232298542291
 21
121.81350929909669
 31
0.0
  0
LINE
  5
A2F6
  8
0
 10
437.0379386010386
 20
122.82369882166221
 30
0.0
 11
439.7496503127503
 21
121.82598492406891
 31
0.0
  0
LINE
  5
A2F7
  8
0
 10
440.0041548172548
 20
121.8268810481444
 30
0.0
 11
437.0379386010386
 21
122.82369882166221
 31
0.0
  0
LINE
  5
A2F8
  8
0
 10
440.08748815058817
 20
121.813451347631
 30
0.0
 11
440.0041548172548
 21
121.8268810481444
 31
0.0
  0
LINE
  5
A2F9
  8
0
 10
436.6528034659035
 20
123.0732085729926
 30
0.0
 11
440.08748815058817
 21
121.813451347631
 31
0.0
  0
LINE
  5
A2FA
  8
0
 10
436.57547613857611
 20
123.0897855805586
 30
0.0
 11
436.6528034659035
 21
123.0732085729926
 31
0.0
  0
LINE
  5
A2FB
  8
0
 10
439.28718785028781
 20
122.092316376046
 30
0.0
 11
436.57547613857611
 21
123.0897855805586
 31
0.0
  0
LINE
  5
A2FC
  8
0
 10
413.89871025523308
 20
108.2158744142038
 30
0.0
 11
413.89871025523308
 21
111.2158739746195
 31
0.0
  0
LINE
  5
A2FD
  8
0
 10
408.39871028503541
 20
111.2158739746195
 30
0.0
 11
408.39871028503541
 21
108.2158744142038
 31
0.0
  0
LINE
  5
A2FE
  8
0
 10
412.6487105160034
 20
111.2158739746195
 30
0.0
 11
412.6487105160034
 21
113.7158743844014
 31
0.0
  0
LINE
  5
A2FF
  8
0
 10
409.64871095558772
 20
113.7158743844014
 30
0.0
 11
409.64871095558772
 21
111.2158739746195
 31
0.0
  0
LINE
  5
A300
  8
0
 10
413.89871025523308
 20
108.2158744142038
 30
0.0
 11
408.39871028503541
 21
108.2158744142038
 31
0.0
  0
LINE
  5
A301
  8
0
 10
413.89871025523308
 20
111.2158739746195
 30
0.0
 11
408.39871028503541
 21
111.2158739746195
 31
0.0
  0
LINE
  5
A302
  8
1
 10
411.14871027013419
 20
106.2158744142038
 30
0.0
 11
411.14871027013419
 21
115.7158743844014
 31
0.0
  0
LINE
  5
A303
  8
0
 10
434.8987106873667
 20
108.2158744142038
 30
0.0
 11
434.8987106873667
 21
111.2158739746195
 31
0.0
  0
LINE
  5
A304
  8
0
 10
429.39871071716902
 20
111.2158739746195
 30
0.0
 11
429.39871071716902
 21
108.2158744142038
 31
0.0
  0
LINE
  5
A305
  8
0
 10
433.64871094813702
 20
111.2158739746195
 30
0.0
 11
433.64871094813702
 21
113.7158743844014
 31
0.0
  0
LINE
  5
A306
  8
0
 10
430.64871138772128
 20
113.7158743844014
 30
0.0
 11
430.64871138772128
 21
111.2158739746195
 31
0.0
  0
LINE
  5
A307
  8
0
 10
434.8987106873667
 20
108.2158744142038
 30
0.0
 11
429.39871071716902
 21
108.2158744142038
 31
0.0
  0
LINE
  5
A308
  8
0
 10
434.8987106873667
 20
111.2158739746195
 30
0.0
 11
429.39871071716902
 21
111.2158739746195
 31
0.0
  0
LINE
  5
A309
  8
1
 10
432.14871070226792
 20
106.2158744142038
 30
0.0
 11
432.14871070226792
 21
115.7158743844014
 31
0.0
  0
LINE
  5
A313
  8
0
 10
365.64870961075837
 20
123.715874160884
 30
0.0
 11
365.64870961075837
 21
123.88587523376761
 31
0.0
  0
LINE
  5
A314
  8
0
 10
350.64870994603461
 20
123.88587523376761
 30
0.0
 11
350.64870994603461
 21
123.715874160884
 31
0.0
  0
LINE
  5
A315
  8
0
 10
365.64870961075837
 20
123.88587523376761
 30
0.0
 11
365.14870999446327
 21
124.3858743844014
 31
0.0
  0
LINE
  5
A316
  8
0
 10
351.14870956232971
 20
124.3858743844014
 30
0.0
 11
350.64870994603461
 21
123.88587523376761
 31
0.0
  0
LINE
  5
A317
  8
0
 10
362.1487099683863
 20
103.7858745259624
 30
0.0
 11
362.1487099683863
 21
108.2158744142037
 31
0.0
  0
LINE
  5
A318
  8
0
 10
362.1487099683863
 20
99.285874486846893
 30
0.0
 11
362.1487099683863
 21
99.785874452387958
 31
0.0
  0
LINE
  5
A319
  8
0
 10
354.14870958840658
 20
99.785874452387958
 30
0.0
 11
354.14870958840658
 21
99.285874486846893
 31
0.0
  0
LINE
  5
A31A
  8
0
 10
354.14870958840658
 20
108.2158744142037
 30
0.0
 11
354.14870958840658
 21
103.7858745259624
 31
0.0
  0
LINE
  5
A31B
  8
0
 10
354.14870958840658
 20
99.285874486846893
 30
0.0
 11
355.59208542173923
 21
96.785874309895604
 31
0.0
  0
LINE
  5
A31C
  8
0
 10
360.7053341350537
 20
96.785874309895604
 30
0.0
 11
362.1487099683863
 21
99.285874486846893
 31
0.0
  0
LINE
  5
A31D
  8
0
 10
351.44870998403258
 20
99.785874452387958
 30
0.0
 11
354.14870958840658
 21
99.785874452387958
 31
0.0
  0
LINE
  5
A31E
  8
0
 10
362.1487099683863
 20
99.785874452387958
 30
0.0
 11
364.84870957276041
 21
99.785874452387958
 31
0.0
  0
LINE
  5
A31F
  8
0
 10
364.84870957276041
 20
103.7858745259624
 30
0.0
 11
362.1487099683863
 21
103.7858745259624
 31
0.0
  0
LINE
  5
A320
  8
0
 10
354.14870958840658
 20
103.7858745259624
 30
0.0
 11
351.44870998403258
 21
103.7858745259624
 31
0.0
  0
LINE
  5
A321
  8
0
 10
364.84870957276041
 20
99.785874452387958
 30
0.0
 11
365.14870999446327
 21
100.0858744084295
 31
0.0
  0
LINE
  5
A322
  8
0
 10
365.14870999446327
 20
103.48587433709019
 30
0.0
 11
364.84870957276041
 21
103.7858745259624
 31
0.0
  0
LINE
  5
A323
  8
0
 10
351.44870998403258
 20
103.7858745259624
 30
0.0
 11
351.14870956232971
 21
103.48587433709019
 31
0.0
  0
LINE
  5
A324
  8
0
 10
351.14870956232971
 20
100.0858744084295
 30
0.0
 11
351.44870998403258
 21
99.785874452387958
 31
0.0
  0
LINE
  5
A329
  8
0
 10
375.14871070226837
 20
114.2158744663578
 30
0.0
 11
375.14871070226837
 21
120.3768834278565
 31
0.0
  0
LINE
  5
A32A
  8
0
 10
341.1487088545245
 20
120.3768834278565
 30
0.0
 11
341.1487088545245
 21
114.2158744663578
 31
0.0
  0
ARC
  5
A32B
  8
0
 10
342.14870977839661
 20
120.3768825434537
 30
0.0
 40
1.00000000000001
 50
110.0
 51
180.0
  0
ARC
  5
A32C
  8
0
 10
374.14870977839661
 20
120.3768825434537
 30
0.0
 40
1.000000000000014
 50
0.0
 51
70.000000000003425
  0
LINE
  5
A32D
  8
0
 10
341.1487088545245
 20
114.2158744663578
 30
0.0
 11
341.64870986780352
 21
113.7158743844014
 31
0.0
  0
LINE
  5
A32E
  8
0
 10
374.64870968898953
 20
113.7158743844014
 30
0.0
 11
375.14871070226837
 21
114.2158744663578
 31
0.0
  0
LINE
  5
A32F
  8
0
 10
374.4907294406575
 20
121.3165748671275
 30
0.0
 11
367.89870997956211
 21
123.715874160884
 31
0.0
  0
LINE
  5
A330
  8
0
 10
348.39870957723087
 20
123.715874160884
 30
0.0
 11
341.80669011613548
 21
121.3165748671275
 31
0.0
  0
ARC
  5
A331
  8
0
 10
367.54870977839641
 20
113.3158742800933
 30
0.0
 40
0.4000000000000057
 50
90.0
 51
180.0
  0
ARC
  5
A332
  8
0
 10
348.74870977839652
 20
113.3158742800933
 30
0.0
 40
0.4000000000000057
 50
0.0
 51
90.0
  0
LINE
  5
A333
  8
0
 10
349.14871016582669
 20
109.2158741124552
 30
0.0
 11
350.14870939841688
 21
108.2158744142037
 31
0.0
  0
LINE
  5
A334
  8
0
 10
367.1487093909663
 20
109.2158741124554
 30
0.0
 11
367.1487093909663
 21
113.31587413257181
 31
0.0
  0
LINE
  5
A335
  8
0
 10
349.14871016582669
 20
113.31587413257181
 30
0.0
 11
349.14871016582669
 21
109.2158741124552
 31
0.0
  0
LINE
  5
A337
  8
0
 10
351.14870956232971
 20
124.3858743844014
 30
0.0
 11
365.14870999446322
 21
124.3858743844014
 31
0.0
  0
LINE
  5
A338
  8
0
 10
354.14870958840658
 20
99.285874486846893
 30
0.0
 11
362.1487099683863
 21
99.285874486846893
 31
0.0
  0
POLYLINE
  5
A339
  8
0
 66
     1
 10
0.0
 20
0.0
 30
0.0
 70
   128
  0
VERTEX
  5
DA8A
  8
0
 10
362.14543683519781
 20
103.7793173165452
 30
0.0
  0
VERTEX
  5
DA8B
  8
0
 10
362.14696653252662
 20
103.7823853259366
 30
0.0
  0
VERTEX
  5
DA8C
  8
0
 10
362.12707394799412
 20
103.7422436931562
 30
0.0
  0
VERTEX
  5
DA8D
  8
0
 10
362.08528736671622
 20
103.6558053166997
 30
0.0
  0
VERTEX
  5
DA8E
  8
0
 10
362.02652696585471
 20
103.52870749211129
 30
0.0
  0
VERTEX
  5
DA8F
  8
0
 10
361.9535394485128
 20
103.35963705456069
 30
0.0
  0
VERTEX
  5
DA90
  8
0
 10
361.8681357714367
 20
103.14017519721951
 30
0.0
  0
VERTEX
  5
DA91
  8
0
 10
361.78097166186387
 20
102.87826947769339
 30
0.0
  0
VERTEX
  5
DA92
  8
0
 10
361.70133054321821
 20
102.57398217817961
 30
0.0
  0
VERTEX
  5
DA93
  8
0
 10
361.64122996917177
 20
102.2305063381251
 30
0.0
  0
VERTEX
  5
DA94
  8
0
 10
361.61501603266407
 20
101.909481192885
 30
0.0
  0
VERTEX
  5
DA95
  8
0
 10
361.61938998913581
 20
101.57228483894561
 30
0.0
  0
VERTEX
  5
DA96
  8
0
 10
361.64851430868919
 20
101.28724403348011
 30
0.0
  0
VERTEX
  5
DA97
  8
0
 10
361.6990541580152
 20
101.008092460867
 30
0.0
  0
VERTEX
  5
DA98
  8
0
 10
361.7663594434988
 20
100.7430952451583
 30
0.0
  0
VERTEX
  5
DA99
  8
0
 10
361.844568653686
 20
100.4977078702692
 30
0.0
  0
VERTEX
  5
DA9A
  8
0
 10
361.93293975731552
 20
100.2625899565797
 30
0.0
  0
VERTEX
  5
DA9B
  8
0
 10
362.0172176982295
 20
100.0638543338906
 30
0.0
  0
VERTEX
  5
DA9C
  8
0
 10
362.08574697440679
 20
99.914975901080339
 30
0.0
  0
VERTEX
  5
DA9D
  8
0
 10
362.13248027553971
 20
99.818534421680539
 30
0.0
  0
VERTEX
  5
DA9E
  8
0
 10
362.14847574075873
 20
99.786342209151059
 30
0.0
  0
VERTEX
  5
DA9F
  8
0
 10
362.1471667668801
 20
99.788970983533233
 30
0.0
  0
SEQEND
  5
DAA0
  8
0
  0
POLYLINE
  5
A33A
  8
0
 66
     1
 10
0.0
 20
0.0
 30
0.0
 70
   128
  0
VERTEX
  5
DAA1
  8
0
 10
354.15198272159512
 20
99.792431428974538
 30
0.0
  0
VERTEX
  5
DAA2
  8
0
 10
354.15045302426631
 20
99.789363535998433
 30
0.0
  0
VERTEX
  5
DAA3
  8
0
 10
354.17034560879881
 20
99.829505052363544
 30
0.0
  0
VERTEX
  5
DAA4
  8
0
 10
354.21213219007672
 20
99.915943545235365
 30
0.0
  0
VERTEX
  5
DAA5
  8
0
 10
354.27089259093822
 20
100.0430414862391
 30
0.0
  0
VERTEX
  5
DAA6
  8
0
 10
354.34388010828008
 20
100.21211169095901
 30
0.0
  0
VERTEX
  5
DAA7
  8
0
 10
354.42928378535618
 20
100.4315736647155
 30
0.0
  0
VERTEX
  5
DAA8
  8
0
 10
354.516447894929
 20
100.69347932603399
 30
0.0
  0
VERTEX
  5
DAA9
  8
0
 10
354.59608901357473
 20
100.9977666546516
 30
0.0
  0
VERTEX
  5
DAAA
  8
0
 10
354.6561895876211
 20
101.341242509258
 30
0.0
  0
VERTEX
  5
DAAB
  8
0
 10
354.6824035241288
 20
101.66226761084241
 30
0.0
  0
VERTEX
  5
DAAC
  8
0
 10
354.67802956765712
 20
101.9994640084375
 30
0.0
  0
VERTEX
  5
DAAD
  8
0
 10
354.64890524810369
 20
102.2845047702473
 30
0.0
  0
VERTEX
  5
DAAE
  8
0
 10
354.59836539877767
 20
102.5636563719642
 30
0.0
  0
VERTEX
  5
DAAF
  8
0
 10
354.53106011329407
 20
102.82865361677671
 30
0.0
  0
VERTEX
  5
DAB0
  8
0
 10
354.45285090310688
 20
103.07404093345809
 30
0.0
  0
VERTEX
  5
DAB1
  8
0
 10
354.36447979947741
 20
103.3091589053553
 30
0.0
  0
VERTEX
  5
DAB2
  8
0
 10
354.28020185856337
 20
103.5078945280444
 30
0.0
  0
VERTEX
  5
DAB3
  8
0
 10
354.21167258238609
 20
103.6567729608547
 30
0.0
  0
VERTEX
  5
DAB4
  8
0
 10
354.16493928125323
 20
103.7532144402545
 30
0.0
  0
VERTEX
  5
DAB5
  8
0
 10
354.1489438160342
 20
103.7854067691993
 30
0.0
  0
VERTEX
  5
DAB6
  8
0
 10
354.15025278991283
 20
103.7827778784018
 30
0.0
  0
SEQEND
  5
DAB7
  8
0
  0
LINE
  5
A33B
  8
0
 10
360.7053341350537
 20
96.785874309895604
 30
0.0
 11
355.59208542173923
 21
96.785874309895604
 31
0.0
  0
LINE
  5
A33C
  8
0
 10
364.84870957276041
 20
99.785874452387958
 30
0.0
 11
364.84870957276041
 21
103.7858745259624
 31
0.0
  0
LINE
  5
A33D
  8
0
 10
351.44870998403258
 20
103.7858745259624
 30
0.0
 11
351.44870998403258
 21
99.785874452387958
 31
0.0
  0
LINE
  5
A33E
  8
0
 10
365.14870999446327
 20
103.48587433709019
 30
0.0
 11
365.14870999446327
 21
100.0858744084295
 31
0.0
  0
LINE
  5
A33F
  8
0
 10
351.14870956232971
 20
100.0858744084295
 30
0.0
 11
351.14870956232971
 21
103.48587433709019
 31
0.0
  0
LINE
  5
A342
  8
0
 10
374.64870968898953
 20
113.7158743844014
 30
0.0
 11
341.64870986780352
 21
113.7158743844014
 31
0.0
  0
LINE
  5
A343
  8
0
 10
367.89870997956211
 20
123.715874160884
 30
0.0
 11
348.39870957723087
 21
123.715874160884
 31
0.0
  0
LINE
  5
A34E
  8
0
 10
366.14871015837582
 20
108.2158744142037
 30
0.0
 11
350.14870939841688
 21
108.2158744142037
 31
0.0
  0
LINE
  5
A34F
  8
0
 10
349.14871016582669
 20
109.2158741124552
 30
0.0
 11
355.39870979329771
 21
109.2158741124552
 31
0.0
  0
LINE
  5
A350
  8
0
 10
341.80669011613548
 20
121.3165748671275
 30
0.0
 11
374.4907294406575
 21
121.3165748671275
 31
0.0
  0
LINE
  5
A351
  8
1
 10
358.14870977839649
 20
91.785874309895604
 30
0.0
 11
358.14870977839649
 21
129.3858743844014
 31
0.0
  0
LINE
  5
A352
  8
1
 10
349.14870956232971
 20
101.78587451627671
 30
0.0
 11
367.14870999446327
 21
101.78587451627671
 31
0.0
  0
LINE
  5
A400
  8
0
 10
367.14870939096608
 20
109.2158741124552
 30
0.0
 11
366.14871015837588
 21
108.2158744142037
 31
0.0
  0
LINE
  5
A401
  8
0
 10
373.02306541647749
 20
108.2158744142037
 30
0.0
 11
373.02306541647749
 21
111.2158739746195
 31
0.0
  0
LINE
  5
A402
  8
0
 10
367.52306544627982
 20
111.2158739746195
 30
0.0
 11
367.52306544627982
 21
108.2158744142037
 31
0.0
  0
LINE
  5
A403
  8
0
 10
371.77306567724781
 20
111.2158739746195
 30
0.0
 11
371.77306567724781
 21
113.7158743844014
 31
0.0
  0
LINE
  5
A404
  8
0
 10
368.77306611683213
 20
113.7158743844014
 30
0.0
 11
368.77306611683213
 21
111.2158739746195
 31
0.0
  0
LINE
  5
A405
  8
0
 10
373.02306541647749
 20
108.2158744142037
 30
0.0
 11
367.52306544627982
 21
108.2158744142037
 31
0.0
  0
LINE
  5
A406
  8
0
 10
373.02306541647749
 20
111.2158739746195
 30
0.0
 11
367.52306544627982
 21
111.2158739746195
 31
0.0
  0
LINE
  5
A407
  8
1
 10
370.27306543137871
 20
106.2158744142037
 30
0.0
 11
370.27306543137871
 21
115.7158743844014
 31
0.0
  0
LINE
  5
A408
  8
0
 10
348.77435411051329
 20
108.2158744142037
 30
0.0
 11
348.77435411051329
 21
111.2158739746195
 31
0.0
  0
LINE
  5
A409
  8
0
 10
343.27435414031561
 20
111.2158739746195
 30
0.0
 11
343.27435414031561
 21
108.2158744142037
 31
0.0
  0
LINE
  5
A40A
  8
0
 10
347.52435437128361
 20
111.2158739746195
 30
0.0
 11
347.52435437128361
 21
113.7158743844014
 31
0.0
  0
LINE
  5
A40B
  8
0
 10
344.52435481086781
 20
113.7158743844014
 30
0.0
 11
344.52435481086781
 21
111.2158739746195
 31
0.0
  0
LINE
  5
A40C
  8
0
 10
348.77435411051329
 20
108.2158744142037
 30
0.0
 11
343.27435414031561
 21
108.2158744142037
 31
0.0
  0
LINE
  5
A40D
  8
0
 10
348.77435411051329
 20
111.2158739746195
 30
0.0
 11
343.27435414031561
 21
111.2158739746195
 31
0.0
  0
LINE
  5
A40E
  8
1
 10
346.02435412541439
 20
106.2158744142037
 30
0.0
 11
346.02435412541439
 21
115.7158743844014
 31
0.0
  0
LINE
  5
A51B
  8
0
 10
423.14871060727302
 20
40.41587438365638
 30
0.0
 11
423.44871067972991
 21
40.115873961953518
 31
0.0
  0
LINE
  5
A51C
  8
0
 10
426.84871072480593
 20
40.115873961953518
 30
0.0
 11
427.14871079726282
 21
40.41587438365638
 31
0.0
  0
LINE
  5
A51D
  8
0
 10
427.14871079726282
 20
40.41587438365638
 30
0.0
 11
427.14871079726282
 21
43.651772597117422
 31
0.0
  0
LINE
  5
A51E
  8
0
 10
427.14871079726282
 20
50.57997575892329
 30
0.0
 11
427.14871079726282
 21
53.815873972384331
 31
0.0
  0
LINE
  5
A51F
  8
0
 10
423.14871060727302
 20
53.815873972384331
 30
0.0
 11
423.14871060727302
 21
50.57997575892329
 31
0.0
  0
LINE
  5
A520
  8
0
 10
423.14871060727302
 20
43.651772597117422
 30
0.0
 11
423.14871060727302
 21
40.41587438365638
 31
0.0
  0
LINE
  5
A521
  8
0
 10
427.14871079726282
 20
53.815873972384331
 30
0.0
 11
426.84871072480593
 21
54.1158743940872
 31
0.0
  0
LINE
  5
A522
  8
0
 10
423.44871067972991
 20
54.1158743940872
 30
0.0
 11
423.14871060727302
 21
53.815873972384331
 31
0.0
  0
CIRCLE
  5
A523
  8
0
 10
425.14871070226792
 20
47.115874178020363
 30
0.0
 40
1.22950000000003
  0
CIRCLE
  5
A524
  8
0
 10
425.14871070226792
 20
47.115874178020363
 30
0.0
 40
1.4999999999999749
  0
LINE
  5
A525
  8
0
 10
425.58161674784708
 20
47.865935730328708
 30
0.0
 11
424.71559135555941
 21
47.865812570058658
 31
0.0
  0
LINE
  5
A526
  8
0
 10
424.71559135555941
 20
47.865812570058658
 30
0.0
 11
424.2826853099802
 21
47.11575101775054
 31
0.0
  0
LINE
  5
A527
  8
0
 10
424.2826853099802
 20
47.11575101775054
 30
0.0
 11
424.7158046566887
 21
46.36581262571223
 31
0.0
  0
LINE
  5
A528
  8
0
 10
424.7158046566887
 20
46.36581262571223
 30
0.0
 11
425.58183004897643
 21
46.365935785982288
 31
0.0
  0
LINE
  5
A529
  8
0
 10
425.58183004897643
 20
46.365935785982288
 30
0.0
 11
426.01473609455559
 21
47.115997338290413
 31
0.0
  0
LINE
  5
A52A
  8
0
 10
426.01473609455559
 20
47.115997338290413
 30
0.0
 11
425.58161674784708
 21
47.865935730328708
 31
0.0
  0
LINE
  5
A52E
  8
0
 10
427.8583846527165
 20
52.802892103104107
 30
0.0
 11
427.8583846527165
 21
51.07438487863373
 31
0.0
  0
ARC
  5
A52F
  8
0
 10
428.85838461531148
 20
51.074385079530543
 30
0.0
 40
1.0000000000000031
 50
180.0
 51
230.2380792522402
  0
ARC
  5
A532
  8
0
 10
426.85838461531159
 20
52.802892223484832
 30
0.0
 40
1.0
 50
0.0
 51
73.1225149343027
  0
LINE
  5
A533
  8
0
 10
423.14871060727302
 20
40.41587438365638
 30
0.0
 11
427.14871079726282
 21
40.41587438365638
 31
0.0
  0
LINE
  5
A534
  8
0
 10
426.84871072480593
 20
40.115873961953518
 30
0.0
 11
423.44871067972991
 21
40.115873961953518
 31
0.0
  0
LINE
  5
A535
  8
0
 10
427.14871079726282
 20
53.815873972384331
 30
0.0
 11
423.14871060727302
 21
53.815873972384331
 31
0.0
  0
LINE
  5
A536
  8
0
 10
423.44871067972991
 20
54.1158743940872
 30
0.0
 11
426.84871072480593
 21
54.1158743940872
 31
0.0
  0
CIRCLE
  5
A537
  8
0
 10
425.14871070226792
 20
47.115874178020363
 30
0.0
 40
2.556624327025915
  0
CIRCLE
  5
A538
  8
0
 10
425.14871070226792
 20
47.115874178020363
 30
0.0
 40
4.0
  0
CIRCLE
  5
A539
  8
0
 10
425.14871070226792
 20
47.115874178020363
 30
0.0
 40
9.0
  0
CIRCLE
  5
A53A
  8
0
 10
425.14871070226792
 20
47.115874178020363
 30
0.0
 40
7.5
  0
CIRCLE
  5
A53B
  8
0
 10
425.14871070226781
 20
47.115874178020363
 30
0.0
 40
17.0
  0
LINE
  5
A53C
  8
1
 10
425.14871070226792
 20
69.115874178020363
 30
0.0
 11
425.14871070226792
 21
25.115874178020359
 31
0.0
  0
LINE
  5
A53D
  8
1
 10
447.14871070226792
 20
47.115874178020363
 30
0.0
 11
403.14871070226781
 21
47.115874178020363
 31
0.0
  0
ARC
  5
A541
  8
0
 10
423.43903678922447
 20
52.802892223484832
 30
0.0
 40
1.0000000000000031
 50
106.8774850657143
 51
180.0
  0
LINE
  5
A542
  8
0
 10
422.43903678922459
 20
52.802892223484832
 30
0.0
 11
422.43903678922459
 21
51.074385079530543
 31
0.0
  0
ARC
  5
A543
  8
0
 10
421.43903678922459
 20
51.074385079530657
 30
0.0
 40
1.0
 50
309.76192074775992
 51
0.0
  0
CIRCLE
  5
A545
  8
0
 10
411.14871070226792
 20
47.115874178020363
 30
0.0
 40
2.7499999999999978
  0
LINE
  5
A547
  8
0
 10
410.42702286578088
 20
48.36587417802059
 30
0.0
 11
409.70533502929402
 21
47.115874178020363
 31
0.0
  0
LINE
  5
A548
  8
0
 10
411.87039853875501
 20
48.36587417802059
 30
0.0
 11
410.42702286578083
 21
48.36587417802059
 31
0.0
  0
LINE
  5
A549
  8
0
 10
411.87039853875501
 20
48.36587417802059
 30
0.0
 11
412.59208637524188
 21
47.115874178020363
 31
0.0
  0
LINE
  5
A54A
  8
0
 10
410.427022865781
 20
45.865874178020363
 30
0.0
 11
409.70533502929402
 21
47.115874178020363
 31
0.0
  0
LINE
  5
A54B
  8
0
 10
411.87039853875501
 20
45.86587417802059
 30
0.0
 11
410.42702286578088
 21
45.865874178020363
 31
0.0
  0
LINE
  5
A54C
  8
0
 10
411.87039853875501
 20
45.86587417802059
 30
0.0
 11
412.59208637524188
 21
47.11587417802059
 31
0.0
  0
CIRCLE
  5
A54D
  8
1
 10
425.14871070226792
 20
47.115874178020363
 30
0.0
 40
13.999999999999931
  0
LINE
  5
A54E
  8
1
 10
429.77371070226781
 20
55.126609163026501
 30
0.0
 11
434.52371070226781
 21
63.353850498978652
 31
0.0
  0
LINE
  5
A54F
  8
1
 10
429.77371070226781
 20
39.105139193014452
 30
0.0
 11
434.52371070226781
 21
30.877897857062301
 31
0.0
  0
CIRCLE
  5
A550
  8
0
 10
432.14871070226792
 20
59.240229831002473
 30
0.0
 40
2.7499999999999978
  0
LINE
  5
A551
  8
0
 10
431.42702286578083
 20
60.490229831002686
 30
0.0
 11
430.70533502929379
 21
59.240229831002473
 31
0.0
  0
LINE
  5
A552
  8
0
 10
432.8703985387549
 20
60.490229831002686
 30
0.0
 11
431.42702286578083
 21
60.490229831002686
 31
0.0
  0
LINE
  5
A553
  8
0
 10
432.8703985387549
 20
60.490229831002686
 30
0.0
 11
433.59208637524188
 21
59.240229831002473
 31
0.0
  0
LINE
  5
A554
  8
0
 10
431.42702286578088
 20
57.990229831002473
 30
0.0
 11
430.70533502929379
 21
59.240229831002473
 31
0.0
  0
LINE
  5
A555
  8
0
 10
432.8703985387549
 20
57.990229831002686
 30
0.0
 11
431.42702286578083
 21
57.990229831002473
 31
0.0
  0
LINE
  5
A556
  8
0
 10
432.8703985387549
 20
57.990229831002686
 30
0.0
 11
433.59208637524188
 21
59.240229831002686
 31
0.0
  0
CIRCLE
  5
A557
  8
0
 10
432.14871070226792
 20
34.991518525038259
 30
0.0
 40
2.7499999999999978
  0
LINE
  5
A558
  8
0
 10
431.42702286578083
 20
36.241518525038487
 30
0.0
 11
430.70533502929379
 21
34.991518525038259
 31
0.0
  0
LINE
  5
A559
  8
0
 10
432.8703985387549
 20
36.241518525038259
 30
0.0
 11
431.42702286578083
 21
36.241518525038259
 31
0.0
  0
LINE
  5
A55A
  8
0
 10
432.8703985387549
 20
36.241518525038487
 30
0.0
 11
433.59208637524188
 21
34.991518525038259
 31
0.0
  0
LINE
  5
A55B
  8
0
 10
431.42702286578088
 20
33.741518525038259
 30
0.0
 11
430.70533502929379
 21
34.991518525038259
 31
0.0
  0
LINE
  5
A55C
  8
0
 10
432.8703985387549
 20
33.741518525038487
 30
0.0
 11
431.42702286578083
 21
33.741518525038259
 31
0.0
  0
LINE
  5
A55D
  8
0
 10
432.8703985387549
 20
33.741518525038259
 30
0.0
 11
433.59208637524188
 21
34.991518525038487
 31
0.0
  0
TEXT
  5
A6BE
  8
0
 62
     3
 10
120.0
 20
0.0
 30
0.0
 40
3.2000000000000002
  1
■サムターンクランパーの取付け方法〈オフを上にする場合〉(下図)
  0
TEXT
  5
A7BE
  8
0
 62
     3
 10
153.4333333333332
 20
-134.27327065202411
 30
0.0
 40
3.2000000000000002
  1
組付け状態
 72
     1
 11
162.49999999999989
 21
-134.27327065202411
 31
0.0
  0
POLYLINE
  5
A7BF
  8
5
 66
     1
 10
0.0
 20
0.0
 30
0.0
 70
     1
  0
VERTEX
  5
DAB8
  8
5
 10
120.0
 20
-10.0
 30
0.0
  0
VERTEX
  5
DAB9
  8
5
 10
430.0
 20
-10.0
 30
0.0
  0
VERTEX
  5
DABA
  8
5
 10
430.0
 20
-302.74654127797112
 30
0.0
  0
VERTEX
  5
DABB
  8
5
 10
120.0
 20
-302.74654127797112
 30
0.0
  0
SEQEND
  5
DABC
  8
5
  0
TEXT
  5
A7C0
  8
0
 62
     3
 10
225.2466666666667
 20
-134.27327065202411
 30
0.0
 40
3.2000000000000002
  1
取付け穴
 72
     1
 11
232.5
 21
-134.27327065202411
 31
0.0
  0
TEXT
  5
A7C1
  8
0
 62
     3
 10
308.43333333333322
 20
-134.27327065202411
 30
0.0
 40
3.2000000000000002
  1
組付け状態
 72
     1
 11
317.49999999999989
 21
-134.27327065202411
 31
0.0
  0
TEXT
  5
A7C2
  8
0
 62
     3
 10
380.24666666666673
 20
-134.27327065202411
 30
0.0
 40
3.2000000000000002
  1
取付け穴
 72
     1
 11
387.5
 21
-134.27327065202411
 31
0.0
  0
TEXT
  5
A9CE
  8
0
 62
     3
 10
170.0866666666665
 20
-19.168098188633891
 30
0.0
 40
3.2000000000000002
  1
6mmのプレートに固定する場合
 72
     1
 11
197.49999999999989
 21
-19.594764855300561
 31
0.0
 73
     1
  0
LINE
  5
A9CF
  8
1
 10
232.5
 20
-33.094764855300561
 30
0.0
 11
232.5
 21
-71.094764855300554
 31
0.0
  0
LINE
  5
A9D1
  8
1
 10
213.5
 20
-52.094764855300561
 30
0.0
 11
251.5
 21
-52.094764855300561
 31
0.0
  0
LINE
  5
A9D2
  8
0
 10
210.0
 20
-95.373270445642973
 30
0.0
 11
255.0
 21
-95.373270445642973
 31
0.0
  0
LINE
  5
A9D3
  8
0
 10
223.5
 20
-96.373270445642987
 30
0.0
 11
222.5
 21
-95.373270445642973
 31
0.0
  0
LINE
  5
A9D4
  8
0
 10
216.8000000000001
 20
-95.873270445642987
 30
0.0
 11
216.3000000000001
 21
-95.373270445642973
 31
0.0
  0
LINE
  5
A9D5
  8
0
 10
215.25000000000011
 20
-97.873270445643001
 30
0.0
 11
221.75
 21
-97.873270445643001
 31
0.0
  0
LINE
  5
A9D6
  8
0
 10
210.0
 20
-101.373270445643
 30
0.0
 11
255.0
 21
-101.373270445643
 31
0.0
  0
LINE
  5
A9D7
  8
0
 10
223.50000000000011
 20
-100.873270445643
 30
0.0
 11
223.00000000000011
 21
-101.373270445643
 31
0.0
  0
LINE
  5
A9D8
  8
0
 10
215.25
 20
-100.873270445643
 30
0.0
 11
214.75
 21
-101.373270445643
 31
0.0
  0
LINE
  5
A9D9
  8
1
 10
232.5
 20
-90.373270445642973
 30
0.0
 11
232.5
 21
-106.373270445643
 31
0.0
  0
CIRCLE
  5
A9DA
  8
0
 10
232.5
 20
-52.094764855300561
 30
0.0
 40
9.0
  0
CIRCLE
  5
A9DB
  8
1
 10
232.50000000000011
 20
-52.094764855300561
 30
0.0
 40
14.0
  0
CIRCLE
  5
A9DC
  8
0
 10
218.50000000000011
 20
-52.094764855300561
 30
0.0
 40
1.7
  0
CIRCLE
  5
A9DD
  8
2
 10
218.50000000000011
 20
-52.094764855300561
 30
0.0
 40
3.25
  0
LINE
  5
A9DE
  8
1
 10
242.125
 20
-35.423775832450112
 30
0.0
 11
236.875
 21
-44.517042572186753
 31
0.0
  0
CIRCLE
  5
A9DF
  8
0
 10
239.5
 20
-39.970409202318457
 30
0.0
 40
1.7
  0
CIRCLE
  5
A9E0
  8
2
 10
239.5
 20
-39.970409202318457
 30
0.0
 40
3.25
  0
LINE
  5
A9E1
  8
1
 10
242.125
 20
-68.765753878150974
 30
0.0
 11
236.875
 21
-59.672487138414382
 31
0.0
  0
CIRCLE
  5
A9E2
  8
0
 10
239.50000000000011
 20
-64.219120508282685
 30
0.0
 40
1.6999999999999991
  0
CIRCLE
  5
A9E3
  8
2
 10
239.50000000000011
 20
-64.219120508282685
 30
0.0
 40
3.2499999999999991
  0
LINE
  5
A9E4
  8
0
 10
223.5
 20
-96.373270445642987
 30
0.0
 11
223.50000000000011
 21
-100.873270445643
 31
0.0
  0
LINE
  5
A9E5
  8
1
 10
218.5
 20
-93.373270445642987
 30
0.0
 11
218.50000000000011
 21
-103.373270445643
 31
0.0
  0
LINE
  5
A9E6
  8
0
 10
216.8000000000001
 20
-95.873270445642987
 30
0.0
 11
216.8000000000001
 21
-97.873270445643001
 31
0.0
  0
LINE
  5
A9E7
  8
0
 10
215.25000000000011
 20
-97.873270445643001
 30
0.0
 11
215.25
 21
-100.873270445643
 31
0.0
  0
LINE
  5
A9E8
  8
0
 10
220.19999999999999
 20
-95.873270445642987
 30
0.0
 11
220.69999999999999
 21
-95.373270445642973
 31
0.0
  0
LINE
  5
A9E9
  8
0
 10
221.75000000000011
 20
-100.873270445643
 30
0.0
 11
222.25000000000011
 21
-101.373270445643
 31
0.0
  0
LINE
  5
A9EA
  8
0
 10
220.19999999999999
 20
-95.873270445642987
 30
0.0
 11
220.19999999999999
 21
-97.873270445643001
 31
0.0
  0
LINE
  5
A9EB
  8
0
 10
221.75000000000011
 20
-97.873270445643001
 30
0.0
 11
221.75000000000011
 21
-100.873270445643
 31
0.0
  0
LINE
  5
A9EC
  8
0
 10
216.8000000000001
 20
-95.873270445642987
 30
0.0
 11
220.19999999999999
 21
-95.873270445642987
 31
0.0
  0
LINE
  5
A9ED
  8
0
 10
215.25
 20
-100.873270445643
 30
0.0
 11
221.75000000000011
 21
-100.873270445643
 31
0.0
  0
LINE
  5
A9EE
  8
0
 10
241.5
 20
-96.373270445643016
 30
0.0
 11
242.5
 21
-95.373270445643016
 31
0.0
  0
LINE
  5
A9EF
  8
0
 10
241.5
 20
-100.873270445643
 30
0.0
 11
242.0
 21
-101.373270445643
 31
0.0
  0
LINE
  5
A9F0
  8
0
 10
241.5
 20
-96.373270445643016
 30
0.0
 11
241.5
 21
-100.873270445643
 31
0.0
  0
LINE
  5
A9F1
  8
0
 10
223.5
 20
-96.373270445642987
 30
0.0
 11
241.5
 21
-96.373270445643215
 31
0.0
  0
LINE
  5
A9F2
  8
0
 10
241.5
 20
-100.873270445643
 30
0.0
 11
223.50000000000011
 21
-100.8732704456431
 31
0.0
  0
LINE
  5
A9F3
  8
1
 10
387.5
 20
-29.594764855300561
 30
0.0
 11
387.5
 21
-74.594764855300554
 31
0.0
  0
LINE
  5
A9F5
  8
1
 10
365.0
 20
-52.094764855300561
 30
0.0
 11
410.0
 21
-52.094764855300561
 31
0.0
  0
LINE
  5
A9F6
  8
0
 10
370.0
 20
-103.373270445643
 30
0.0
 11
405.0
 21
-103.373270445643
 31
0.0
  0
LINE
  5
A9F7
  8
0
 10
365.0
 20
-95.373270445642973
 30
0.0
 11
410.0
 21
-95.373270445642973
 31
0.0
  0
LINE
  5
A9F8
  8
0
 10
370.0
 20
-95.873270445642987
 30
0.0
 11
369.5
 21
-95.373270445642973
 31
0.0
  0
LINE
  5
A9F9
  8
0
 10
378.5
 20
-104.373270445643
 30
0.0
 11
377.5
 21
-103.373270445643
 31
0.0
  0
LINE
  5
A9FA
  8
0
 10
371.80000000000013
 20
-103.873270445643
 30
0.0
 11
371.30000000000013
 21
-103.373270445643
 31
0.0
  0
LINE
  5
A9FB
  8
0
 10
370.25
 20
-105.873270445643
 30
0.0
 11
376.75
 21
-105.873270445643
 31
0.0
  0
LINE
  5
A9FC
  8
0
 10
365.0
 20
-109.373270445643
 30
0.0
 11
410.0
 21
-109.373270445643
 31
0.0
  0
LINE
  5
A9FD
  8
0
 10
378.50000000000011
 20
-108.873270445643
 30
0.0
 11
378.00000000000011
 21
-109.373270445643
 31
0.0
  0
LINE
  5
A9FE
  8
0
 10
370.25
 20
-108.873270445643
 30
0.0
 11
369.75
 21
-109.373270445643
 31
0.0
  0
LINE
  5
A9FF
  8
1
 10
387.5
 20
-90.373270445642973
 30
0.0
 11
387.5
 21
-114.373270445643
 31
0.0
  0
CIRCLE
  5
AA00
  8
0
 10
387.5
 20
-52.094764855300561
 30
0.0
 40
9.0
  0
CIRCLE
  5
AA01
  8
1
 10
387.5
 20
-52.094764855300561
 30
0.0
 40
14.0
  0
CIRCLE
  5
AA02
  8
0
 10
373.5
 20
-52.094764855300561
 30
0.0
 40
1.7
  0
CIRCLE
  5
AA03
  8
2
 10
373.5
 20
-52.094764855300561
 30
0.0
 40
3.25
  0
LINE
  5
AA04
  8
1
 10
397.125
 20
-35.423775832450112
 30
0.0
 11
391.875
 21
-44.517042572186753
 31
0.0
  0
CIRCLE
  5
AA05
  8
0
 10
394.5
 20
-39.970409202318457
 30
0.0
 40
1.7
  0
CIRCLE
  5
AA06
  8
2
 10
394.5
 20
-39.970409202318457
 30
0.0
 40
3.25
  0
LINE
  5
AA07
  8
1
 10
397.125
 20
-68.765753878150974
 30
0.0
 11
391.875
 21
-59.672487138414382
 31
0.0
  0
CIRCLE
  5
AA08
  8
0
 10
394.50000000000011
 20
-64.219120508282685
 30
0.0
 40
1.6999999999999991
  0
CIRCLE
  5
AA09
  8
2
 10
394.50000000000011
 20
-64.219120508282685
 30
0.0
 40
3.2499999999999991
  0
LINE
  5
AA0A
  8
0
 10
378.5
 20
-104.373270445643
 30
0.0
 11
378.50000000000011
 21
-108.873270445643
 31
0.0
  0
LINE
  5
AA0B
  8
1
 10
373.5
 20
-101.373270445643
 30
0.0
 11
373.50000000000011
 21
-111.373270445643
 31
0.0
  0
LINE
  5
AA0C
  8
0
 10
371.80000000000013
 20
-103.873270445643
 30
0.0
 11
371.80000000000013
 21
-105.873270445643
 31
0.0
  0
LINE
  5
AA0D
  8
0
 10
370.25
 20
-105.873270445643
 30
0.0
 11
370.25
 21
-108.873270445643
 31
0.0
  0
LINE
  5
AA0E
  8
0
 10
375.2000000000001
 20
-103.873270445643
 30
0.0
 11
375.7000000000001
 21
-103.373270445643
 31
0.0
  0
LINE
  5
AA0F
  8
0
 10
376.75000000000011
 20
-108.873270445643
 30
0.0
 11
377.25000000000011
 21
-109.373270445643
 31
0.0
  0
LINE
  5
AA10
  8
0
 10
375.2000000000001
 20
-103.873270445643
 30
0.0
 11
375.2000000000001
 21
-105.873270445643
 31
0.0
  0
LINE
  5
AA11
  8
0
 10
376.75
 20
-105.873270445643
 30
0.0
 11
376.75000000000011
 21
-108.873270445643
 31
0.0
  0
LINE
  5
AA12
  8
0
 10
371.80000000000013
 20
-103.873270445643
 30
0.0
 11
375.2000000000001
 21
-103.873270445643
 31
0.0
  0
LINE
  5
AA13
  8
0
 10
370.25
 20
-108.873270445643
 30
0.0
 11
376.75000000000011
 21
-108.873270445643
 31
0.0
  0
LINE
  5
AA14
  8
0
 10
396.5
 20
-104.373270445643
 30
0.0
 11
397.5
 21
-103.373270445643
 31
0.0
  0
LINE
  5
AA15
  8
0
 10
396.5
 20
-108.873270445643
 30
0.0
 11
397.0
 21
-109.373270445643
 31
0.0
  0
LINE
  5
AA16
  8
0
 10
396.5
 20
-104.373270445643
 30
0.0
 11
396.5
 21
-108.873270445643
 31
0.0
  0
LINE
  5
AA17
  8
0
 10
378.5
 20
-104.373270445643
 30
0.0
 11
396.5
 21
-104.3732704456432
 31
0.0
  0
LINE
  5
AA18
  8
0
 10
396.5
 20
-108.873270445643
 30
0.0
 11
378.50000000000011
 21
-108.8732704456431
 31
0.0
  0
CIRCLE
  5
AA19
  8
0
 10
387.5
 20
-52.094764855300561
 30
0.0
 40
17.5
  0
LINE
  5
AA1A
  8
0
 10
370.0
 20
-95.873270445642987
 30
0.0
 11
370.0
 21
-103.373270445643
 31
0.0
  0
LINE
  5
AA1B
  8
0
 10
405.0
 20
-95.873270445642987
 30
0.0
 11
405.49999999999989
 21
-95.373270445642973
 31
0.0
  0
LINE
  5
AA1C
  8
0
 10
405.0
 20
-95.873270445642987
 30
0.0
 11
405.0
 21
-103.373270445643
 31
0.0
  0
LINE
  5
AA1D
  8
0
 10
370.0
 20
-95.873270445642987
 30
0.0
 11
405.0
 21
-95.873270445642987
 31
0.0
  0
TEXT
  5
AA1E
  8
0
 62
     3
 10
309.61999999999989
 20
-19.168098188633891
 30
0.0
 40
3.2000000000000002
  1
6mmを超え14mm以下のプレートに固定する場合
 72
     1
 11
352.49999999999989
 21
-19.594764855300561
 31
0.0
 73
     1
  0
LINE
  5
AA79
  8
0
 10
169.99999983236191
 20
-85.373270669160405
 30
0.0
 11
169.99999983236191
 21
-84.873269655881444
 31
0.0
  0
LINE
  5
AA7A
  8
0
 10
155.00000016763801
 20
-84.873269655881444
 30
0.0
 11
155.00000016763801
 21
-85.373270669160405
 31
0.0
  0
LINE
  5
AA7B
  8
0
 10
169.99999983236191
 20
-84.873269655881444
 30
0.0
 11
169.50000021606681
 21
-84.373270505247618
 31
0.0
  0
LINE
  5
AA7C
  8
0
 10
155.49999978393311
 20
-84.373270505247618
 30
0.0
 11
155.00000016763801
 21
-84.873269655881444
 31
0.0
  0
LINE
  5
AA7D
  8
0
 10
166.50000018998981
 20
-104.9732704359572
 30
0.0
 11
166.50000018998981
 21
-100.87327041584059
 31
0.0
  0
LINE
  5
AA7E
  8
0
 10
166.50000018998981
 20
-109.47327047507279
 30
0.0
 11
166.50000018998981
 21
-108.9732705095317
 31
0.0
  0
LINE
  5
AA7F
  8
0
 10
158.49999981001019
 20
-108.9732705095317
 30
0.0
 11
158.49999981001019
 21
-109.47327047507279
 31
0.0
  0
LINE
  5
AA80
  8
0
 10
158.49999981001019
 20
-100.87327041584059
 30
0.0
 11
158.49999981001019
 21
-104.9732704359572
 31
0.0
  0
LINE
  5
AA81
  8
0
 10
158.49999981001019
 20
-109.47327047507279
 30
0.0
 11
159.9433756433427
 21
-111.973270652024
 31
0.0
  0
LINE
  5
AA82
  8
0
 10
165.05662435665721
 20
-111.973270652024
 30
0.0
 11
166.50000018998981
 21
-109.47327047507279
 31
0.0
  0
LINE
  5
AA83
  8
0
 10
155.800000205636
 20
-108.9732705095317
 30
0.0
 11
158.49999981001019
 21
-108.9732705095317
 31
0.0
  0
LINE
  5
AA84
  8
0
 10
166.50000018998981
 20
-108.9732705095317
 30
0.0
 11
169.19999979436389
 21
-108.9732705095317
 31
0.0
  0
LINE
  5
AA85
  8
0
 10
169.19999979436389
 20
-104.9732704359572
 30
0.0
 11
166.50000018998981
 21
-104.9732704359572
 31
0.0
  0
LINE
  5
AA86
  8
0
 10
158.49999981001019
 20
-104.9732704359572
 30
0.0
 11
155.800000205636
 21
-104.9732704359572
 31
0.0
  0
LINE
  5
AA87
  8
0
 10
169.19999979436389
 20
-108.9732705095317
 30
0.0
 11
169.50000021606681
 21
-108.6732705534901
 31
0.0
  0
LINE
  5
AA88
  8
0
 10
169.50000021606681
 20
-105.27327062482939
 30
0.0
 11
169.19999979436389
 21
-104.9732704359572
 31
0.0
  0
LINE
  5
AA89
  8
0
 10
155.800000205636
 20
-104.9732704359572
 30
0.0
 11
155.49999978393311
 21
-105.27327062482939
 31
0.0
  0
LINE
  5
AA8A
  8
0
 10
155.49999978393311
 20
-108.6732705534901
 30
0.0
 11
155.800000205636
 21
-108.9732705095317
 31
0.0
  0
LINE
  5
AA8B
  8
0
 10
151.24999955296511
 20
-100.87327041584059
 30
0.0
 11
151.24999955296511
 21
-97.873270855424934
 31
0.0
  0
LINE
  5
AA8C
  8
0
 10
145.74999958276749
 20
-97.873270855424934
 30
0.0
 11
145.74999958276749
 21
-100.87327041584059
 31
0.0
  0
LINE
  5
AA8D
  8
0
 10
149.99999981373551
 20
-97.873270855424934
 30
0.0
 11
149.99999981373551
 21
-95.373270445642973
 31
0.0
  0
LINE
  5
AA8E
  8
0
 10
147.00000025331971
 20
-95.373270445642973
 30
0.0
 11
147.00000025331971
 21
-97.873270855424934
 31
0.0
  0
LINE
  5
AA8F
  8
0
 10
179.50000092387199
 20
-94.873270363686586
 30
0.0
 11
179.50000092387199
 21
-88.712261402187849
 31
0.0
  0
LINE
  5
AA90
  8
0
 10
145.49999907612801
 20
-88.712261402187849
 30
0.0
 11
145.49999907612801
 21
-94.873270363686586
 31
0.0
  0
ARC
  5
AA91
  8
0
 10
146.5
 20
-88.712262286590729
 30
0.0
 40
1.00000000000001
 50
109.9999999999965
 51
180.0
  0
ARC
  5
AA92
  8
0
 10
178.5
 20
-88.712262286590729
 30
0.0
 40
1.000000000000014
 50
0.0
 51
70.000000000003425
  0
LINE
  5
AA93
  8
0
 10
145.49999907612801
 20
-94.873270363686586
 30
0.0
 11
146.00000008940691
 21
-95.373270445642973
 31
0.0
  0
LINE
  5
AA94
  8
0
 10
178.999999910593
 20
-95.373270445642973
 30
0.0
 11
179.50000092387199
 21
-94.873270363686586
 31
0.0
  0
LINE
  5
AA95
  8
0
 10
178.84201966226101
 20
-87.772569962916876
 30
0.0
 11
172.25000020116559
 21
-85.373270669160405
 31
0.0
  0
LINE
  5
AA96
  8
0
 10
152.7499997988343
 20
-85.373270669160405
 30
0.0
 11
146.15798033773899
 21
-87.772569962916876
 31
0.0
  0
ARC
  5
AA97
  8
0
 10
171.90000000000001
 20
-95.773270549951093
 30
0.0
 40
0.4000000000000057
 50
90.0
 51
180.0
  0
ARC
  5
AA98
  8
0
 10
153.09999999999991
 20
-95.773270549951093
 30
0.0
 40
0.4000000000000057
 50
0.0
 51
90.0
  0
LINE
  5
AA99
  8
0
 10
153.50000038743019
 20
-99.873270717589193
 30
0.0
 11
154.49999962002039
 21
-100.87327041584059
 31
0.0
  0
LINE
  5
AA9A
  8
0
 10
171.49999961256981
 20
-100.873270445643
 30
0.0
 11
171.49999961256981
 21
-95.773270697472597
 31
0.0
  0
LINE
  5
AA9B
  8
0
 10
153.50000038743019
 20
-95.773270697472597
 30
0.0
 11
153.50000038743019
 21
-100.8732704456431
 31
0.0
  0
LINE
  5
AA9D
  8
0
 10
155.49999978393311
 20
-84.373270505247618
 30
0.0
 11
169.5000002160667
 21
-84.373270505247618
 31
0.0
  0
LINE
  5
AA9E
  8
0
 10
158.49999981001019
 20
-109.47327047507279
 30
0.0
 11
166.50000018998981
 21
-109.47327047507279
 31
0.0
  0
POLYLINE
  5
AA9F
  8
0
 66
     1
 10
0.0
 20
0.0
 30
0.0
 70
   128
  0
VERTEX
  5
DABD
  8
0
 10
166.49672705680129
 20
-104.9798276453744
 30
0.0
  0
VERTEX
  5
DABE
  8
0
 10
166.4982567541301
 20
-104.976759635983
 30
0.0
  0
VERTEX
  5
DABF
  8
0
 10
166.4783641695976
 20
-105.01690126876341
 30
0.0
  0
VERTEX
  5
DAC0
  8
0
 10
166.43657758831969
 20
-105.1033396452199
 30
0.0
  0
VERTEX
  5
DAC1
  8
0
 10
166.37781718745819
 20
-105.23043746980839
 30
0.0
  0
VERTEX
  5
DAC2
  8
0
 10
166.30482967011631
 20
-105.3995079073589
 30
0.0
  0
VERTEX
  5
DAC3
  8
0
 10
166.2194259930402
 20
-105.6189697647001
 30
0.0
  0
VERTEX
  5
DAC4
  8
0
 10
166.13226188346741
 20
-105.88087548422619
 30
0.0
  0
VERTEX
  5
DAC5
  8
0
 10
166.05262076482171
 20
-106.1851627837401
 30
0.0
  0
VERTEX
  5
DAC6
  8
0
 10
165.99252019077539
 20
-106.52863862379451
 30
0.0
  0
VERTEX
  5
DAC7
  8
0
 10
165.96630625426769
 20
-106.84966376903461
 30
0.0
  0
VERTEX
  5
DAC8
  8
0
 10
165.97068021073929
 20
-107.186860122974
 30
0.0
  0
VERTEX
  5
DAC9
  8
0
 10
165.99980453029269
 20
-107.4719009284395
 30
0.0
  0
VERTEX
  5
DACA
  8
0
 10
166.05034437961871
 20
-107.7510525010526
 30
0.0
  0
VERTEX
  5
DACB
  8
0
 10
166.11764966510231
 20
-108.0160497167613
 30
0.0
  0
VERTEX
  5
DACC
  8
0
 10
166.1958588752895
 20
-108.26143709165039
 30
0.0
  0
VERTEX
  5
DACD
  8
0
 10
166.284229978919
 20
-108.4965550053399
 30
0.0
  0
VERTEX
  5
DACE
  8
0
 10
166.36850791983301
 20
-108.695290628029
 30
0.0
  0
VERTEX
  5
DACF
  8
0
 10
166.43703719601029
 20
-108.84416906083931
 30
0.0
  0
VERTEX
  5
DAD0
  8
0
 10
166.48377049714321
 20
-108.94061054023911
 30
0.0
  0
VERTEX
  5
DAD1
  8
0
 10
166.49976596236229
 20
-108.9728027527686
 30
0.0
  0
VERTEX
  5
DAD2
  8
0
 10
166.49845698848361
 20
-108.9701739783864
 30
0.0
  0
SEQEND
  5
DAD3
  8
0
  0
POLYLINE
  5
AAA0
  8
0
 66
     1
 10
0.0
 20
0.0
 30
0.0
 70
   128
  0
VERTEX
  5
DAD4
  8
0
 10
158.5032729431986
 20
-108.96671353294511
 30
0.0
  0
VERTEX
  5
DAD5
  8
0
 10
158.50174324586979
 20
-108.9697814259212
 30
0.0
  0
VERTEX
  5
DAD6
  8
0
 10
158.52163583040229
 20
-108.9296399095561
 30
0.0
  0
VERTEX
  5
DAD7
  8
0
 10
158.56342241168019
 20
-108.84320141668429
 30
0.0
  0
VERTEX
  5
DAD8
  8
0
 10
158.62218281254169
 20
-108.7161034756805
 30
0.0
  0
VERTEX
  5
DAD9
  8
0
 10
158.69517032988369
 20
-108.5470332709606
 30
0.0
  0
VERTEX
  5
DADA
  8
0
 10
158.7805740069598
 20
-108.3275712972041
 30
0.0
  0
VERTEX
  5
DADB
  8
0
 10
158.86773811653251
 20
-108.06566563588559
 30
0.0
  0
VERTEX
  5
DADC
  8
0
 10
158.9473792351782
 20
-107.761378307268
 30
0.0
  0
VERTEX
  5
DADD
  8
0
 10
159.00747980922461
 20
-107.41790245266159
 30
0.0
  0
VERTEX
  5
DADE
  8
0
 10
159.03369374573231
 20
-107.0968773510772
 30
0.0
  0
VERTEX
  5
DADF
  8
0
 10
159.0293197892606
 20
-106.7596809534821
 30
0.0
  0
VERTEX
  5
DAE0
  8
0
 10
159.00019546970719
 20
-106.47464019167229
 30
0.0
  0
VERTEX
  5
DAE1
  8
0
 10
158.94965562038121
 20
-106.1954885899555
 30
0.0
  0
VERTEX
  5
DAE2
  8
0
 10
158.88235033489761
 20
-105.9304913451429
 30
0.0
  0
VERTEX
  5
DAE3
  8
0
 10
158.80414112471041
 20
-105.6851040284615
 30
0.0
  0
VERTEX
  5
DAE4
  8
0
 10
158.71577002108091
 20
-105.4499860565643
 30
0.0
  0
VERTEX
  5
DAE5
  8
0
 10
158.63149208016691
 20
-105.2512504338752
 30
0.0
  0
VERTEX
  5
DAE6
  8
0
 10
158.56296280398959
 20
-105.10237200106489
 30
0.0
  0
VERTEX
  5
DAE7
  8
0
 10
158.5162295028567
 20
-105.00593052166511
 30
0.0
  0
VERTEX
  5
DAE8
  8
0
 10
158.50023403763771
 20
-104.9737381927203
 30
0.0
  0
VERTEX
  5
DAE9
  8
0
 10
158.5015430115163
 20
-104.9763670835178
 30
0.0
  0
SEQEND
  5
DAEA
  8
0
  0
LINE
  5
AAA1
  8
0
 10
165.05662435665721
 20
-111.973270652024
 30
0.0
 11
159.9433756433427
 21
-111.973270652024
 31
0.0
  0
LINE
  5
AAA2
  8
0
 10
169.19999979436389
 20
-108.9732705095317
 30
0.0
 11
169.19999979436389
 21
-104.9732704359572
 31
0.0
  0
LINE
  5
AAA3
  8
0
 10
155.800000205636
 20
-104.9732704359572
 30
0.0
 11
155.800000205636
 21
-108.9732705095317
 31
0.0
  0
LINE
  5
AAA4
  8
0
 10
169.50000021606681
 20
-105.27327062482939
 30
0.0
 11
169.50000021606681
 21
-108.6732705534901
 31
0.0
  0
LINE
  5
AAA5
  8
0
 10
155.49999978393311
 20
-108.6732705534901
 30
0.0
 11
155.49999978393311
 21
-105.27327062482939
 31
0.0
  0
LINE
  5
AAA6
  8
0
 10
172.25000020116559
 20
-85.373270669160405
 30
0.0
 11
152.7499997988343
 21
-85.373270669160405
 31
0.0
  0
LINE
  5
AAA7
  8
0
 10
153.50000038743019
 20
-99.873270717589193
 30
0.0
 11
171.4999996125697
 21
-99.873270717589207
 31
0.0
  0
LINE
  5
AAA8
  8
0
 10
146.15798033773899
 20
-87.772569962916876
 30
0.0
 11
178.84201966226101
 21
-87.772569962916876
 31
0.0
  0
LINE
  5
AAA9
  8
1
 10
162.5
 20
-116.973270652024
 30
0.0
 11
162.5
 21
-79.373270505247632
 31
0.0
  0
LINE
  5
AAAA
  8
1
 10
153.49999978393311
 20
-106.9732704456429
 30
0.0
 11
171.50000021606681
 21
-106.9732704456429
 31
0.0
  0
LINE
  5
AAAB
  8
0
 10
171.4999996125697
 20
-99.873270717589193
 30
0.0
 11
170.5000003799795
 21
-100.87327041584059
 31
0.0
  0
LINE
  5
AAAC
  8
0
 10
140.0
 20
-95.373270445642973
 30
0.0
 11
185.0
 21
-95.373270445642973
 31
0.0
  0
LINE
  5
AAAD
  8
0
 10
153.5
 20
-96.373270445642987
 30
0.0
 11
152.5
 21
-95.373270445642973
 31
0.0
  0
LINE
  5
AAAE
  8
0
 10
146.80000000000001
 20
-95.873270445642987
 30
0.0
 11
146.30000000000001
 21
-95.373270445642973
 31
0.0
  0
LINE
  5
AAAF
  8
0
 10
145.25
 20
-97.873270445643001
 30
0.0
 11
151.75
 21
-97.873270445643001
 31
0.0
  0
LINE
  5
AAB0
  8
0
 10
140.0
 20
-101.373270445643
 30
0.0
 11
158.49999981001019
 21
-101.373270445643
 31
0.0
  0
LINE
  5
AAB1
  8
0
 10
166.50000018998981
 20
-101.373270445643
 30
0.0
 11
185.0
 21
-101.373270445643
 31
0.0
  0
LINE
  5
AAB2
  8
0
 10
153.5
 20
-100.873270445643
 30
0.0
 11
153.0
 21
-101.373270445643
 31
0.0
  0
LINE
  5
AAB3
  8
0
 10
145.25
 20
-100.873270445643
 30
0.0
 11
144.75
 21
-101.373270445643
 31
0.0
  0
LINE
  5
AAB4
  8
1
 10
148.5
 20
-93.373270445642987
 30
0.0
 11
148.5
 21
-103.373270445643
 31
0.0
  0
LINE
  5
AAB5
  8
0
 10
146.80000000000001
 20
-95.873270445642987
 30
0.0
 11
146.80000000000001
 21
-97.873270445643001
 31
0.0
  0
LINE
  5
AAB6
  8
0
 10
145.25
 20
-97.873270445643001
 30
0.0
 11
145.25
 21
-100.873270445643
 31
0.0
  0
LINE
  5
AAB7
  8
0
 10
150.19999999999999
 20
-95.873270445642987
 30
0.0
 11
150.69999999999999
 21
-95.373270445642973
 31
0.0
  0
LINE
  5
AAB8
  8
0
 10
151.75
 20
-100.873270445643
 30
0.0
 11
152.25
 21
-101.373270445643
 31
0.0
  0
LINE
  5
AAB9
  8
0
 10
150.19999999999999
 20
-95.873270445642987
 30
0.0
 11
150.19999999999999
 21
-97.873270445643001
 31
0.0
  0
LINE
  5
AABA
  8
0
 10
151.75
 20
-97.873270445643001
 30
0.0
 11
151.75
 21
-100.873270445643
 31
0.0
  0
LINE
  5
AABB
  8
0
 10
146.80000000000001
 20
-95.873270445642987
 30
0.0
 11
147.00000025331971
 21
-95.873270445643016
 31
0.0
  0
LINE
  5
AABC
  8
0
 10
149.99999981373551
 20
-95.873270445643016
 30
0.0
 11
150.19999999999999
 21
-95.873270445642987
 31
0.0
  0
LINE
  5
AABD
  8
0
 10
145.25
 20
-100.873270445643
 30
0.0
 11
151.75
 21
-100.873270445643
 31
0.0
  0
LINE
  5
AABE
  8
0
 10
171.5
 20
-96.373270445643016
 30
0.0
 11
172.5
 21
-95.373270445643016
 31
0.0
  0
LINE
  5
AABF
  8
0
 10
171.5
 20
-100.873270445643
 30
0.0
 11
172.0
 21
-101.373270445643
 31
0.0
  0
LINE
  5
AAC0
  8
0
 10
171.5
 20
-100.873270445643
 30
0.0
 11
153.5
 21
-100.8732704456431
 31
0.0
  0
LINE
  5
AACA
  8
0
 10
324.99999983236199
 20
-93.373270669160405
 30
0.0
 11
324.99999983236199
 21
-92.873269655881444
 31
0.0
  0
LINE
  5
AACB
  8
0
 10
310.00000016763812
 20
-92.873269655881444
 30
0.0
 11
310.00000016763812
 21
-93.373270669160405
 31
0.0
  0
LINE
  5
AACC
  8
0
 10
324.99999983236199
 20
-92.873269655881444
 30
0.0
 11
324.50000021606689
 21
-92.373270505247632
 31
0.0
  0
LINE
  5
AACD
  8
0
 10
310.49999978393322
 20
-92.373270505247632
 30
0.0
 11
310.00000016763812
 21
-92.873269655881444
 31
0.0
  0
LINE
  5
AACE
  8
0
 10
321.50000018998981
 20
-112.9732704359572
 30
0.0
 11
321.50000018998981
 21
-108.87327041584059
 31
0.0
  0
LINE
  5
AACF
  8
0
 10
321.50000018998981
 20
-117.47327047507279
 30
0.0
 11
321.50000018998981
 21
-116.9732705095317
 31
0.0
  0
LINE
  5
AAD0
  8
0
 10
313.49999981001019
 20
-116.9732705095317
 30
0.0
 11
313.49999981001019
 21
-117.47327047507279
 31
0.0
  0
LINE
  5
AAD1
  8
0
 10
313.49999981001019
 20
-108.87327041584059
 30
0.0
 11
313.49999981001019
 21
-112.9732704359572
 31
0.0
  0
LINE
  5
AAD2
  8
0
 10
313.49999981001019
 20
-117.47327047507279
 30
0.0
 11
314.94337564334279
 21
-119.973270652024
 31
0.0
  0
LINE
  5
AAD3
  8
0
 10
320.05662435665732
 20
-119.973270652024
 30
0.0
 11
321.50000018998981
 21
-117.47327047507279
 31
0.0
  0
LINE
  5
AAD4
  8
0
 10
310.80000020563602
 20
-116.9732705095317
 30
0.0
 11
313.49999981001019
 21
-116.9732705095317
 31
0.0
  0
LINE
  5
AAD5
  8
0
 10
321.50000018998981
 20
-116.9732705095317
 30
0.0
 11
324.19999979436398
 21
-116.9732705095317
 31
0.0
  0
LINE
  5
AAD6
  8
0
 10
324.19999979436398
 20
-112.9732704359572
 30
0.0
 11
321.50000018998981
 21
-112.9732704359572
 31
0.0
  0
LINE
  5
AAD7
  8
0
 10
313.49999981001019
 20
-112.9732704359572
 30
0.0
 11
310.80000020563602
 21
-112.9732704359572
 31
0.0
  0
LINE
  5
AAD8
  8
0
 10
324.19999979436398
 20
-116.9732705095317
 30
0.0
 11
324.50000021606689
 21
-116.6732705534901
 31
0.0
  0
LINE
  5
AAD9
  8
0
 10
324.50000021606689
 20
-113.27327062482939
 30
0.0
 11
324.19999979436398
 21
-112.9732704359572
 31
0.0
  0
LINE
  5
AADA
  8
0
 10
310.80000020563602
 20
-112.9732704359572
 30
0.0
 11
310.49999978393322
 21
-113.27327062482939
 31
0.0
  0
LINE
  5
AADB
  8
0
 10
310.49999978393322
 20
-116.6732705534901
 30
0.0
 11
310.80000020563602
 21
-116.9732705095317
 31
0.0
  0
LINE
  5
AADC
  8
0
 10
306.24999955296522
 20
-108.87327041584059
 30
0.0
 11
306.24999955296522
 21
-105.87327085542491
 31
0.0
  0
LINE
  5
AADD
  8
0
 10
300.74999958276749
 20
-105.87327085542491
 30
0.0
 11
300.74999958276749
 21
-108.87327041584059
 31
0.0
  0
LINE
  5
AADE
  8
0
 10
304.99999981373549
 20
-105.87327085542491
 30
0.0
 11
304.99999981373549
 21
-103.373270445643
 31
0.0
  0
LINE
  5
AADF
  8
0
 10
302.0000002533198
 20
-103.373270445643
 30
0.0
 11
302.0000002533198
 21
-105.87327085542491
 31
0.0
  0
LINE
  5
AAE0
  8
0
 10
334.50000092387199
 20
-102.8732703636866
 30
0.0
 11
334.50000092387199
 21
-96.712261402187863
 31
0.0
  0
LINE
  5
AAE1
  8
0
 10
300.49999907612801
 20
-96.712261402187863
 30
0.0
 11
300.49999907612801
 21
-102.8732703636866
 31
0.0
  0
ARC
  5
AAE2
  8
0
 10
301.5
 20
-96.712262286590743
 30
0.0
 40
1.00000000000001
 50
109.9999999999965
 51
180.0
  0
ARC
  5
AAE3
  8
0
 10
333.5
 20
-96.712262286590743
 30
0.0
 40
1.000000000000014
 50
0.0
 51
70.000000000003425
  0
LINE
  5
AAE4
  8
0
 10
300.49999907612801
 20
-102.8732703636866
 30
0.0
 11
301.00000008940702
 21
-103.373270445643
 31
0.0
  0
LINE
  5
AAE5
  8
0
 10
333.99999991059309
 20
-103.373270445643
 30
0.0
 11
334.50000092387199
 21
-102.8732703636866
 31
0.0
  0
LINE
  5
AAE6
  8
0
 10
333.84201966226101
 20
-95.77256996291689
 30
0.0
 11
327.25000020116568
 21
-93.373270669160405
 31
0.0
  0
LINE
  5
AAE7
  8
0
 10
307.74999979883432
 20
-93.373270669160405
 30
0.0
 11
301.15798033773899
 21
-95.77256996291689
 31
0.0
  0
ARC
  5
AAE8
  8
0
 10
326.90000000000009
 20
-103.77327054995111
 30
0.0
 40
0.4000000000000057
 50
90.0
 51
180.0
  0
ARC
  5
AAE9
  8
0
 10
308.10000000000002
 20
-103.77327054995111
 30
0.0
 40
0.4000000000000057
 50
0.0
 51
90.0
  0
LINE
  5
AAEA
  8
0
 10
308.50000038743019
 20
-107.87327071758919
 30
0.0
 11
309.49999962002039
 21
-108.87327041584059
 31
0.0
  0
LINE
  5
AAEB
  8
0
 10
326.49999961256981
 20
-108.873270445643
 30
0.0
 11
326.49999961256981
 21
-103.7732706974726
 31
0.0
  0
LINE
  5
AAEC
  8
0
 10
308.50000038743019
 20
-103.7732706974726
 30
0.0
 11
308.50000038743019
 21
-108.8732704456431
 31
0.0
  0
LINE
  5
AAEE
  8
0
 10
310.49999978393322
 20
-92.373270505247632
 30
0.0
 11
324.50000021606689
 21
-92.373270505247632
 31
0.0
  0
LINE
  5
AAEF
  8
0
 10
313.49999981001019
 20
-117.47327047507279
 30
0.0
 11
321.50000018998981
 21
-117.47327047507279
 31
0.0
  0
POLYLINE
  5
AAF0
  8
0
 66
     1
 10
0.0
 20
0.0
 30
0.0
 70
   128
  0
VERTEX
  5
DAEB
  8
0
 10
321.49672705680132
 20
-112.9798276453744
 30
0.0
  0
VERTEX
  5
DAEC
  8
0
 10
321.49825675413013
 20
-112.976759635983
 30
0.0
  0
VERTEX
  5
DAED
  8
0
 10
321.47836416959763
 20
-113.01690126876341
 30
0.0
  0
VERTEX
  5
DAEE
  8
0
 10
321.43657758831978
 20
-113.1033396452199
 30
0.0
  0
VERTEX
  5
DAEF
  8
0
 10
321.37781718745828
 20
-113.23043746980839
 30
0.0
  0
VERTEX
  5
DAF0
  8
0
 10
321.30482967011631
 20
-113.3995079073589
 30
0.0
  0
VERTEX
  5
DAF1
  8
0
 10
321.2194259930402
 20
-113.6189697647001
 30
0.0
  0
VERTEX
  5
DAF2
  8
0
 10
321.13226188346749
 20
-113.88087548422619
 30
0.0
  0
VERTEX
  5
DAF3
  8
0
 10
321.05262076482182
 20
-114.1851627837401
 30
0.0
  0
VERTEX
  5
DAF4
  8
0
 10
320.99252019077539
 20
-114.52863862379451
 30
0.0
  0
VERTEX
  5
DAF5
  8
0
 10
320.96630625426769
 20
-114.84966376903461
 30
0.0
  0
VERTEX
  5
DAF6
  8
0
 10
320.97068021073937
 20
-115.186860122974
 30
0.0
  0
VERTEX
  5
DAF7
  8
0
 10
320.99980453029281
 20
-115.4719009284395
 30
0.0
  0
VERTEX
  5
DAF8
  8
0
 10
321.05034437961882
 20
-115.7510525010526
 30
0.0
  0
VERTEX
  5
DAF9
  8
0
 10
321.11764966510242
 20
-116.0160497167613
 30
0.0
  0
VERTEX
  5
DAFA
  8
0
 10
321.19585887528962
 20
-116.26143709165039
 30
0.0
  0
VERTEX
  5
DAFB
  8
0
 10
321.28422997891909
 20
-116.4965550053399
 30
0.0
  0
VERTEX
  5
DAFC
  8
0
 10
321.36850791983312
 20
-116.695290628029
 30
0.0
  0
VERTEX
  5
DAFD
  8
0
 10
321.43703719601041
 20
-116.84416906083931
 30
0.0
  0
VERTEX
  5
DAFE
  8
0
 10
321.48377049714333
 20
-116.94061054023911
 30
0.0
  0
VERTEX
  5
DAFF
  8
0
 10
321.49976596236229
 20
-116.9728027527686
 30
0.0
  0
VERTEX
  5
DB00
  8
0
 10
321.49845698848372
 20
-116.9701739783864
 30
0.0
  0
SEQEND
  5
DB01
  8
0
  0
POLYLINE
  5
AAF1
  8
0
 66
     1
 10
0.0
 20
0.0
 30
0.0
 70
   128
  0
VERTEX
  5
DB02
  8
0
 10
313.50327294319868
 20
-116.96671353294511
 30
0.0
  0
VERTEX
  5
DB03
  8
0
 10
313.50174324586987
 20
-116.9697814259212
 30
0.0
  0
VERTEX
  5
DB04
  8
0
 10
313.52163583040237
 20
-116.9296399095561
 30
0.0
  0
VERTEX
  5
DB05
  8
0
 10
313.56342241168022
 20
-116.84320141668429
 30
0.0
  0
VERTEX
  5
DB06
  8
0
 10
313.62218281254172
 20
-116.7161034756805
 30
0.0
  0
VERTEX
  5
DB07
  8
0
 10
313.69517032988369
 20
-116.5470332709606
 30
0.0
  0
VERTEX
  5
DB08
  8
0
 10
313.7805740069598
 20
-116.3275712972041
 30
0.0
  0
VERTEX
  5
DB09
  8
0
 10
313.86773811653262
 20
-116.06566563588559
 30
0.0
  0
VERTEX
  5
DB0A
  8
0
 10
313.94737923517829
 20
-115.761378307268
 30
0.0
  0
VERTEX
  5
DB0B
  8
0
 10
314.00747980922461
 20
-115.41790245266159
 30
0.0
  0
VERTEX
  5
DB0C
  8
0
 10
314.03369374573231
 20
-115.0968773510772
 30
0.0
  0
VERTEX
  5
DB0D
  8
0
 10
314.02931978926063
 20
-114.7596809534821
 30
0.0
  0
VERTEX
  5
DB0E
  8
0
 10
314.00019546970731
 20
-114.47464019167229
 30
0.0
  0
VERTEX
  5
DB0F
  8
0
 10
313.94965562038129
 20
-114.1954885899555
 30
0.0
  0
VERTEX
  5
DB10
  8
0
 10
313.88235033489769
 20
-113.9304913451429
 30
0.0
  0
VERTEX
  5
DB11
  8
0
 10
313.8041411247105
 20
-113.6851040284615
 30
0.0
  0
VERTEX
  5
DB12
  8
0
 10
313.71577002108103
 20
-113.4499860565644
 30
0.0
  0
VERTEX
  5
DB13
  8
0
 10
313.63149208016699
 20
-113.2512504338752
 30
0.0
  0
VERTEX
  5
DB14
  8
0
 10
313.56296280398971
 20
-113.10237200106489
 30
0.0
  0
VERTEX
  5
DB15
  8
0
 10
313.51622950285679
 20
-113.00593052166511
 30
0.0
  0
VERTEX
  5
DB16
  8
0
 10
313.50023403763771
 20
-112.9737381927203
 30
0.0
  0
VERTEX
  5
DB17
  8
0
 10
313.50154301151639
 20
-112.9763670835178
 30
0.0
  0
SEQEND
  5
DB18
  8
0
  0
LINE
  5
AAF2
  8
0
 10
320.05662435665732
 20
-119.973270652024
 30
0.0
 11
314.94337564334279
 21
-119.973270652024
 31
0.0
  0
LINE
  5
AAF3
  8
0
 10
324.19999979436398
 20
-116.9732705095317
 30
0.0
 11
324.19999979436398
 21
-112.9732704359572
 31
0.0
  0
LINE
  5
AAF4
  8
0
 10
310.80000020563602
 20
-112.9732704359572
 30
0.0
 11
310.80000020563602
 21
-116.9732705095317
 31
0.0
  0
LINE
  5
AAF5
  8
0
 10
324.50000021606689
 20
-113.27327062482939
 30
0.0
 11
324.50000021606689
 21
-116.6732705534901
 31
0.0
  0
LINE
  5
AAF6
  8
0
 10
310.49999978393322
 20
-116.6732705534901
 30
0.0
 11
310.49999978393322
 21
-113.27327062482939
 31
0.0
  0
LINE
  5
AAF7
  8
0
 10
327.25000020116568
 20
-93.373270669160405
 30
0.0
 11
307.74999979883432
 21
-93.373270669160405
 31
0.0
  0
LINE
  5
AAF8
  8
0
 10
308.50000038743019
 20
-107.87327071758919
 30
0.0
 11
326.49999961256981
 21
-107.87327071758919
 31
0.0
  0
LINE
  5
AAF9
  8
0
 10
301.15798033773899
 20
-95.77256996291689
 30
0.0
 11
333.84201966226101
 21
-95.77256996291689
 31
0.0
  0
LINE
  5
AAFA
  8
1
 10
317.5
 20
-124.9732706520241
 30
0.0
 11
317.5
 21
-87.373270505247632
 31
0.0
  0
LINE
  5
AAFB
  8
1
 10
308.49999978393322
 20
-114.9732704456429
 30
0.0
 11
326.50000021606689
 21
-114.9732704456429
 31
0.0
  0
LINE
  5
AAFC
  8
0
 10
300.0
 20
-103.373270445643
 30
0.0
 11
335.0
 21
-103.373270445643
 31
0.0
  0
LINE
  5
AAFD
  8
0
 10
295.0
 20
-95.373270445642973
 30
0.0
 11
302.25504655016402
 21
-95.373270445642973
 31
0.0
  0
LINE
  5
AAFE
  8
0
 10
332.74495344983598
 20
-95.373270445642973
 30
0.0
 11
340.0
 21
-95.373270445642973
 31
0.0
  0
LINE
  5
AAFF
  8
0
 10
300.0
 20
-95.873270445642987
 30
0.0
 11
299.5
 21
-95.373270445642973
 31
0.0
  0
LINE
  5
AB00
  8
0
 10
308.5
 20
-104.373270445643
 30
0.0
 11
307.5
 21
-103.373270445643
 31
0.0
  0
LINE
  5
AB01
  8
0
 10
301.80000000000001
 20
-103.873270445643
 30
0.0
 11
301.2999999999999
 21
-103.373270445643
 31
0.0
  0
LINE
  5
AB02
  8
0
 10
300.25
 20
-105.873270445643
 30
0.0
 11
306.75
 21
-105.873270445643
 31
0.0
  0
LINE
  5
AB03
  8
0
 10
295.0
 20
-109.373270445643
 30
0.0
 11
313.49999981001019
 21
-109.373270445643
 31
0.0
  0
LINE
  5
AB04
  8
0
 10
321.50000018998981
 20
-109.373270445643
 30
0.0
 11
340.0
 21
-109.373270445643
 31
0.0
  0
LINE
  5
AB05
  8
0
 10
308.5
 20
-108.873270445643
 30
0.0
 11
308.0
 21
-109.373270445643
 31
0.0
  0
LINE
  5
AB06
  8
0
 10
300.25
 20
-108.873270445643
 30
0.0
 11
299.75
 21
-109.373270445643
 31
0.0
  0
LINE
  5
AB07
  8
1
 10
303.5
 20
-101.373270445643
 30
0.0
 11
303.5
 21
-111.373270445643
 31
0.0
  0
LINE
  5
AB08
  8
0
 10
301.80000000000001
 20
-103.873270445643
 30
0.0
 11
301.80000000000001
 21
-105.873270445643
 31
0.0
  0
LINE
  5
AB09
  8
0
 10
300.25
 20
-105.873270445643
 30
0.0
 11
300.25
 21
-108.873270445643
 31
0.0
  0
LINE
  5
AB0A
  8
0
 10
305.19999999999999
 20
-103.873270445643
 30
0.0
 11
305.69999999999999
 21
-103.373270445643
 31
0.0
  0
LINE
  5
AB0B
  8
0
 10
306.75
 20
-108.873270445643
 30
0.0
 11
307.25
 21
-109.373270445643
 31
0.0
  0
LINE
  5
AB0C
  8
0
 10
305.19999999999999
 20
-103.873270445643
 30
0.0
 11
305.19999999999999
 21
-105.873270445643
 31
0.0
  0
LINE
  5
AB0D
  8
0
 10
306.75
 20
-105.873270445643
 30
0.0
 11
306.75
 21
-108.873270445643
 31
0.0
  0
LINE
  5
AB0E
  8
0
 10
301.80000000000001
 20
-103.873270445643
 30
0.0
 11
302.0000002533198
 21
-103.873270445643
 31
0.0
  0
LINE
  5
AB0F
  8
0
 10
304.99999981373549
 20
-103.873270445643
 30
0.0
 11
305.19999999999999
 21
-103.873270445643
 31
0.0
  0
LINE
  5
AB10
  8
0
 10
300.25
 20
-108.873270445643
 30
0.0
 11
306.75
 21
-108.873270445643
 31
0.0
  0
LINE
  5
AB11
  8
0
 10
326.5
 20
-104.373270445643
 30
0.0
 11
327.5
 21
-103.373270445643
 31
0.0
  0
LINE
  5
AB12
  8
0
 10
326.5
 20
-108.873270445643
 30
0.0
 11
327.0
 21
-109.373270445643
 31
0.0
  0
LINE
  5
AB13
  8
0
 10
326.5
 20
-108.873270445643
 30
0.0
 11
308.5
 21
-108.8732704456431
 31
0.0
  0
LINE
  5
AB14
  8
0
 10
300.0
 20
-95.873270445642987
 30
0.0
 11
300.0
 21
-103.373270445643
 31
0.0
  0
LINE
  5
AB15
  8
0
 10
335.0
 20
-95.873270445642987
 30
0.0
 11
335.5
 21
-95.373270445642973
 31
0.0
  0
LINE
  5
AB16
  8
0
 10
335.0
 20
-95.873270445642987
 30
0.0
 11
335.0
 21
-103.373270445643
 31
0.0
  0
LINE
  5
AB17
  8
0
 10
300.0
 20
-95.873270445642987
 30
0.0
 11
300.9558560017577
 21
-95.873270445642987
 31
0.0
  0
LINE
  5
AB18
  8
0
 10
334.04414399824242
 20
-95.873270445642987
 30
0.0
 11
335.0
 21
-95.873270445642987
 31
0.0
  0
LINE
  5
AB19
  8
0
 10
326.49999961256981
 20
-107.87327071758919
 30
0.0
 11
325.50000037997961
 21
-108.87327041584059
 31
0.0
  0
TEXT
  5
AD6F
  8
0
 62
     3
 10
0.0
 20
0.0
 30
0.0
 40
10.0
  1
QCTHH0834-14
  7
STANDARD1
  0
TEXT
  5
AE01
  8
0
 62
     3
 10
120.0
 20
-7.0
 30
0.0
 40
3.2000000000000002
  1
■Installation Instructions for Quarter-Turn Clamps〈For Y-axis Positioning of "OFF" Mark〉 (see diagram below)
  0
TEXT
  5
AE02
  8
0
 62
     3
 10
137.53999999999991
 20
-141.27327065202411
 30
0.0
 40
3.2000000000000002
  1
Installed condition
 72
     1
 11
162.49999999999989
 21
-141.27327065202411
 31
0.0
  0
TEXT
  5
AE03
  8
0
 62
     3
 10
210.4733333333333
 20
-141.27327065202411
 30
0.0
 40
3.2000000000000002
  1
Installation hole
 72
     1
 11
232.5
 21
-141.27327065202411
 31
0.0
  0
TEXT
  5
AE04
  8
0
 62
     3
 10
292.53999999999991
 20
-141.27327065202411
 30
0.0
 40
3.2000000000000002
  1
Installed condition
 72
     1
 11
317.49999999999989
 21
-141.27327065202411
 31
0.0
  0
TEXT
  5
AE05
  8
0
 62
     3
 10
365.4733333333333
 20
-141.27327065202411
 30
0.0
 40
3.2000000000000002
  1
Installation hole
 72
     1
 11
387.5
 21
-141.27327065202411
 31
0.0
  0
TEXT
  5
AE06
  8
0
 62
     3
 10
138.77999999999989
 20
-26.168098188633891
 30
0.0
 40
3.2000000000000002
  1
For installation on plate of 6 mm thickness.
 72
     1
 11
197.49999999999989
 21
-26.594764855300561
 31
0.0
 73
     1
  0
TEXT
  5
AE07
  8
0
 62
     3
 10
278.63333333333333
 20
-26.168098188633891
 30
0.0
 40
3.2000000000000002
  1
For installation on plate of over 6 to 14 mm thickness.
 72
     1
 11
352.49999999999989
 21
-26.594764855300561
 31
0.0
 73
     1
  0
LINE
  5
BC0D
  8
3
 10
178.37820842239091
 20
112.7158739746195
 30
0.0
 11
178.37820842239091
 21
113.7158743844014
 31
0.0
  0
LINE
  5
BC0E
  8
3
 10
178.37820842239091
 20
112.7158739746195
 30
0.0
 11
178.64870842239009
 21
112.2473542311734
 31
0.0
  0
LINE
  5
BC0F
  8
3
 10
175.9192084223894
 20
112.7158739746195
 30
0.0
 11
175.64870842239009
 21
112.2473542311734
 31
0.0
  0
LINE
  5
BC10
  8
3
 10
175.9192084223894
 20
112.7158739746195
 30
0.0
 11
175.9192084223894
 21
113.7158743844014
 31
0.0
  0
LINE
  5
BC11
  8
0
 10
175.64870842239009
 20
112.7158739746195
 30
0.0
 11
178.64870842239009
 21
112.7158739746195
 31
0.0
  0
LINE
  5
BC12
  8
3
 10
199.37820885452439
 20
112.7158739746195
 30
0.0
 11
199.37820885452439
 21
113.7158743844014
 31
0.0
  0
LINE
  5
BC13
  8
3
 10
199.37820885452439
 20
112.7158739746195
 30
0.0
 11
199.6487088545237
 21
112.2473542311734
 31
0.0
  0
LINE
  5
BC14
  8
3
 10
196.91920885452291
 20
112.7158739746195
 30
0.0
 11
196.64870885452359
 21
112.2473542311734
 31
0.0
  0
LINE
  5
BC15
  8
3
 10
196.91920885452291
 20
112.7158739746195
 30
0.0
 11
196.91920885452291
 21
113.7158743844014
 31
0.0
  0
LINE
  5
BC16
  8
0
 10
196.64870885452359
 20
112.7158739746195
 30
0.0
 11
199.6487088545237
 21
112.7158739746195
 31
0.0
  0
ARC
  5
BC17
  8
0
 10
124.40862951150901
 20
86.930872342639475
 30
0.0
 40
37.954250618114003
 50
108.3987716249799
 51
110.6717560772252
  0
ARC
  5
BC18
  8
0
 10
117.65792829298231
 20
103.9831806005995
 30
0.0
 40
19.618950278389899
 50
109.80616400260379
 51
113.522492922496
  0
POLYLINE
  5
BC19
  8
0
 66
     1
 10
0.0
 20
0.0
 30
0.0
 70
   128
  0
VERTEX
  5
DB1A
  8
0
 10
109.66716695491451
 20
121.8304664281418
 30
0.0
  0
VERTEX
  5
DB1B
  8
0
 10
109.6216885581896
 20
121.838658521798
 30
0.0
  0
VERTEX
  5
DB1C
  8
0
 10
109.6649250009566
 20
121.887895224461
 30
0.0
  0
VERTEX
  5
DB1D
  8
0
 10
109.8278276155752
 20
121.97186408237791
 30
0.0
  0
SEQEND
  5
DB1E
  8
0
  0
ARC
  5
BC1A
  8
0
 10
109.253427600474
 20
125.4082947005851
 30
0.0
 40
3.6016711955017549
 50
276.59637327192769
 51
287.44349410698908
  0
ARC
  5
BC1B
  8
0
 10
105.53101183465949
 20
138.867178906823
 30
0.0
 40
17.564122366428801
 50
285.86682286753029
 51
290.74626596587228
  0
ARC
  5
BC1C
  8
0
 10
108.403888950538
 20
131.94012146129839
 30
0.0
 40
10.07125909409082
 50
289.42161087715908
 51
296.73399278990343
  0
POLYLINE
  5
BC1D
  8
0
 66
     1
 10
0.0
 20
0.0
 30
0.0
 70
   128
  0
VERTEX
  5
DB1F
  8
0
 10
113.0958456335932
 20
123.1171590311011
 30
0.0
  0
VERTEX
  5
DB20
  8
0
 10
113.1405794554761
 20
123.1063341733142
 30
0.0
  0
VERTEX
  5
DB21
  8
0
 10
113.0972208769381
 20
123.04527641160961
 30
0.0
  0
VERTEX
  5
DB22
  8
0
 10
112.93443422218181
 20
122.9454330685917
 30
0.0
  0
SEQEND
  5
DB23
  8
0
  0
ARC
  5
BC1E
  8
0
 10
113.5515322146954
 20
119.9755647904598
 30
0.0
 40
3.1744707642419812
 50
98.25316329258861
 51
110.70497208654341
  0
ARC
  5
BC1F
  8
0
 10
116.2616092040969
 20
108.1973558820569
 30
0.0
 40
15.156898932920351
 50
109.7940302715762
 51
113.7058197504107
  0
ARC
  5
BC20
  8
0
 10
120.7684851938613
 20
97.031297317680824
 30
0.0
 40
27.193310140275869
 50
108.2395011994397
 51
110.7618529418331
  0
ARC
  5
BC21
  8
0
 10
113.0259509709889
 20
120.8149544834113
 30
0.0
 40
2.1831705999329731
 50
98.003725935747539
 51
110.6158020037809
  0
POLYLINE
  5
BC22
  8
0
 66
     1
 10
0.0
 20
0.0
 30
0.0
 70
   128
  0
VERTEX
  5
DB24
  8
0
 10
112.59434413209171
 20
122.858686677996
 30
0.0
  0
VERTEX
  5
DB25
  8
0
 10
112.7343643544358
 20
122.9447328536137
 30
0.0
  0
VERTEX
  5
DB26
  8
0
 10
112.7494046501445
 20
122.9683106855219
 30
0.0
  0
VERTEX
  5
DB27
  8
0
 10
112.7219717597193
 20
122.97685885399009
 30
0.0
  0
SEQEND
  5
DB28
  8
0
  0
ARC
  5
BC23
  8
0
 10
108.4617509296604
 20
131.43643837094959
 30
0.0
 40
9.5213523557711142
 50
289.46227799790552
 51
295.72385877611589
  0
ARC
  5
BC24
  8
0
 10
105.88116463247169
 20
137.54564662527551
 30
0.0
 40
16.146199529925958
 50
286.64095378075592
 51
290.87343716366217
  0
ARC
  5
BC25
  8
0
 10
109.7721511451241
 20
124.24206097733089
 30
0.0
 40
2.2869805801292031
 50
276.77105790241683
 51
288.68989573787098
  0
POLYLINE
  5
BC26
  8
0
 66
     1
 10
0.0
 20
0.0
 30
0.0
 70
   128
  0
VERTEX
  5
DB29
  8
0
 10
110.1679177056653
 20
122.07534237811259
 30
0.0
  0
VERTEX
  5
DB2A
  8
0
 10
110.0280755250603
 20
121.99847522149869
 30
0.0
  0
VERTEX
  5
DB2B
  8
0
 10
110.0137046212877
 20
121.9780900850855
 30
0.0
  0
VERTEX
  5
DB2C
  8
0
 10
110.04179157953919
 20
121.9710316490269
 30
0.0
  0
SEQEND
  5
DB2D
  8
0
  0
LINE
  5
BC29
  8
3
 10
137.50256358363501
 20
112.7158739746195
 30
0.0
 11
137.50256358363501
 21
113.7158743844014
 31
0.0
  0
LINE
  5
BC2A
  8
3
 10
137.50256358363501
 20
112.7158739746195
 30
0.0
 11
137.7730635836343
 21
112.2473542311734
 31
0.0
  0
LINE
  5
BC2B
  8
3
 10
135.04356358363361
 20
112.7158739746195
 30
0.0
 11
134.7730635836343
 21
112.2473542311734
 31
0.0
  0
LINE
  5
BC2C
  8
3
 10
135.04356358363361
 20
112.7158739746195
 30
0.0
 11
135.04356358363361
 21
113.7158743844014
 31
0.0
  0
LINE
  5
BC2D
  8
0
 10
134.7730635836343
 20
112.7158739746195
 30
0.0
 11
137.7730635836343
 21
112.7158739746195
 31
0.0
  0
LINE
  5
BC2E
  8
3
 10
113.2538522776707
 20
112.7158739746195
 30
0.0
 11
113.2538522776707
 21
113.7158743844014
 31
0.0
  0
LINE
  5
BC2F
  8
3
 10
113.2538522776707
 20
112.7158739746195
 30
0.0
 11
113.52435227767
 21
112.2473542311734
 31
0.0
  0
LINE
  5
BC30
  8
3
 10
110.79485227766931
 20
112.7158739746195
 30
0.0
 11
110.52435227767
 21
112.2473542311734
 31
0.0
  0
LINE
  5
BC31
  8
3
 10
110.79485227766931
 20
112.7158739746195
 30
0.0
 11
110.79485227766931
 21
113.7158743844014
 31
0.0
  0
LINE
  5
BC32
  8
0
 10
110.52435227767
 20
112.7158739746195
 30
0.0
 11
113.52435227767
 21
112.7158739746195
 31
0.0
  0
LINE
  5
BC33
  8
0
 10
126.8987079157511
 20
108.2158744142038
 30
0.0
 11
126.8987079157511
 21
111.2158739746195
 31
0.0
  0
LINE
  5
BC34
  8
0
 10
121.3987079455534
 20
111.2158739746195
 30
0.0
 11
121.3987079455534
 21
108.2158744142038
 31
0.0
  0
LINE
  5
BC35
  8
0
 10
125.6487081765214
 20
111.2158739746195
 30
0.0
 11
125.6487081765214
 21
113.7158743844014
 31
0.0
  0
LINE
  5
BC36
  8
0
 10
122.64870861610559
 20
113.7158743844014
 30
0.0
 11
122.64870861610559
 21
111.2158739746195
 31
0.0
  0
LINE
  5
BC38
  8
0
 10
126.8987079157511
 20
111.2158739746195
 30
0.0
 11
121.3987079455534
 21
111.2158739746195
 31
0.0
  0
LINE
  5
BC39
  8
3
 10
125.37820793065291
 20
112.7158739746195
 30
0.0
 11
125.37820793065291
 21
113.7158743844014
 31
0.0
  0
LINE
  5
BC3A
  8
3
 10
125.37820793065291
 20
112.7158739746195
 30
0.0
 11
125.64870793065219
 21
112.2473542311734
 31
0.0
  0
LINE
  5
BC3B
  8
3
 10
122.9192079306515
 20
112.7158739746195
 30
0.0
 11
122.64870793065219
 21
112.2473542311734
 31
0.0
  0
LINE
  5
BC3C
  8
3
 10
122.9192079306515
 20
112.7158739746195
 30
0.0
 11
122.9192079306515
 21
113.7158743844014
 31
0.0
  0
LINE
  5
BC3D
  8
0
 10
122.64870793065219
 20
112.7158739746195
 30
0.0
 11
125.64870793065219
 21
112.7158739746195
 31
0.0
  0
LINE
  5
BC3E
  8
0
 10
126.8987079157511
 20
109.2158741124553
 30
0.0
 11
133.148707543222
 21
109.2158741124553
 31
0.0
  0
LINE
  5
BC47
  8
0
 10
265.64870961075798
 20
123.715874160884
 30
0.0
 11
265.64870961075798
 21
124.215875174163
 31
0.0
  0
LINE
  5
BC48
  8
0
 10
250.64870994603419
 20
124.215875174163
 30
0.0
 11
250.64870994603419
 21
123.715874160884
 31
0.0
  0
LINE
  5
BC49
  8
0
 10
265.64870961075798
 20
124.215875174163
 30
0.0
 11
265.14870999446288
 21
124.7158743247968
 31
0.0
  0
LINE
  5
BC4A
  8
0
 10
251.14870956232929
 20
124.7158743247968
 30
0.0
 11
250.64870994603419
 21
124.215875174163
 31
0.0
  0
LINE
  5
BC4B
  8
0
 10
262.1487099683859
 20
99.615874354971666
 30
0.0
 11
262.1487099683859
 21
108.2158744142038
 31
0.0
  0
LINE
  5
BC4C
  8
0
 10
254.14870958840629
 20
108.2158744142038
 30
0.0
 11
254.14870958840629
 21
99.615874354971666
 31
0.0
  0
LINE
  5
BC4D
  8
0
 10
254.14870958840629
 20
99.615874354971666
 30
0.0
 11
255.5920854217388
 21
97.115874178020377
 31
0.0
  0
LINE
  5
BC4E
  8
0
 10
260.70533413505342
 20
97.115874178020377
 30
0.0
 11
262.1487099683859
 21
99.615874354971666
 31
0.0
  0
LINE
  5
BC4F
  8
0
 10
275.14871070226809
 20
114.2158744663578
 30
0.0
 11
275.14871070226809
 21
120.3768834278566
 31
0.0
  0
LINE
  5
BC50
  8
0
 10
241.1487088545241
 20
120.3768834278566
 30
0.0
 11
241.1487088545241
 21
114.2158744663578
 31
0.0
  0
ARC
  5
BC51
  8
0
 10
242.1487097783961
 20
120.3768825434537
 30
0.0
 40
1.0
 50
110.0
 51
180.0
  0
ARC
  5
BC52
  8
0
 10
274.1487097783961
 20
120.3768825434537
 30
0.0
 40
1.0
 50
0.0
 51
70.000000000003439
  0
LINE
  5
BC53
  8
0
 10
241.1487088545241
 20
114.2158744663578
 30
0.0
 11
241.64870986780309
 21
113.7158743844014
 31
0.0
  0
LINE
  5
BC54
  8
0
 10
274.64870968898907
 20
113.7158743844014
 30
0.0
 11
275.14871070226809
 21
114.2158744663578
 31
0.0
  0
LINE
  5
BC55
  8
0
 10
274.49072944065711
 20
121.3165748671275
 30
0.0
 11
267.89870997956177
 21
123.715874160884
 31
0.0
  0
LINE
  5
BC56
  8
0
 10
248.39870957723051
 20
123.715874160884
 30
0.0
 11
241.80669011613509
 21
121.3165748671275
 31
0.0
  0
ARC
  5
BC57
  8
0
 10
267.54870977839607
 20
113.3158742800933
 30
0.0
 40
0.4000000000000199
 50
90.0
 51
180.0
  0
ARC
  5
BC58
  8
0
 10
248.74870977839609
 20
113.3158742800933
 30
0.0
 40
0.4000000000000199
 50
0.0
 51
90.0
  0
LINE
  5
BC59
  8
0
 10
249.14871016582629
 20
109.2158741124553
 30
0.0
 11
250.14870939841651
 21
108.2158744142038
 31
0.0
  0
LINE
  5
BC5A
  8
0
 10
266.14871015837571
 20
108.2158744142038
 30
0.0
 11
267.14870939096591
 21
109.2158741124553
 31
0.0
  0
LINE
  5
BC5B
  8
0
 10
267.14870939096591
 20
109.2158741124553
 30
0.0
 11
267.14870939096591
 21
113.31587413257181
 31
0.0
  0
LINE
  5
BC5C
  8
0
 10
249.14871016582629
 20
113.31587413257181
 30
0.0
 11
249.14871016582629
 21
109.2158741124553
 31
0.0
  0
LINE
  5
BC63
  8
0
 10
251.14870956232929
 20
124.7158743247968
 30
0.0
 11
265.14870999446288
 21
124.7158743247968
 31
0.0
  0
LINE
  5
BC64
  8
0
 10
254.14870958840629
 20
99.615874354971666
 30
0.0
 11
262.1487099683859
 21
99.615874354971666
 31
0.0
  0
LINE
  5
BC65
  8
0
 10
260.70533413505342
 20
97.115874178020377
 30
0.0
 11
255.5920854217388
 21
97.115874178020377
 31
0.0
  0
CIRCLE
  5
BC66
  8
0
 10
258.1487097783961
 20
102.11587428009329
 30
0.0
 40
1.7000000000000171
  0
CIRCLE
  5
BC67
  8
0
 10
258.1487097783961
 20
102.11587428009329
 30
0.0
 40
2.0000000000000142
  0
LINE
  5
BC68
  8
0
 10
274.64870968898907
 20
113.7158743844014
 30
0.0
 11
241.64870986780309
 21
113.7158743844014
 31
0.0
  0
LINE
  5
BC69
  8
0
 10
267.89870997956177
 20
123.715874160884
 30
0.0
 11
248.39870957723051
 21
123.715874160884
 31
0.0
  0
LINE
  5
BC6A
  8
0
 10
266.14871015837571
 20
108.2158744142038
 30
0.0
 11
250.14870939841651
 21
108.2158744142038
 31
0.0
  0
LINE
  5
BC6B
  8
0
 10
249.14871016582629
 20
109.2158741124553
 30
0.0
 11
267.14870939096591
 21
109.2158741124553
 31
0.0
  0
LINE
  5
BC6D
  8
0
 10
241.80669011613509
 20
121.3165748671275
 30
0.0
 11
274.49072944065711
 21
121.3165748671275
 31
0.0
  0
LINE
  5
BC6E
  8
1
 10
258.1487097783961
 20
92.115874178020377
 30
0.0
 11
258.1487097783961
 21
129.7158743247968
 31
0.0
  0
LINE
  5
BC6F
  8
1
 10
254.14870977839601
 20
102.11587438440149
 30
0.0
 11
262.14870977839598
 21
102.11587438440149
 31
0.0
  0
LINE
  5
BC71
  8
0
 10
273.02306541647698
 20
108.2158744142038
 30
0.0
 11
273.02306541647698
 21
111.2158739746195
 31
0.0
  0
LINE
  5
BC72
  8
0
 10
267.52306544627942
 20
111.2158739746195
 30
0.0
 11
267.52306544627942
 21
108.2158744142038
 31
0.0
  0
LINE
  5
BC73
  8
0
 10
271.77306567724742
 20
111.2158739746195
 30
0.0
 11
271.77306567724742
 21
113.7158743844014
 31
0.0
  0
LINE
  5
BC74
  8
0
 10
268.77306611683161
 20
113.7158743844014
 30
0.0
 11
268.77306611683161
 21
111.2158739746195
 31
0.0
  0
LINE
  5
BC75
  8
0
 10
273.02306541647698
 20
108.2158744142038
 30
0.0
 11
267.52306544627942
 21
108.2158744142038
 31
0.0
  0
LINE
  5
BC76
  8
0
 10
273.02306541647698
 20
111.2158739746195
 30
0.0
 11
267.52306544627942
 21
111.2158739746195
 31
0.0
  0
LINE
  5
BC77
  8
1
 10
270.2730654313782
 20
106.2158744142038
 30
0.0
 11
270.2730654313782
 21
115.7158743844014
 31
0.0
  0
LINE
  5
BC78
  8
0
 10
248.77435411051269
 20
108.2158744142038
 30
0.0
 11
248.77435411051269
 21
111.2158739746195
 31
0.0
  0
LINE
  5
BC79
  8
0
 10
243.2743541403151
 20
111.2158739746195
 30
0.0
 11
243.2743541403151
 21
108.2158744142038
 31
0.0
  0
LINE
  5
BC7A
  8
0
 10
247.5243543712831
 20
111.2158739746195
 30
0.0
 11
247.5243543712831
 21
113.7158743844014
 31
0.0
  0
LINE
  5
BC7B
  8
0
 10
244.52435481086729
 20
113.7158743844014
 30
0.0
 11
244.52435481086729
 21
111.2158739746195
 31
0.0
  0
LINE
  5
BC7C
  8
0
 10
248.77435411051269
 20
108.2158744142038
 30
0.0
 11
243.2743541403151
 21
108.2158744142038
 31
0.0
  0
LINE
  5
BC7D
  8
0
 10
248.77435411051269
 20
111.2158739746195
 30
0.0
 11
243.2743541403151
 21
111.2158739746195
 31
0.0
  0
LINE
  5
BC7E
  8
1
 10
246.02435412541391
 20
106.2158744142038
 30
0.0
 11
246.02435412541391
 21
115.7158743844014
 31
0.0
  0
LINE
  5
BC8F
  8
3
 10
271.50256543137891
 20
112.7158739746195
 30
0.0
 11
271.50256543137891
 21
113.7158743844014
 31
0.0
  0
LINE
  5
BC90
  8
3
 10
271.50256543137891
 20
112.7158739746195
 30
0.0
 11
271.7730654313782
 21
112.2473542311734
 31
0.0
  0
LINE
  5
BC91
  8
3
 10
269.04356543137749
 20
112.7158739746195
 30
0.0
 11
268.7730654313782
 21
112.2473542311734
 31
0.0
  0
LINE
  5
BC92
  8
3
 10
269.04356543137749
 20
112.7158739746195
 30
0.0
 11
269.04356543137749
 21
113.7158743844014
 31
0.0
  0
LINE
  5
BC93
  8
0
 10
268.7730654313782
 20
112.7158739746195
 30
0.0
 11
271.7730654313782
 21
112.7158739746195
 31
0.0
  0
LINE
  5
BC94
  8
3
 10
247.25385412541459
 20
112.7158739746195
 30
0.0
 11
247.25385412541459
 21
113.7158743844014
 31
0.0
  0
LINE
  5
BC95
  8
3
 10
247.25385412541459
 20
112.7158739746195
 30
0.0
 11
247.52435412541391
 21
112.2473542311734
 31
0.0
  0
LINE
  5
BC96
  8
3
 10
244.79485412541311
 20
112.7158739746195
 30
0.0
 11
244.52435412541391
 21
112.2473542311734
 31
0.0
  0
LINE
  5
BC97
  8
3
 10
244.79485412541311
 20
112.7158739746195
 30
0.0
 11
244.79485412541311
 21
113.7158743844014
 31
0.0
  0
LINE
  5
BC98
  8
0
 10
244.52435412541391
 20
112.7158739746195
 30
0.0
 11
247.52435412541391
 21
112.7158739746195
 31
0.0
  0
POLYLINE
  5
BCA3
  8
0
 66
     1
 10
0.0
 20
0.0
 30
0.0
 70
   128
  0
VERTEX
  5
DB2E
  8
0
 10
258.52565202578108
 20
122.44093080913839
 30
0.0
  0
VERTEX
  5
DB2F
  8
0
 10
258.4983471612926
 20
122.59685469722569
 30
0.0
  0
VERTEX
  5
DB30
  8
0
 10
258.53186639207559
 20
122.7136909768564
 30
0.0
  0
VERTEX
  5
DB31
  8
0
 10
258.62871913770351
 20
122.8292327181083
 30
0.0
  0
VERTEX
  5
DB32
  8
0
 10
258.8146910427152
 20
122.9443236992341
 30
0.0
  0
SEQEND
  5
DB33
  8
0
  0
ARC
  5
BCA4
  8
0
 10
259.34475952931189
 20
122.90070298803749
 30
0.0
 40
0.939322925744881
 50
209.30587712461019
 51
261.21674290110201
  0
ARC
  5
BCA5
  8
0
 10
260.23674212745931
 20
125.6857104694225
 30
0.0
 40
3.8549697037006578
 50
254.41949376217059
 51
270.74570623972812
  0
ARC
  5
BCA6
  8
0
 10
260.3965477138413
 20
124.42251581919589
 30
0.0
 40
2.5937666339633871
 50
267.57747527073809
 51
289.21345872663522
  0
POLYLINE
  5
BCA7
  8
0
 66
     1
 10
0.0
 20
0.0
 30
0.0
 70
   128
  0
VERTEX
  5
DB34
  8
0
 10
261.5384147509015
 20
122.44224211132349
 30
0.0
  0
VERTEX
  5
DB35
  8
0
 10
261.56650134427611
 20
122.2898814634067
 30
0.0
  0
VERTEX
  5
DB36
  8
0
 10
261.53147267243031
 20
122.1775769994241
 30
0.0
  0
VERTEX
  5
DB37
  8
0
 10
261.43175060926148
 20
122.0703501061183
 30
0.0
  0
VERTEX
  5
DB38
  8
0
 10
261.25012640906641
 20
121.9732243374568
 30
0.0
  0
SEQEND
  5
DB39
  8
0
  0
ARC
  5
BCA8
  8
0
 10
260.62887837963751
 20
121.9263374297707
 30
0.0
 40
1.0456644065379319
 50
29.562653283901849
 51
77.034399504633186
  0
ARC
  5
BCA9
  8
0
 10
259.80979782058301
 20
119.78557080779331
 30
0.0
 40
3.3308294225976618
 50
71.557954659538453
 51
90.561545450140073
  0
ARC
  5
BCAA
  8
0
 10
259.69206185406682
 20
120.8125230950769
 30
0.0
 40
2.3052881287371951
 50
87.884646383264567
 51
112.3702657172918
  0
LINE
  5
BCAB
  8
0
 10
270.40476026078841
 20
122.51119164681261
 30
0.0
 11
270.8101659088411
 21
122.51959590172591
 31
0.0
  0
LINE
  5
BCAC
  8
0
 10
270.78839438101431
 20
122.3661754087192
 30
0.0
 11
270.40476026078841
 21
122.51119164681261
 31
0.0
  0
LINE
  5
BCAD
  8
0
 10
271.19380002906701
 20
122.37434683298891
 30
0.0
 11
270.78839438101431
 21
122.3661754087192
 31
0.0
  0
LINE
  5
BCAE
  8
0
 10
272.27412955900809
 20
121.9654012278301
 30
0.0
 11
271.19380002906701
 21
122.37434683298891
 31
0.0
  0
LINE
  5
BCAF
  8
0
 10
271.75611211052319
 20
121.94630352711501
 30
0.0
 11
272.27412955900809
 21
121.9654012278301
 31
0.0
  0
LINE
  5
BCB0
  8
0
 10
272.13974529942652
 20
121.80151825702011
 30
0.0
 11
271.75611211052319
 21
121.94630352711501
 31
0.0
  0
LINE
  5
BCB1
  8
0
 10
272.79665274610898
 20
121.8105502233487
 30
0.0
 11
272.13974529942652
 21
121.80151825702011
 31
0.0
  0
LINE
  5
BCB2
  8
0
 10
269.45881499042889
 20
123.0711400315744
 30
0.0
 11
272.79665274610898
 21
121.8105502233487
 31
0.0
  0
LINE
  5
BCB3
  8
0
 10
269.31992592355391
 20
123.0835564241391
 30
0.0
 11
269.45881499042889
 21
123.0711400315744
 31
0.0
  0
LINE
  5
BCB4
  8
0
 10
270.8101659088411
 20
122.51959590172591
 30
0.0
 11
269.31992592355391
 21
123.0835564241391
 31
0.0
  0
LINE
  5
BCB5
  8
0
 10
255.54525852268699
 20
123.0903308645469
 30
0.0
 11
256.71793113062301
 21
122.09231628036321
 31
0.0
  0
LINE
  5
BCB6
  8
0
 10
255.04300626991471
 20
123.07323737001239
 30
0.0
 11
255.54525852268699
 21
123.0903308645469
 31
0.0
  0
LINE
  5
BCB7
  8
0
 10
254.49270592136449
 20
121.8135099664909
 30
0.0
 11
255.04300626991471
 21
123.07323737001239
 31
0.0
  0
LINE
  5
BCB8
  8
0
 10
254.9724357674844
 20
121.8259859637004
 30
0.0
 11
254.49270592136449
 21
121.8135099664909
 31
0.0
  0
LINE
  5
BCB9
  8
0
 10
255.4071203346378
 20
122.82369879936989
 30
0.0
 11
254.9724357674844
 21
121.8259859637004
 31
0.0
  0
LINE
  5
BCBA
  8
0
 10
256.5617749939687
 20
121.8268818960172
 30
0.0
 11
255.4071203346378
 21
122.82369879936989
 31
0.0
  0
LINE
  5
BCBB
  8
0
 10
257.08129454935113
 20
121.8134522244912
 30
0.0
 11
256.5617749939687
 21
121.8268818960172
 31
0.0
  0
LINE
  5
BCBC
  8
0
 10
257.63159483969349
 20
123.0732094303352
 30
0.0
 11
257.08129454935113
 21
121.8134522244912
 31
0.0
  0
LINE
  5
BCBD
  8
0
 10
257.15186516819659
 20
123.0897851095182
 30
0.0
 11
257.63159483969349
 21
123.0732094303352
 31
0.0
  0
LINE
  5
BCBE
  8
0
 10
256.71793113062301
 20
122.09231628036321
 30
0.0
 11
257.15186516819659
 21
123.0897851095182
 31
0.0
  0
POLYLINE
  5
BCBF
  8
0
 66
     1
 10
0.0
 20
0.0
 30
0.0
 70
   128
  0
VERTEX
  5
DB3A
  8
0
 10
261.60682644760379
 20
123.0789258882982
 30
0.0
  0
VERTEX
  5
DB3B
  8
0
 10
263.83602665802613
 20
122.5737988755685
 30
0.0
  0
VERTEX
  5
DB3C
  8
0
 10
266.0498027696288
 20
121.9870153621417
 30
0.0
  0
SEQEND
  5
DB3D
  8
0
  0
LINE
  5
BCC0
  8
0
 10
266.0498027696288
 20
121.9870153621417
 30
0.0
 11
265.23244846677551
 21
122.53297155654251
 31
0.0
  0
LINE
  5
BCC1
  8
0
 10
265.23244846677551
 20
122.53297155654251
 30
0.0
 11
269.04919790169379
 21
122.53297155654251
 31
0.0
  0
LINE
  5
BCC2
  8
0
 10
269.04919790169379
 20
122.53297155654251
 30
0.0
 11
270.30694624474432
 21
121.9870153621417
 31
0.0
  0
POLYLINE
  5
BCC3
  8
0
 66
     1
 10
0.0
 20
0.0
 30
0.0
 70
   128
  0
VERTEX
  5
DB3E
  8
0
 10
270.30694624474432
 20
121.9870153621417
 30
0.0
  0
VERTEX
  5
DB3F
  8
0
 10
269.71451146593472
 20
122.5731096968633
 30
0.0
  0
VERTEX
  5
DB40
  8
0
 10
269.11645429274222
 20
123.0789258882982
 30
0.0
  0
SEQEND
  5
DB41
  8
0
  0
LINE
  5
BCC4
  8
0
 10
269.11645429274222
 20
123.0789258882982
 30
0.0
 11
261.60682644760379
 21
123.0789258882982
 31
0.0
  0
ARC
  5
BCC5
  8
0
 10
259.65274819336059
 20
122.78196387813151
 30
0.0
 40
0.7217143160373281
 50
206.63716208226279
 51
258.15705948810108
  0
ARC
  5
BCC6
  8
0
 10
259.27401982812108
 20
122.5771915484229
 30
0.0
 40
0.2916760434449025
 50
105.9597126111624
 51
204.0354775507129
  0
ARC
  5
BCC7
  8
0
 10
259.79152559889491
 20
121.4145242189266
 30
0.0
 40
1.5619832531682249
 50
88.489155307625253
 51
112.4984239808103
  0
ARC
  5
BCC8
  8
0
 10
259.84108914197589
 20
120.7257552868209
 30
0.0
 40
2.25022476964824
 50
71.383438741826353
 51
90.213375269927042
  0
ARC
  5
BCC9
  8
0
 10
260.37997274225961
 20
122.12559251134471
 30
0.0
 40
0.7543068630708056
 50
26.25983421190741
 51
76.236325721269253
  0
ARC
  5
BCCA
  8
0
 10
260.80825215107302
 20
122.34306961729931
 30
0.0
 40
0.2740621872458946
 50
283.07380988861883
 51
25.100780083828109
  0
ARC
  5
BCCB
  8
0
 10
260.27654773770257
 20
123.6961942130478
 30
0.0
 40
1.72544115745963
 50
268.4992297863331
 51
290.1259693302955
  0
ARC
  5
BCCC
  8
0
 10
260.2164278123002
 20
124.45200816166231
 30
0.0
 40
2.4807081609700452
 50
253.32557847821221
 51
270.34483240249261
  0
ARC
  5
BCDB
  8
0
 10
425.14871070226792
 20
46.615874178020363
 30
0.0
 40
4.7999999999999989
 50
129.761920747761
 51
245.37568040048191
  0
ARC
  5
BCDC
  8
0
 10
425.14871070226792
 20
46.615874178020363
 30
0.0
 40
4.7999999999999989
 50
294.62431959951721
 51
50.238079252236922
  0
LINE
  5
BCE1
  8
3
 10
412.3782102701349
 20
112.7158739746195
 30
0.0
 11
412.3782102701349
 21
113.7158743844014
 31
0.0
  0
LINE
  5
BCE2
  8
3
 10
412.3782102701349
 20
112.7158739746195
 30
0.0
 11
412.6487102701343
 21
112.2473542311734
 31
0.0
  0
LINE
  5
BCE3
  8
3
 10
409.91921027013348
 20
112.7158739746195
 30
0.0
 11
409.6487102701343
 21
112.2473542311734
 31
0.0
  0
LINE
  5
BCE4
  8
3
 10
409.91921027013348
 20
112.7158739746195
 30
0.0
 11
409.91921027013348
 21
113.7158743844014
 31
0.0
  0
LINE
  5
BCE5
  8
0
 10
409.6487102701343
 20
112.7158739746195
 30
0.0
 11
412.6487102701343
 21
112.7158739746195
 31
0.0
  0
LINE
  5
BCE6
  8
3
 10
433.37821070226858
 20
112.7158739746195
 30
0.0
 11
433.37821070226858
 21
113.7158743844014
 31
0.0
  0
LINE
  5
BCE7
  8
3
 10
433.37821070226858
 20
112.7158739746195
 30
0.0
 11
433.64871070226781
 21
112.2473542311734
 31
0.0
  0
LINE
  5
BCE8
  8
3
 10
430.91921070226709
 20
112.7158739746195
 30
0.0
 11
430.64871070226781
 21
112.2473542311734
 31
0.0
  0
LINE
  5
BCE9
  8
3
 10
430.91921070226709
 20
112.7158739746195
 30
0.0
 11
430.91921070226709
 21
113.7158743844014
 31
0.0
  0
LINE
  5
BCEA
  8
0
 10
430.64871070226781
 20
112.7158739746195
 30
0.0
 11
433.64871070226781
 21
112.7158739746195
 31
0.0
  0
LINE
  5
BCF5
  8
0
 10
499.64871145850208
 20
123.715874160884
 30
0.0
 11
499.64871145850202
 21
123.88587523376761
 31
0.0
  0
LINE
  5
BCF6
  8
0
 10
484.6487117937782
 20
123.88587523376761
 30
0.0
 11
484.64871179377832
 21
123.715874160884
 31
0.0
  0
LINE
  5
BCF7
  8
0
 10
499.64871145850202
 20
123.88587523376761
 30
0.0
 11
499.14871184220692
 21
124.3858743844014
 31
0.0
  0
LINE
  5
BCF8
  8
0
 10
485.1487114100733
 20
124.3858743844014
 30
0.0
 11
484.6487117937782
 21
123.88587523376761
 31
0.0
  0
LINE
  5
BCF9
  8
0
 10
496.14871181612989
 20
103.7858745259624
 30
0.0
 11
496.14871181612989
 21
108.2158744142037
 31
0.0
  0
LINE
  5
BCFA
  8
0
 10
496.14871181612989
 20
99.285874486846893
 30
0.0
 11
496.14871181612989
 21
99.785874452387958
 31
0.0
  0
LINE
  5
BCFB
  8
0
 10
488.14871143615028
 20
99.785874452387958
 30
0.0
 11
488.14871143615028
 21
99.285874486846893
 31
0.0
  0
LINE
  5
BCFC
  8
0
 10
488.14871143615028
 20
108.2158744142037
 30
0.0
 11
488.14871143615028
 21
103.7858745259624
 31
0.0
  0
LINE
  5
BCFD
  8
0
 10
488.14871143615028
 20
99.285874486846893
 30
0.0
 11
489.59208726948282
 21
96.785874309895604
 31
0.0
  0
LINE
  5
BCFE
  8
0
 10
494.70533598279741
 20
96.785874309895604
 30
0.0
 11
496.14871181612989
 21
99.285874486846893
 31
0.0
  0
LINE
  5
BCFF
  8
0
 10
485.44871183177622
 20
99.785874452387958
 30
0.0
 11
488.14871143615028
 21
99.785874452387958
 31
0.0
  0
LINE
  5
BD00
  8
0
 10
496.14871181612989
 20
99.785874452387958
 30
0.0
 11
498.84871142050412
 21
99.785874452387958
 31
0.0
  0
LINE
  5
BD01
  8
0
 10
498.84871142050412
 20
103.7858745259624
 30
0.0
 11
496.14871181612989
 21
103.7858745259624
 31
0.0
  0
LINE
  5
BD02
  8
0
 10
488.14871143615028
 20
103.7858745259624
 30
0.0
 11
485.44871183177622
 21
103.7858745259624
 31
0.0
  0
LINE
  5
BD03
  8
0
 10
498.84871142050412
 20
99.785874452387958
 30
0.0
 11
499.14871184220692
 21
100.0858744084295
 31
0.0
  0
LINE
  5
BD04
  8
0
 10
499.14871184220692
 20
103.48587433709019
 30
0.0
 11
498.84871142050412
 21
103.7858745259624
 31
0.0
  0
LINE
  5
BD05
  8
0
 10
485.44871183177622
 20
103.7858745259624
 30
0.0
 11
485.1487114100733
 21
103.48587433709019
 31
0.0
  0
LINE
  5
BD06
  8
0
 10
485.1487114100733
 20
100.0858744084295
 30
0.0
 11
485.44871183177622
 21
99.785874452387958
 31
0.0
  0
LINE
  5
BD07
  8
0
 10
509.14871255001208
 20
114.2158744663578
 30
0.0
 11
509.14871255001208
 21
120.3768834278565
 31
0.0
  0
LINE
  5
BD08
  8
0
 10
475.1487107022682
 20
120.3768834278565
 30
0.0
 11
475.1487107022682
 21
114.2158744663578
 31
0.0
  0
ARC
  5
BD09
  8
0
 10
476.1487116261402
 20
120.3768825434537
 30
0.0
 40
1.00000000000001
 50
110.0
 51
180.0
  0
ARC
  5
BD0A
  8
0
 10
508.1487116261402
 20
120.3768825434537
 30
0.0
 40
1.000000000000014
 50
0.0
 51
70.000000000003425
  0
LINE
  5
BD0B
  8
0
 10
475.1487107022682
 20
114.2158744663578
 30
0.0
 11
475.64871171554711
 21
113.7158743844014
 31
0.0
  0
LINE
  5
BD0C
  8
0
 10
508.64871153673312
 20
113.7158743844014
 30
0.0
 11
509.14871255001208
 21
114.2158744663578
 31
0.0
  0
LINE
  5
BD0D
  8
0
 10
508.49073128840109
 20
121.3165748671275
 30
0.0
 11
501.89871182730582
 21
123.715874160884
 31
0.0
  0
LINE
  5
BD0E
  8
0
 10
482.39871142497452
 20
123.715874160884
 30
0.0
 11
475.80669196387919
 21
121.3165748671275
 31
0.0
  0
ARC
  5
BD0F
  8
0
 10
501.54871162614012
 20
113.3158742800933
 30
0.0
 40
0.4000000000000057
 50
90.0
 51
180.0
  0
ARC
  5
BD10
  8
0
 10
482.74871162614011
 20
113.3158742800933
 30
0.0
 40
0.4000000000000057
 50
0.0
 51
90.0
  0
LINE
  5
BD11
  8
0
 10
483.14871201357039
 20
109.2158741124552
 30
0.0
 11
484.14871124616059
 21
108.2158744142037
 31
0.0
  0
LINE
  5
BD12
  8
0
 10
501.14871123870989
 20
109.2158741124554
 30
0.0
 11
501.14871123870989
 21
113.31587413257181
 31
0.0
  0
LINE
  5
BD13
  8
0
 10
483.14871201357039
 20
113.31587413257181
 30
0.0
 11
483.14871201357039
 21
109.2158741124552
 31
0.0
  0
LINE
  5
BD15
  8
0
 10
485.1487114100733
 20
124.3858743844014
 30
0.0
 11
499.14871184220681
 21
124.3858743844014
 31
0.0
  0
LINE
  5
BD16
  8
0
 10
488.14871143615028
 20
99.285874486846893
 30
0.0
 11
496.14871181612989
 21
99.285874486846893
 31
0.0
  0
POLYLINE
  5
BD17
  8
0
 66
     1
 10
0.0
 20
0.0
 30
0.0
 70
   128
  0
VERTEX
  5
DB42
  8
0
 10
496.1454386829414
 20
103.7793173165452
 30
0.0
  0
VERTEX
  5
DB43
  8
0
 10
496.14696838027021
 20
103.7823853259366
 30
0.0
  0
VERTEX
  5
DB44
  8
0
 10
496.12707579573771
 20
103.7422436931562
 30
0.0
  0
VERTEX
  5
DB45
  8
0
 10
496.08528921445992
 20
103.6558053166997
 30
0.0
  0
VERTEX
  5
DB46
  8
0
 10
496.02652881359842
 20
103.52870749211129
 30
0.0
  0
VERTEX
  5
DB47
  8
0
 10
495.95354129625639
 20
103.35963705456069
 30
0.0
  0
VERTEX
  5
DB48
  8
0
 10
495.86813761918029
 20
103.14017519721951
 30
0.0
  0
VERTEX
  5
DB49
  8
0
 10
495.78097350960752
 20
102.87826947769339
 30
0.0
  0
VERTEX
  5
DB4A
  8
0
 10
495.70133239096191
 20
102.57398217817961
 30
0.0
  0
VERTEX
  5
DB4B
  8
0
 10
495.64123181691548
 20
102.2305063381251
 30
0.0
  0
VERTEX
  5
DB4C
  8
0
 10
495.61501788040778
 20
101.909481192885
 30
0.0
  0
VERTEX
  5
DB4D
  8
0
 10
495.61939183687952
 20
101.57228483894561
 30
0.0
  0
VERTEX
  5
DB4E
  8
0
 10
495.64851615643278
 20
101.28724403348011
 30
0.0
  0
VERTEX
  5
DB4F
  8
0
 10
495.69905600575879
 20
101.008092460867
 30
0.0
  0
VERTEX
  5
DB50
  8
0
 10
495.76636129124239
 20
100.7430952451583
 30
0.0
  0
VERTEX
  5
DB51
  8
0
 10
495.84457050142959
 20
100.4977078702692
 30
0.0
  0
VERTEX
  5
DB52
  8
0
 10
495.93294160505911
 20
100.2625899565797
 30
0.0
  0
VERTEX
  5
DB53
  8
0
 10
496.01721954597309
 20
100.0638543338906
 30
0.0
  0
VERTEX
  5
DB54
  8
0
 10
496.08574882215038
 20
99.914975901080339
 30
0.0
  0
VERTEX
  5
DB55
  8
0
 10
496.13248212328341
 20
99.818534421680539
 30
0.0
  0
VERTEX
  5
DB56
  8
0
 10
496.14847758850237
 20
99.786342209151059
 30
0.0
  0
VERTEX
  5
DB57
  8
0
 10
496.14716861462381
 20
99.788970983533233
 30
0.0
  0
SEQEND
  5
DB58
  8
0
  0
POLYLINE
  5
BD18
  8
0
 66
     1
 10
0.0
 20
0.0
 30
0.0
 70
   128
  0
VERTEX
  5
DB59
  8
0
 10
488.15198456933882
 20
99.792431428974538
 30
0.0
  0
VERTEX
  5
DB5A
  8
0
 10
488.15045487201002
 20
99.789363535998433
 30
0.0
  0
VERTEX
  5
DB5B
  8
0
 10
488.17034745654252
 20
99.829505052363544
 30
0.0
  0
VERTEX
  5
DB5C
  8
0
 10
488.21213403782031
 20
99.915943545235365
 30
0.0
  0
VERTEX
  5
DB5D
  8
0
 10
488.27089443868181
 20
100.0430414862391
 30
0.0
  0
VERTEX
  5
DB5E
  8
0
 10
488.34388195602378
 20
100.21211169095901
 30
0.0
  0
VERTEX
  5
DB5F
  8
0
 10
488.42928563309988
 20
100.4315736647155
 30
0.0
  0
VERTEX
  5
DB60
  8
0
 10
488.51644974267259
 20
100.69347932603399
 30
0.0
  0
VERTEX
  5
DB61
  8
0
 10
488.59609086131832
 20
100.9977666546516
 30
0.0
  0
VERTEX
  5
DB62
  8
0
 10
488.65619143536469
 20
101.341242509258
 30
0.0
  0
VERTEX
  5
DB63
  8
0
 10
488.68240537187239
 20
101.66226761084241
 30
0.0
  0
VERTEX
  5
DB64
  8
0
 10
488.67803141540071
 20
101.9994640084375
 30
0.0
  0
VERTEX
  5
DB65
  8
0
 10
488.64890709584728
 20
102.2845047702473
 30
0.0
  0
VERTEX
  5
DB66
  8
0
 10
488.59836724652132
 20
102.5636563719642
 30
0.0
  0
VERTEX
  5
DB67
  8
0
 10
488.53106196103772
 20
102.82865361677671
 30
0.0
  0
VERTEX
  5
DB68
  8
0
 10
488.45285275085052
 20
103.07404093345809
 30
0.0
  0
VERTEX
  5
DB69
  8
0
 10
488.36448164722111
 20
103.3091589053553
 30
0.0
  0
VERTEX
  5
DB6A
  8
0
 10
488.28020370630702
 20
103.5078945280444
 30
0.0
  0
VERTEX
  5
DB6B
  8
0
 10
488.21167443012968
 20
103.6567729608547
 30
0.0
  0
VERTEX
  5
DB6C
  8
0
 10
488.16494112899682
 20
103.7532144402545
 30
0.0
  0
VERTEX
  5
DB6D
  8
0
 10
488.14894566377779
 20
103.7854067691993
 30
0.0
  0
VERTEX
  5
DB6E
  8
0
 10
488.15025463765642
 20
103.7827778784018
 30
0.0
  0
SEQEND
  5
DB6F
  8
0
  0
LINE
  5
BD19
  8
0
 10
494.70533598279741
 20
96.785874309895604
 30
0.0
 11
489.59208726948282
 21
96.785874309895604
 31
0.0
  0
LINE
  5
BD1A
  8
0
 10
498.84871142050412
 20
99.785874452387958
 30
0.0
 11
498.84871142050412
 21
103.7858745259624
 31
0.0
  0
LINE
  5
BD1B
  8
0
 10
485.44871183177622
 20
103.7858745259624
 30
0.0
 11
485.44871183177622
 21
99.785874452387958
 31
0.0
  0
LINE
  5
BD1C
  8
0
 10
499.14871184220692
 20
103.48587433709019
 30
0.0
 11
499.14871184220692
 21
100.0858744084295
 31
0.0
  0
LINE
  5
BD1D
  8
0
 10
485.1487114100733
 20
100.0858744084295
 30
0.0
 11
485.1487114100733
 21
103.48587433709019
 31
0.0
  0
LINE
  5
BD1E
  8
0
 10
508.64871153673312
 20
113.7158743844014
 30
0.0
 11
475.64871171554711
 21
113.7158743844014
 31
0.0
  0
LINE
  5
BD1F
  8
0
 10
501.89871182730582
 20
123.715874160884
 30
0.0
 11
482.39871142497452
 21
123.715874160884
 31
0.0
  0
LINE
  5
BD20
  8
0
 10
500.14871200611952
 20
108.2158744142037
 30
0.0
 11
484.14871124616059
 21
108.2158744142037
 31
0.0
  0
LINE
  5
BD21
  8
0
 10
483.14871201357039
 20
109.2158741124552
 30
0.0
 11
501.14871123870972
 21
109.2158741124553
 31
0.0
  0
LINE
  5
BD22
  8
0
 10
475.80669196387919
 20
121.3165748671275
 30
0.0
 11
508.49073128840121
 21
121.3165748671275
 31
0.0
  0
LINE
  5
BD23
  8
1
 10
492.14871162614008
 20
91.785874309895604
 30
0.0
 11
492.14871162614008
 21
129.3858743844014
 31
0.0
  0
LINE
  5
BD24
  8
1
 10
483.14871141007342
 20
101.78587451627671
 30
0.0
 11
501.14871184220698
 21
101.78587451627671
 31
0.0
  0
POLYLINE
  5
BD25
  8
0
 66
     1
 10
0.0
 20
0.0
 30
0.0
 70
   128
  0
VERTEX
  5
DB70
  8
0
 10
492.52565387382703
 20
122.44093140742621
 30
0.0
  0
VERTEX
  5
DB71
  8
0
 10
492.49834901587269
 20
122.5968553872468
 30
0.0
  0
VERTEX
  5
DB72
  8
0
 10
492.53186824822052
 20
122.7136915930644
 30
0.0
  0
VERTEX
  5
DB73
  8
0
 10
492.62872099344332
 20
122.829232345363
 30
0.0
  0
VERTEX
  5
DB74
  8
0
 10
492.81469291286612
 20
122.9443241369606
 30
0.0
  0
SEQEND
  5
DB75
  8
0
  0
ARC
  5
BD26
  8
0
 10
493.34476340115879
 20
122.90070353432741
 30
0.0
 40
0.9393246650871102
 50
209.30581393579669
 51
261.21663516993237
  0
ARC
  5
BD27
  8
0
 10
494.23674000369078
 20
125.685719948127
 30
0.0
 40
3.8549786336689631
 50
254.41959225162961
 51
270.7457640403486
  0
ARC
  5
BD28
  8
0
 10
494.39655938767191
 20
124.4224569260009
 30
0.0
 40
2.5937076077842698
 50
267.57720358877413
 51
289.21368541375728
  0
POLYLINE
  5
BD29
  8
0
 66
     1
 10
0.0
 20
0.0
 30
0.0
 70
   128
  0
VERTEX
  5
DB76
  8
0
 10
495.53841663658977
 20
122.4422419896048
 30
0.0
  0
VERTEX
  5
DB77
  8
0
 10
495.56650330260049
 20
122.289880967999
 30
0.0
  0
VERTEX
  5
DB78
  8
0
 10
495.53147459661608
 20
122.1775769306437
 30
0.0
  0
VERTEX
  5
DB79
  8
0
 10
495.43175238318599
 20
122.0703506750892
 30
0.0
  0
VERTEX
  5
DB7A
  8
0
 10
495.25012834830142
 20
121.97322455970171
 30
0.0
  0
SEQEND
  5
DB7B
  8
0
  0
ARC
  5
BD2A
  8
0
 10
494.62887913955888
 20
121.92633602389679
 30
0.0
 40
1.0456660193188889
 50
29.562684053481249
 51
77.034362833354024
  0
ARC
  5
BD2B
  8
0
 10
493.8097961181191
 20
119.7855409140474
 30
0.0
 40
3.330858895710981
 50
71.558060685935047
 51
90.561478823974639
  0
ARC
  5
BD2C
  8
0
 10
493.69206546196352
 20
120.8125027973058
 30
0.0
 40
2.305307965135567
 50
87.884707523599744
 51
112.37010951670079
  0
LINE
  5
BD2D
  8
0
 10
504.40476248627198
 20
122.5111919287728
 30
0.0
 11
504.81016789167751
 21
122.5195955551408
 31
0.0
  0
LINE
  5
BD2E
  8
0
 10
504.7883961199056
 20
122.3661751398248
 30
0.0
 11
504.40476248627198
 21
122.5111919287728
 31
0.0
  0
LINE
  5
BD2F
  8
0
 10
505.19380152531107
 20
122.3743465961672
 30
0.0
 11
504.7883961199056
 21
122.3661751398248
 31
0.0
  0
LINE
  5
BD30
  8
0
 10
506.27413185564137
 20
121.96540066651291
 30
0.0
 11
505.19380152531107
 21
122.3743465961672
 31
0.0
  0
LINE
  5
BD31
  8
0
 10
505.75611383762339
 20
121.9463026533507
 30
0.0
 11
506.27413185564137
 21
121.96540066651291
 31
0.0
  0
LINE
  5
BD32
  8
0
 10
506.13974747125701
 20
121.8015188426494
 30
0.0
 11
505.75611383762339
 21
121.9463026533507
 31
0.0
  0
LINE
  5
BD33
  8
0
 10
506.79665437816391
 20
121.81055079751781
 30
0.0
 11
506.13974747125701
 21
121.8015188426494
 31
0.0
  0
LINE
  5
BD34
  8
0
 10
503.45881654032621
 20
123.07113928599399
 30
0.0
 11
506.79665437816391
 21
121.81055079751781
 31
0.0
  0
LINE
  5
BD35
  8
0
 10
503.31992765143718
 20
123.08355601087909
 30
0.0
 11
503.45881654032621
 21
123.07113928599399
 31
0.0
  0
LINE
  5
BD36
  8
0
 10
504.81016789167751
 20
122.5195955551408
 30
0.0
 11
503.31992765143718
 21
123.08355601087909
 31
0.0
  0
LINE
  5
BD37
  8
0
 10
505.14644048210022
 20
122.507225264289
 30
0.0
 11
505.19690964892231
 21
122.5154281138454
 31
0.0
  0
LINE
  5
BD38
  8
0
 10
505.53007411573378
 20
122.36787321237929
 30
0.0
 11
505.14644048210022
 21
122.507225264289
 31
0.0
  0
LINE
  5
BD39
  8
0
 10
505.58049121829362
 20
122.37581581538031
 30
0.0
 11
505.53007411573378
 21
122.36787321237929
 31
0.0
  0
LINE
  5
BD3A
  8
0
 10
506.65244648810608
 20
121.94345887541451
 30
0.0
 11
506.7170249901427
 21
121.96215127870489
 31
0.0
  0
LINE
  5
BD3B
  8
0
 10
507.03608012173987
 20
121.80430204994801
 30
0.0
 11
506.65244648810608
 21
121.94345887541451
 31
0.0
  0
LINE
  5
BD3C
  8
0
 10
507.1241620932247
 20
121.8139654655939
 30
0.0
 11
507.03608012173987
 21
121.80430204994801
 31
0.0
  0
LINE
  5
BD3D
  8
0
 10
489.5452603536703
 20
123.0903311895641
 30
0.0
 11
490.71793302634302
 21
122.092316376046
 31
0.0
  0
LINE
  5
BD3E
  8
0
 10
489.04300810141808
 20
123.07323778538129
 30
0.0
 11
489.5452603536703
 21
123.0903311895641
 31
0.0
  0
LINE
  5
BD3F
  8
0
 10
488.49270780111777
 20
121.81350929909669
 30
0.0
 11
489.04300810141808
 21
123.07323778538129
 31
0.0
  0
LINE
  5
BD40
  8
0
 10
488.9724375308474
 20
121.82598492406891
 30
0.0
 11
488.49270780111777
 21
121.81350929909669
 31
0.0
  0
LINE
  5
BD41
  8
0
 10
489.40712221553213
 20
122.82369882166221
 30
0.0
 11
488.9724375308474
 21
121.82598492406891
 31
0.0
  0
LINE
  5
BD42
  8
0
 10
490.5617768701868
 20
121.8268810481444
 30
0.0
 11
489.40712221553213
 21
122.82369882166221
 31
0.0
  0
LINE
  5
BD43
  8
0
 10
491.08129638970632
 20
121.813451347631
 30
0.0
 11
490.5617768701868
 21
121.8268810481444
 31
0.0
  0
LINE
  5
BD44
  8
0
 10
491.63159669000657
 20
123.0732085729926
 30
0.0
 11
491.08129638970632
 21
121.813451347631
 31
0.0
  0
LINE
  5
BD45
  8
0
 10
491.15186696027689
 20
123.0897855805586
 30
0.0
 11
491.63159669000657
 21
123.0732085729926
 31
0.0
  0
LINE
  5
BD46
  8
0
 10
490.71793302634302
 20
122.092316376046
 30
0.0
 11
491.15186696027689
 21
123.0897855805586
 31
0.0
  0
POLYLINE
  5
BD47
  8
0
 66
     1
 10
0.0
 20
0.0
 30
0.0
 70
   128
  0
VERTEX
  5
DB7C
  8
0
 10
495.60682832043938
 20
123.0789262509182
 30
0.0
  0
VERTEX
  5
DB7D
  8
0
 10
497.83602873322752
 20
122.5737979199193
 30
0.0
  0
VERTEX
  5
DB7E
  8
0
 10
500.04980490326062
 20
121.9870155481196
 30
0.0
  0
SEQEND
  5
DB7F
  8
0
  0
LINE
  5
BD48
  8
0
 10
500.04980490326062
 20
121.9870155481196
 30
0.0
 11
499.2324504263172
 21
122.5329708995189
 31
0.0
  0
LINE
  5
BD49
  8
0
 10
499.2324504263172
 20
122.5329708995189
 30
0.0
 11
503.04919990010609
 21
122.5329708995189
 31
0.0
  0
LINE
  5
BD4A
  8
0
 10
503.04919990010609
 20
122.5329708995189
 30
0.0
 11
504.30694854710208
 21
121.9870155481196
 31
0.0
  0
POLYLINE
  5
BD4B
  8
0
 66
     1
 10
0.0
 20
0.0
 30
0.0
 70
   128
  0
VERTEX
  5
DB80
  8
0
 10
504.30694854710208
 20
121.9870155481196
 30
0.0
  0
VERTEX
  5
DB81
  8
0
 10
503.71451323598421
 20
122.57310866570251
 30
0.0
  0
VERTEX
  5
DB82
  8
0
 10
503.1164565597449
 20
123.0789262509182
 30
0.0
  0
SEQEND
  5
DB83
  8
0
  0
LINE
  5
BD4C
  8
0
 10
503.1164565597449
 20
123.0789262509182
 30
0.0
 11
495.60682832043938
 21
123.0789262509182
 31
0.0
  0
ARC
  5
BD4D
  8
0
 10
493.65275496407543
 20
122.78196943599541
 30
0.0
 40
0.7217216427484665
 50
206.63744903461529
 51
258.15677881815782
  0
ARC
  5
BD4E
  8
0
 10
493.27402217968893
 20
122.5771912942342
 30
0.0
 40
0.2916767952812367
 50
105.9597706092035
 51
204.0355630477649
  0
ARC
  5
BD4F
  8
0
 10
493.79152856315301
 20
121.41450081108221
 30
0.0
 40
1.5620056596397649
 50
88.489218463732101
 51
112.4981273732563
  0
ARC
  5
BD50
  8
0
 10
493.84109187643622
 20
120.72574646502871
 30
0.0
 40
2.2502326309729992
 50
71.383527086373974
 51
90.213397455910766
  0
ARC
  5
BD51
  8
0
 10
494.37997772727158
 20
122.12559647646459
 30
0.0
 40
0.7543020345514755
 50
26.259616892884811
 51
76.236472765762556
  0
ARC
  5
BD52
  8
0
 10
494.80825260378299
 20
122.3430697367876
 30
0.0
 40
0.2740631532323352
 50
283.07404902888533
 51
25.100487755295791
  0
ARC
  5
BD53
  8
0
 10
494.27654725537559
 20
123.6962063340752
 30
0.0
 40
1.7254538470130809
 50
268.49931705678358
 51
290.12589511505462
  0
ARC
  5
BD54
  8
0
 10
494.21643884113757
 20
124.45207759962101
 30
0.0
 40
2.4807781752141418
 50
253.32584048835869
 51
270.34460980838531
  0
LINE
  5
BD55
  8
0
 10
501.14871123870978
 20
109.2158741124552
 30
0.0
 11
500.14871200611958
 21
108.2158744142037
 31
0.0
  0
LINE
  5
BD56
  8
0
 10
507.02306726422108
 20
108.2158744142037
 30
0.0
 11
507.02306726422108
 21
111.2158739746195
 31
0.0
  0
LINE
  5
BD57
  8
0
 10
501.52306729402341
 20
111.2158739746195
 30
0.0
 11
501.52306729402341
 21
108.2158744142037
 31
0.0
  0
LINE
  5
BD58
  8
0
 10
505.7730675249914
 20
111.2158739746195
 30
0.0
 11
505.7730675249914
 21
113.7158743844014
 31
0.0
  0
LINE
  5
BD59
  8
0
 10
502.77306796457572
 20
113.7158743844014
 30
0.0
 11
502.77306796457572
 21
111.2158739746195
 31
0.0
  0
LINE
  5
BD5A
  8
0
 10
507.02306726422108
 20
108.2158744142037
 30
0.0
 11
501.52306729402341
 21
108.2158744142037
 31
0.0
  0
LINE
  5
BD5B
  8
0
 10
507.02306726422108
 20
111.2158739746195
 30
0.0
 11
501.52306729402341
 21
111.2158739746195
 31
0.0
  0
LINE
  5
BD5C
  8
1
 10
504.2730672791223
 20
106.2158744142037
 30
0.0
 11
504.2730672791223
 21
115.7158743844014
 31
0.0
  0
LINE
  5
BD5D
  8
0
 10
482.77435595825699
 20
108.2158744142037
 30
0.0
 11
482.77435595825699
 21
111.2158739746195
 31
0.0
  0
LINE
  5
BD5E
  8
0
 10
477.27435598805931
 20
111.2158739746195
 30
0.0
 11
477.27435598805931
 21
108.2158744142037
 31
0.0
  0
LINE
  5
BD5F
  8
0
 10
481.52435621902731
 20
111.2158739746195
 30
0.0
 11
481.52435621902731
 21
113.7158743844014
 31
0.0
  0
LINE
  5
BD60
  8
0
 10
478.52435665861162
 20
113.7158743844014
 30
0.0
 11
478.52435665861162
 21
111.2158739746195
 31
0.0
  0
LINE
  5
BD61
  8
0
 10
482.77435595825699
 20
108.2158744142037
 30
0.0
 11
477.27435598805931
 21
108.2158744142037
 31
0.0
  0
LINE
  5
BD62
  8
0
 10
482.77435595825699
 20
111.2158739746195
 30
0.0
 11
477.27435598805931
 21
111.2158739746195
 31
0.0
  0
LINE
  5
BD63
  8
1
 10
480.02435597315821
 20
106.2158744142037
 30
0.0
 11
480.02435597315821
 21
115.7158743844014
 31
0.0
  0
ARC
  5
BD64
  8
0
 10
358.40863135925298
 20
86.930872342639475
 30
0.0
 40
37.954250618114003
 50
108.3987716249807
 51
110.6717560772256
  0
ARC
  5
BD65
  8
0
 10
351.65793014072631
 20
103.9831806005995
 30
0.0
 40
19.618950278389899
 50
109.8061640026033
 51
113.5224929224955
  0
POLYLINE
  5
BD66
  8
0
 66
     1
 10
0.0
 20
0.0
 30
0.0
 70
   128
  0
VERTEX
  5
DB84
  8
0
 10
343.66716880265858
 20
121.8304664281418
 30
0.0
  0
VERTEX
  5
DB85
  8
0
 10
343.62169040593369
 20
121.838658521798
 30
0.0
  0
VERTEX
  5
DB86
  8
0
 10
343.66492684870059
 20
121.88789522446091
 30
0.0
  0
VERTEX
  5
DB87
  8
0
 10
343.82782946331929
 20
121.97186408237791
 30
0.0
  0
SEQEND
  5
DB88
  8
0
  0
ARC
  5
BD67
  8
0
 10
343.25342944821813
 20
125.4082947005851
 30
0.0
 40
3.6016711955017549
 50
276.59637327192769
 51
287.44349410698868
  0
ARC
  5
BD68
  8
0
 10
339.53101368240362
 20
138.867178906823
 30
0.0
 40
17.564122366428801
 50
285.86682286753029
 51
290.74626596587228
  0
ARC
  5
BD69
  8
0
 10
342.40389079828208
 20
131.94012146129839
 30
0.0
 40
10.07125909409082
 50
289.42161087715948
 51
296.73399278990382
  0
POLYLINE
  5
BD6A
  8
0
 66
     1
 10
0.0
 20
0.0
 30
0.0
 70
   128
  0
VERTEX
  5
DB89
  8
0
 10
347.09584748133727
 20
123.1171590311011
 30
0.0
  0
VERTEX
  5
DB8A
  8
0
 10
347.14058130322007
 20
123.1063341733142
 30
0.0
  0
VERTEX
  5
DB8B
  8
0
 10
347.09722272468218
 20
123.04527641160961
 30
0.0
  0
VERTEX
  5
DB8C
  8
0
 10
346.93443606992588
 20
122.9454330685917
 30
0.0
  0
SEQEND
  5
DB8D
  8
0
  0
ARC
  5
BD6B
  8
0
 10
347.55153406243949
 20
119.9755647904597
 30
0.0
 40
3.1744707642419812
 50
98.25316329258861
 51
110.7049720865438
  0
ARC
  5
BD6C
  8
0
 10
350.26161105184099
 20
108.1973558820568
 30
0.0
 40
15.156898932920351
 50
109.79403027157571
 51
113.7058197504107
  0
ARC
  5
BD6D
  8
0
 10
354.76848704160528
 20
97.03129731768081
 30
0.0
 40
27.193310140275869
 50
108.2395011994397
 51
110.761852941833
  0
ARC
  5
BD6E
  8
0
 10
347.02595281873289
 20
120.8149544834113
 30
0.0
 40
2.1831705999329731
 50
98.003725935747966
 51
110.6158020037809
  0
POLYLINE
  5
BD6F
  8
0
 66
     1
 10
0.0
 20
0.0
 30
0.0
 70
   128
  0
VERTEX
  5
DB8E
  8
0
 10
346.59434597983579
 20
122.858686677996
 30
0.0
  0
VERTEX
  5
DB8F
  8
0
 10
346.73436620217979
 20
122.9447328536137
 30
0.0
  0
VERTEX
  5
DB90
  8
0
 10
346.74940649788851
 20
122.9683106855219
 30
0.0
  0
VERTEX
  5
DB91
  8
0
 10
346.72197360746338
 20
122.97685885399009
 30
0.0
  0
SEQEND
  5
DB92
  8
0
  0
ARC
  5
BD70
  8
0
 10
342.4617527774044
 20
131.43643837094959
 30
0.0
 40
9.5213523557711142
 50
289.46227799790552
 51
295.72385877611492
  0
ARC
  5
BD71
  8
0
 10
339.88116648021571
 20
137.54564662527551
 30
0.0
 40
16.146199529925958
 50
286.64095378075592
 51
290.87343716366257
  0
ARC
  5
BD72
  8
0
 10
343.7721529928682
 20
124.24206097733089
 30
0.0
 40
2.2869805801292031
 50
276.77105790241683
 51
288.68989573787138
  0
POLYLINE
  5
BD73
  8
0
 66
     1
 10
0.0
 20
0.0
 30
0.0
 70
   128
  0
VERTEX
  5
DB93
  8
0
 10
344.16791955340938
 20
122.07534237811259
 30
0.0
  0
VERTEX
  5
DB94
  8
0
 10
344.02807737280438
 20
121.99847522149859
 30
0.0
  0
VERTEX
  5
DB95
  8
0
 10
344.01370646903177
 20
121.9780900850855
 30
0.0
  0
VERTEX
  5
DB96
  8
0
 10
344.04179342728321
 20
121.9710316490269
 30
0.0
  0
SEQEND
  5
DB97
  8
0
  0
LINE
  5
BD74
  8
3
 10
347.25385412541522
 20
112.7158739746195
 30
0.0
 11
347.25385412541522
 21
113.7158743844014
 31
0.0
  0
LINE
  5
BD75
  8
3
 10
347.25385412541522
 20
112.7158739746195
 30
0.0
 11
347.52435412541439
 21
112.2473542311734
 31
0.0
  0
LINE
  5
BD76
  8
3
 10
344.79485412541368
 20
112.7158739746195
 30
0.0
 11
344.5243541254145
 21
112.2473542311734
 31
0.0
  0
LINE
  5
BD77
  8
3
 10
344.79485412541368
 20
112.7158739746195
 30
0.0
 11
344.79485412541368
 21
113.7158743844014
 31
0.0
  0
LINE
  5
BD78
  8
0
 10
344.5243541254145
 20
112.7158739746195
 30
0.0
 11
347.52435412541439
 21
112.7158739746195
 31
0.0
  0
LINE
  5
BD79
  8
3
 10
371.50256543137942
 20
112.7158739746195
 30
0.0
 11
371.50256543137942
 21
113.7158743844014
 31
0.0
  0
LINE
  5
BD7A
  8
3
 10
371.50256543137942
 20
112.7158739746195
 30
0.0
 11
371.77306543137871
 21
112.2473542311734
 31
0.0
  0
LINE
  5
BD7B
  8
3
 10
369.04356543137789
 20
112.7158739746195
 30
0.0
 11
368.7730654313786
 21
112.2473542311734
 31
0.0
  0
LINE
  5
BD7C
  8
3
 10
369.04356543137789
 20
112.7158739746195
 30
0.0
 11
369.04356543137789
 21
113.7158743844014
 31
0.0
  0
LINE
  5
BD7D
  8
0
 10
368.7730654313786
 20
112.7158739746195
 30
0.0
 11
371.77306543137871
 21
112.7158739746195
 31
0.0
  0
LINE
  5
BD7E
  8
0
 10
360.89870976349528
 20
108.2158744142037
 30
0.0
 11
360.89870976349528
 21
111.2158739746195
 31
0.0
  0
LINE
  5
BD7F
  8
0
 10
355.39870979329771
 20
111.2158739746195
 30
0.0
 11
355.39870979329771
 21
108.2158744142037
 31
0.0
  0
LINE
  5
BD80
  8
0
 10
359.64871002426571
 20
111.2158739746195
 30
0.0
 11
359.64871002426571
 21
113.7158743844014
 31
0.0
  0
LINE
  5
BD81
  8
0
 10
356.64871046384991
 20
113.7158743844014
 30
0.0
 11
356.64871046384991
 21
111.2158739746195
 31
0.0
  0
LINE
  5
BD83
  8
0
 10
360.89870976349528
 20
111.2158739746195
 30
0.0
 11
355.39870979329771
 21
111.2158739746195
 31
0.0
  0
LINE
  5
BD84
  8
3
 10
359.37820977839721
 20
112.7158739746195
 30
0.0
 11
359.37820977839721
 21
113.7158743844014
 31
0.0
  0
LINE
  5
BD85
  8
3
 10
359.37820977839721
 20
112.7158739746195
 30
0.0
 11
359.64870977839649
 21
112.2473542311734
 31
0.0
  0
LINE
  5
BD86
  8
3
 10
356.91920977839578
 20
112.7158739746195
 30
0.0
 11
356.64870977839649
 21
112.2473542311734
 31
0.0
  0
LINE
  5
BD87
  8
3
 10
356.91920977839578
 20
112.7158739746195
 30
0.0
 11
356.91920977839578
 21
113.7158743844014
 31
0.0
  0
LINE
  5
BD88
  8
0
 10
356.64870977839649
 20
112.7158739746195
 30
0.0
 11
359.64870977839649
 21
112.7158739746195
 31
0.0
  0
LINE
  5
BD89
  8
0
 10
360.89870976349528
 20
109.2158741124552
 30
0.0
 11
367.14870939096602
 21
109.2158741124553
 31
0.0
  0
LINE
  5
BE10
  8
3
 10
481.25385597315869
 20
112.7158739746195
 30
0.0
 11
481.25385597315869
 21
113.7158743844014
 31
0.0
  0
LINE
  5
BE11
  8
3
 10
481.25385597315869
 20
112.7158739746195
 30
0.0
 11
481.52435597315809
 21
112.2473542311734
 31
0.0
  0
LINE
  5
BE12
  8
3
 10
478.79485597315733
 20
112.7158739746195
 30
0.0
 11
478.52435597315809
 21
112.2473542311734
 31
0.0
  0
LINE
  5
BE13
  8
3
 10
478.79485597315733
 20
112.7158739746195
 30
0.0
 11
478.79485597315733
 21
113.7158743844014
 31
0.0
  0
LINE
  5
BE14
  8
0
 10
478.52435597315809
 20
112.7158739746195
 30
0.0
 11
481.52435597315809
 21
112.7158739746195
 31
0.0
  0
LINE
  5
BE15
  8
3
 10
505.5025672791229
 20
112.7158739746195
 30
0.0
 11
505.5025672791229
 21
113.7158743844014
 31
0.0
  0
LINE
  5
BE16
  8
3
 10
505.5025672791229
 20
112.7158739746195
 30
0.0
 11
505.7730672791223
 21
112.2473542311734
 31
0.0
  0
LINE
  5
BE17
  8
3
 10
503.04356727912148
 20
112.7158739746195
 30
0.0
 11
502.7730672791223
 21
112.2473542311734
 31
0.0
  0
LINE
  5
BE18
  8
3
 10
503.04356727912148
 20
112.7158739746195
 30
0.0
 11
503.04356727912148
 21
113.7158743844014
 31
0.0
  0
LINE
  5
BE19
  8
0
 10
502.7730672791223
 20
112.7158739746195
 30
0.0
 11
505.7730672791223
 21
112.7158739746195
 31
0.0
  0
LINE
  5
BE79
  8
3
 10
149.7295000000006
 20
-96.373270445642987
 30
0.0
 11
149.7295000000006
 21
-95.373270035861054
 31
0.0
  0
LINE
  5
BE7A
  8
3
 10
149.7295000000006
 20
-96.373270445642987
 30
0.0
 11
149.99999999999989
 21
-96.841790189089096
 31
0.0
  0
LINE
  5
BE7B
  8
3
 10
147.27049999999909
 20
-96.373270445642987
 30
0.0
 11
146.99999999999989
 21
-96.841790189089096
 31
0.0
  0
LINE
  5
BE7C
  8
3
 10
147.27049999999909
 20
-96.373270445642987
 30
0.0
 11
147.27049999999909
 21
-95.373270035861054
 31
0.0
  0
LINE
  5
BE7D
  8
0
 10
146.99999999999989
 20
-96.373270445642987
 30
0.0
 11
149.99999999999989
 21
-96.373270445642987
 31
0.0
  0
LINE
  5
BE7E
  8
3
 10
304.72950000000071
 20
-104.373270445643
 30
0.0
 11
304.72950000000071
 21
-103.373270035861
 31
0.0
  0
LINE
  5
BE7F
  8
3
 10
304.72950000000071
 20
-104.373270445643
 30
0.0
 11
305.0
 21
-104.8417901890891
 31
0.0
  0
LINE
  5
BE80
  8
3
 10
302.27049999999929
 20
-104.373270445643
 30
0.0
 11
302.0
 21
-104.8417901890891
 31
0.0
  0
LINE
  5
BE81
  8
3
 10
302.27049999999929
 20
-104.373270445643
 30
0.0
 11
302.27049999999929
 21
-103.373270035861
 31
0.0
  0
LINE
  5
BE82
  8
0
 10
302.0
 20
-104.373270445643
 30
0.0
 11
305.0
 21
-104.373270445643
 31
0.0
  0
LINE
  5
C0ED
  8
0
 10
192.1487088545239
 20
183.4658743247968
 30
0.0
 11
192.0817215564239
 21
183.7158743247968
 31
0.0
  0
LINE
  5
C0EE
  8
0
 10
190.21569615262391
 20
183.7158743247968
 30
0.0
 11
190.1487088545239
 21
183.4658743247968
 31
0.0
  0
LINE
  5
C0EF
  8
0
 10
192.1487088545239
 20
182.14890869839681
 30
0.0
 11
192.1487088545239
 21
183.4658743247968
 31
0.0
  0
LINE
  5
C0F0
  8
0
 10
192.1487088545239
 20
183.4658743247968
 30
0.0
 11
190.1487088545239
 21
183.4658743247968
 31
0.0
  0
LINE
  5
C0F1
  8
0
 10
190.21569615262391
 20
183.7158743247968
 30
0.0
 11
192.0817215564239
 21
183.7158743247968
 31
0.0
  0
LINE
  5
C0F2
  8
0
 10
192.59208452752389
 20
172.2158743247968
 30
0.0
 11
194.0354602004239
 21
174.7158743247968
 31
0.0
  0
LINE
  5
C0F3
  8
0
 10
194.0354602004239
 20
174.7158743247968
 30
0.0
 11
192.59208452752389
 21
177.2158743247968
 31
0.0
  0
LINE
  5
C0F4
  8
0
 10
192.59208452752389
 20
177.2158743247968
 30
0.0
 11
189.70533318152391
 21
177.2158743247968
 31
0.0
  0
LINE
  5
C0F5
  8
0
 10
189.70533318152391
 20
177.2158743247968
 30
0.0
 11
188.26195750852389
 21
174.7158743247968
 31
0.0
  0
LINE
  5
C0F6
  8
0
 10
188.26195750852389
 20
174.7158743247968
 30
0.0
 11
189.70533318152391
 21
172.2158743247968
 31
0.0
  0
LINE
  5
C0F7
  8
0
 10
189.70533318152391
 20
172.2158743247968
 30
0.0
 11
192.59208452752389
 21
172.2158743247968
 31
0.0
  0
CIRCLE
  5
C0F9
  8
0
 10
191.1487088545239
 20
174.7158743247968
 30
0.0
 40
7.4999999999999858
  0
CIRCLE
  5
C0FA
  8
0
 10
191.1487088545239
 20
174.7158743247968
 30
0.0
 40
6.9999999999999858
  0
LINE
  5
C0FB
  8
0
 10
191.1487088545239
 20
181.01587432479681
 30
0.0
 11
189.6487088545239
 21
178.4177981133968
 31
0.0
  0
LINE
  5
C0FC
  8
0
 10
189.6487088545239
 20
178.4177981133968
 30
0.0
 11
192.6487088545239
 21
178.4177981133968
 31
0.0
  0
LINE
  5
C0FD
  8
0
 10
192.6487088545239
 20
178.4177981133968
 30
0.0
 11
191.1487088545239
 21
181.01587432479681
 31
0.0
  0
ARC
  5
C0FF
  8
0
 10
204.0384395225239
 20
176.88193396679679
 30
0.0
 40
1.8245411830384091
 50
235.3023551766999
 51
281.30872055610001
  0
ARC
  5
C100
  8
0
 10
204.22843552912391
 20
176.90677935959681
 30
0.0
 40
1.8217063003450309
 50
275.28471328319972
 51
321.3290658389007
  0
ARC
  5
C101
  8
0
 10
204.5213435851239
 20
176.62900940779679
 30
0.0
 40
1.4198588927121689
 50
322.69497057689961
 51
9.1206913183010094
  0
ARC
  5
C102
  8
0
 10
204.51770223192401
 20
176.6714329985968
 30
0.0
 40
1.417365708588407
 50
7.4038470102994944
 51
53.943994222399617
  0
ARC
  5
C103
  8
0
 10
204.31588363032401
 20
176.32311334159681
 30
0.0
 40
1.8182292893648051
 50
55.263003728400001
 51
101.3827319655997
  0
ARC
  5
C104
  8
0
 10
204.12510621202389
 20
176.28665627969681
 30
0.0
 40
1.8266716172053259
 50
95.27924209180081
 51
141.22419523920061
  0
ARC
  5
C105
  8
0
 10
203.83575682242389
 20
176.56961315169681
 30
0.0
 40
1.4244298963739299
 50
142.80847298970011
 51
189.10040730080021
  0
ARC
  5
C106
  8
0
 10
203.83531373152391
 20
176.52750692399681
 30
0.0
 40
1.4179402645752881
 50
187.42299778169891
 51
233.89793732129971
  0
ARC
  5
C107
  8
0
 10
187.6859511415239
 20
187.31664408249679
 30
0.0
 40
1.8194183548451861
 50
331.02990659899979
 51
17.188840568600369
  0
ARC
  5
C108
  8
0
 10
187.6318575933239
 20
187.50396041869681
 30
0.0
 40
1.8261738421029741
 50
11.06109829309953
 51
57.071268135399443
  0
ARC
  5
C109
  8
0
 10
187.88321849152391
 20
187.8253450286968
 30
0.0
 40
1.4202452347690959
 50
58.534876255700517
 51
104.96587004669981
  0
ARC
  5
C10A
  8
0
 10
187.83979472502389
 20
187.81622762349679
 30
0.0
 40
1.4185315339563389
 50
103.1760461055993
 51
149.71948639849899
  0
ARC
  5
C10B
  8
0
 10
188.2099783921239
 20
187.64962123579679
 30
0.0
 40
1.822720744503266
 50
151.06447149639999
 51
197.16046206689921
  0
ARC
  5
C10C
  8
0
 10
188.25860578212391
 20
187.46178161209679
 30
0.0
 40
1.8240884998244999
 50
191.06078437779991
 51
237.1053575055999
  0
ARC
  5
C10D
  8
0
 10
188.01198477952391
 20
187.15028338719679
 30
0.0
 40
1.4290965506278721
 50
238.6253147937999
 51
284.82151909720028
  0
ARC
  5
C10E
  8
0
 10
188.0518363622239
 20
187.14957340259679
 30
0.0
 40
1.4187340557730961
 50
283.27280271300123
 51
329.77576501659991
  0
LINE
  5
C10F
  8
0
 10
195.65964731532389
 20
186.9719251848968
 30
0.0
 11
194.25424190992391
 21
187.37733059029679
 31
0.0
  0
LINE
  5
C110
  8
0
 10
195.7707584264239
 20
187.3555588184968
 30
0.0
 11
195.65964731532389
 21
186.9719251848968
 31
0.0
  0
LINE
  5
C111
  8
0
 10
194.36535302102391
 20
187.76096422389679
 30
0.0
 11
195.7707584264239
 21
187.3555588184968
 31
0.0
  0
LINE
  5
C112
  8
0
 10
194.67691458252389
 20
188.84129455429681
 30
0.0
 11
194.36535302102391
 21
187.76096422389679
 31
0.0
  0
LINE
  5
C113
  8
0
 10
196.47271037832391
 20
188.3232765361968
 30
0.0
 11
194.67691458252389
 21
188.84129455429681
 31
0.0
  0
LINE
  5
C114
  8
0
 10
196.58382148942391
 20
188.70691016989679
 30
0.0
 11
196.47271037832391
 21
188.3232765361968
 31
0.0
  0
LINE
  5
C115
  8
0
 10
194.30829596392391
 20
189.36381707679681
 30
0.0
 11
196.58382148942391
 21
188.70691016989679
 31
0.0
  0
LINE
  5
C116
  8
0
 10
193.34508275072389
 20
186.02597923889681
 30
0.0
 11
194.30829596392391
 21
189.36381707679681
 31
0.0
  0
LINE
  5
C117
  8
0
 10
193.8248124804239
 20
185.8870903500968
 30
0.0
 11
193.34508275072389
 21
186.02597923889681
 31
0.0
  0
LINE
  5
C118
  8
0
 10
194.25424190992391
 20
187.37733059029679
 30
0.0
 11
193.8248124804239
 21
185.8870903500968
 31
0.0
  0
CIRCLE
  5
C11A
  8
0
 10
191.1487088545239
 20
174.7158743247968
 30
0.0
 40
9.75
  0
LINE
  5
C11B
  8
0
 10
192.52826401572389
 20
187.71360318069679
 30
0.0
 11
191.06880455622391
 21
187.76390348099679
 31
0.0
  0
LINE
  5
C11C
  8
0
 10
192.54102677842391
 20
188.09723681439681
 30
0.0
 11
192.52826401572389
 21
187.71360318069679
 31
0.0
  0
LINE
  5
C11D
  8
0
 10
191.08156731902389
 20
188.1475371146968
 30
0.0
 11
192.54102677842391
 21
188.09723681439681
 31
0.0
  0
LINE
  5
C11E
  8
0
 10
191.1213571088239
 20
189.28417375129681
 30
0.0
 11
191.08156731902389
 21
188.1475371146968
 31
0.0
  0
LINE
  5
C11F
  8
0
 10
192.98622197362391
 20
189.2196091866968
 30
0.0
 11
191.1213571088239
 21
189.28417375129681
 31
0.0
  0
LINE
  5
C120
  8
0
 10
192.9997354871239
 20
189.60324282039679
 30
0.0
 11
192.98622197362391
 21
189.2196091866968
 31
0.0
  0
LINE
  5
C121
  8
0
 10
190.65514089252389
 20
189.68507465219679
 30
0.0
 11
192.9997354871239
 21
189.60324282039679
 31
0.0
  0
LINE
  5
C122
  8
0
 10
190.5342700217239
 20
186.21885843599679
 30
0.0
 11
190.65514089252389
 21
189.68507465219679
 31
0.0
  0
LINE
  5
C123
  8
0
 10
191.01399975142391
 20
186.20159116869681
 30
0.0
 11
190.5342700217239
 21
186.21885843599679
 31
0.0
  0
LINE
  5
C124
  8
0
 10
191.06880455622391
 20
187.76390348099679
 30
0.0
 11
191.01399975142391
 21
186.20159116869681
 31
0.0
  0
LINE
  5
C125
  8
0
 10
202.3179667833239
 20
172.1124230522968
 30
0.0
 11
205.2871860025239
 21
173.28509572499681
 31
0.0
  0
LINE
  5
C126
  8
0
 10
202.2376364530239
 20
171.61017079999681
 30
0.0
 11
202.3179667833239
 21
172.1124230522968
 31
0.0
  0
LINE
  5
C127
  8
0
 10
205.6723211376239
 20
171.05987049969681
 30
0.0
 11
202.2376364530239
 21
171.61017079999681
 31
0.0
  0
LINE
  5
C128
  8
0
 10
205.74964846502391
 20
171.53960022949681
 30
0.0
 11
205.6723211376239
 21
171.05987049969681
 31
0.0
  0
LINE
  5
C129
  8
0
 10
203.03793675332389
 20
171.9742849141968
 30
0.0
 11
205.74964846502391
 21
171.53960022949681
 31
0.0
  0
LINE
  5
C12A
  8
0
 10
206.00415296952389
 20
173.1289395687968
 30
0.0
 11
203.03793675332389
 21
171.9742849141968
 31
0.0
  0
LINE
  5
C12B
  8
0
 10
206.08748630282389
 20
173.64845908829679
 30
0.0
 11
206.00415296952389
 21
173.1289395687968
 31
0.0
  0
LINE
  5
C12C
  8
0
 10
202.6528016181239
 20
174.19875938859681
 30
0.0
 11
206.08748630282389
 21
173.64845908829679
 31
0.0
  0
LINE
  5
C12D
  8
0
 10
202.57547429082391
 20
173.7190296588968
 30
0.0
 11
202.6528016181239
 21
174.19875938859681
 31
0.0
  0
LINE
  5
C12E
  8
0
 10
205.2871860025239
 20
173.28509572499681
 30
0.0
 11
202.57547429082391
 21
173.7190296588968
 31
0.0
  0
LINE
  5
C12F
  8
0
 10
202.11645378812389
 20
178.1739910190968
 30
0.0
 11
203.30694577542391
 21
182.61696760189679
 31
0.0
  0
LINE
  5
C130
  8
0
 10
203.30694577542391
 20
182.61696760189679
 30
0.0
 11
202.0491971285239
 21
181.79961312489681
 31
0.0
  0
ARC
  5
C131
  8
0
 10
191.1487088545239
 20
174.7158743247968
 30
0.0
 40
12.999999999999989
 50
33.018034190700327
 51
56.981965809299901
  0
LINE
  5
C132
  8
0
 10
198.2324476547239
 20
185.61636259869681
 30
0.0
 11
199.04980213162389
 21
186.87411124569681
 31
0.0
  0
LINE
  5
C133
  8
0
 10
199.04980213162389
 20
186.87411124569681
 30
0.0
 11
194.60682554882391
 21
185.68361925839679
 31
0.0
  0
ARC
  5
C134
  8
0
 10
191.1487088545239
 20
174.7158743247968
 30
0.0
 40
11.50000000000002
 50
17.499999999999801
 51
72.500000000000114
  0
LINE
  5
C135
  8
0
 10
198.58174322812391
 20
173.7158743247968
 30
0.0
 11
200.44870885452389
 21
173.7158743247968
 31
0.0
  0
LINE
  5
C136
  8
0
 10
200.44870885452389
 20
173.7158743247968
 30
0.0
 11
200.44870885452389
 21
174.7158743247968
 31
0.0
  0
ARC
  5
C137
  8
0
 10
191.1487088545239
 20
174.7158743247968
 30
0.0
 40
9.3000000000000114
 50
0.0
 51
90.0
  0
LINE
  5
C138
  8
0
 10
191.1487088545239
 20
184.01587432479681
 30
0.0
 11
190.1487088545239
 21
184.01587432479681
 31
0.0
  0
LINE
  5
C139
  8
0
 10
190.1487088545239
 20
184.01587432479681
 30
0.0
 11
190.1487088545239
 21
182.14890869839681
 31
0.0
  0
ARC
  5
C13A
  8
0
 10
204.24268741432391
 20
177.02921808309679
 30
0.0
 40
1.456783946203362
 50
273.26483249179932
 51
318.91206438159918
  0
ARC
  5
C13B
  8
0
 10
204.00512050732391
 20
177.08322367939681
 30
0.0
 40
1.542104887461808
 50
239.0286550305012
 51
281.99661683329992
  0
ARC
  5
C13C
  8
0
 10
203.748590903924
 20
176.5432097710968
 30
0.0
 40
0.9488418144787116
 50
188.68861036889899
 51
235.5276903809004
  0
ARC
  5
C13D
  8
0
 10
203.7427836233239
 20
176.53226114649681
 30
0.0
 40
0.9414997652680103
 50
140.85622259200059
 51
188.08334468849969
  0
ARC
  5
C13E
  8
0
 10
204.1185494973239
 20
176.1530206738968
 30
0.0
 40
1.473432653255569
 50
93.567958350700565
 51
138.64243364100031
  0
ARC
  5
C13F
  8
0
 10
204.3509334691239
 20
176.13320765079681
 30
0.0
 40
1.5252176201887719
 50
58.770054426101233
 51
102.2677629764989
  0
ARC
  5
C140
  8
0
 10
204.60121007392391
 20
176.65412260129679
 30
0.0
 40
0.9516780063151212
 50
8.727291725099791
 51
55.39234450220043
  0
ARC
  5
C141
  8
0
 10
204.60545822312389
 20
176.66656098609681
 30
0.0
 40
0.9456635073221088
 50
321.02805249139919
 51
8.0214373301997721
  0
ARC
  5
C142
  8
0
 10
187.48260266652389
 20
187.4894374157968
 30
0.0
 40
1.489036951459765
 50
9.5196707541988452
 51
54.168644007900099
  0
ARC
  5
C143
  8
0
 10
187.48439243662389
 20
187.2628967835968
 30
0.0
 40
1.5410635376615489
 50
334.82388612509948
 51
17.866821570698789
  0
ARC
  5
C144
  8
0
 10
188.04049371472391
 20
187.0679082296968
 30
0.0
 40
0.9567304819674201
 50
284.7275420228994
 51
331.2222359904996
  0
ARC
  5
C145
  8
0
 10
188.05831992042391
 20
187.06407132949681
 30
0.0
 40
0.9486272618752991
 50
236.80615173770059
 51
283.74510366979951
  0
ARC
  5
C146
  8
0
 10
188.39989017332391
 20
187.4721062550968
 30
0.0
 40
1.478400331054657
 50
189.4077295208989
 51
234.38533577150039
  0
ARC
  5
C147
  8
0
 10
188.39554289592391
 20
187.7035750920968
 30
0.0
 40
1.52920099021409
 50
154.59691652340081
 51
198.0227590998993
  0
ARC
  5
C148
  8
0
 10
187.8478713010239
 20
187.9019016293968
 30
0.0
 40
0.9510415623210967
 50
104.4661783326992
 51
151.23381445929911
  0
ARC
  5
C149
  8
0
 10
187.83780803902391
 20
187.9074556530968
 30
0.0
 40
0.9431867612393032
 50
56.798211087200002
 51
103.9585230568988
  0
LINE
  5
C14B
  8
0
 10
433.89871070226792
 20
173.71587432479669
 30
0.0
 11
434.14871070226792
 21
173.78286162289669
 31
0.0
  0
LINE
  5
C14C
  8
0
 10
434.14871070226792
 20
175.64888702669671
 30
0.0
 11
433.89871070226792
 21
175.71587432479669
 31
0.0
  0
LINE
  5
C14D
  8
0
 10
432.58174507586767
 20
175.71587432479669
 30
0.0
 11
433.89871070226769
 21
175.71587432479669
 31
0.0
  0
LINE
  5
C14E
  8
0
 10
433.89871070226792
 20
173.71587432479669
 30
0.0
 11
433.89871070226792
 21
175.71587432479669
 31
0.0
  0
LINE
  5
C14F
  8
0
 10
434.14871070226792
 20
175.64888702669671
 30
0.0
 11
434.14871070226792
 21
173.78286162289669
 31
0.0
  0
LINE
  5
C150
  8
0
 10
422.64871070226798
 20
173.2724986517967
 30
0.0
 11
425.14871070226792
 21
171.82912297889669
 31
0.0
  0
LINE
  5
C151
  8
0
 10
425.14871070226792
 20
171.82912297889669
 30
0.0
 11
427.64871070226792
 21
173.2724986517967
 31
0.0
  0
LINE
  5
C152
  8
0
 10
427.64871070226792
 20
173.2724986517967
 30
0.0
 11
427.64871070226792
 21
176.15924999779671
 31
0.0
  0
LINE
  5
C153
  8
0
 10
427.64871070226792
 20
176.15924999779671
 30
0.0
 11
425.14871070226792
 21
177.6026256707967
 31
0.0
  0
LINE
  5
C154
  8
0
 10
425.14871070226792
 20
177.6026256707967
 30
0.0
 11
422.64871070226798
 21
176.15924999779671
 31
0.0
  0
LINE
  5
C155
  8
0
 10
422.64871070226798
 20
176.15924999779671
 30
0.0
 11
422.64871070226798
 21
173.2724986517967
 31
0.0
  0
CIRCLE
  5
C156
  8
0
 10
425.14871070226792
 20
174.7158743247968
 30
0.0
 40
7.4999999999999858
  0
CIRCLE
  5
C157
  8
0
 10
425.14871070226792
 20
174.7158743247968
 30
0.0
 40
6.9999999999999858
  0
LINE
  5
C158
  8
0
 10
431.44871070226799
 20
174.71587432479669
 30
0.0
 11
428.85063449086789
 21
176.21587432479669
 31
0.0
  0
LINE
  5
C159
  8
0
 10
428.85063449086789
 20
176.21587432479669
 30
0.0
 11
428.85063449086789
 21
173.21587432479669
 31
0.0
  0
LINE
  5
C15A
  8
0
 10
428.85063449086789
 20
173.21587432479669
 30
0.0
 11
431.44871070226799
 21
174.71587432479669
 31
0.0
  0
ARC
  5
C15B
  8
0
 10
438.038441370268
 20
176.88193396679679
 30
0.0
 40
1.8245411830384091
 50
235.30235517669959
 51
281.30872055610001
  0
ARC
  5
C15C
  8
0
 10
438.22843737686799
 20
176.90677935959681
 30
0.0
 40
1.8217063003450309
 50
275.28471328319972
 51
321.32906583890087
  0
ARC
  5
C15D
  8
0
 10
438.52134543286792
 20
176.62900940779679
 30
0.0
 40
1.4198588927121689
 50
322.69497057689978
 51
9.1206913183009046
  0
ARC
  5
C15E
  8
0
 10
438.51770407966802
 20
176.6714329985968
 30
0.0
 40
1.417365708588407
 50
7.4038470102995557
 51
53.943994222399347
  0
ARC
  5
C15F
  8
0
 10
438.31588547806803
 20
176.32311334159681
 30
0.0
 40
1.8182292893648051
 50
55.263003728399951
 51
101.3827319655997
  0
ARC
  5
C160
  8
0
 10
438.12510805976791
 20
176.28665627969681
 30
0.0
 40
1.8266716172053259
 50
95.27924209180081
 51
141.22419523920081
  0
ARC
  5
C161
  8
0
 10
437.83575867016799
 20
176.56961315169681
 30
0.0
 40
1.4244298963739299
 50
142.8084729896996
 51
189.1004073008001
  0
ARC
  5
C162
  8
0
 10
437.8353155792679
 20
176.52750692399681
 30
0.0
 40
1.4179402645752881
 50
187.4229977816988
 51
233.89793732129971
  0
ARC
  5
C163
  8
0
 10
421.685952989268
 20
187.31664408249679
 30
0.0
 40
1.8194183548451861
 50
331.0299065989995
 51
17.188840568600352
  0
ARC
  5
C164
  8
0
 10
421.631859441068
 20
187.50396041869681
 30
0.0
 40
1.8261738421029741
 50
11.061098293099651
 51
57.0712681353994
  0
ARC
  5
C165
  8
0
 10
421.88322033926801
 20
187.8253450286968
 30
0.0
 40
1.4202452347690959
 50
58.534876255700198
 51
104.96587004669981
  0
ARC
  5
C166
  8
0
 10
421.83979657276802
 20
187.81622762349679
 30
0.0
 40
1.4185315339563389
 50
103.1760461055993
 51
149.7194863984991
  0
ARC
  5
C167
  8
0
 10
422.20998023986789
 20
187.64962123579679
 30
0.0
 40
1.822720744503266
 50
151.06447149640019
 51
197.16046206689921
  0
ARC
  5
C168
  8
0
 10
422.25860762986792
 20
187.46178161209679
 30
0.0
 40
1.8240884998244999
 50
191.06078437779979
 51
237.10535750560021
  0
ARC
  5
C169
  8
0
 10
422.01198662726802
 20
187.15028338719679
 30
0.0
 40
1.4290965506278721
 50
238.6253147937999
 51
284.82151909720028
  0
ARC
  5
C16A
  8
0
 10
422.05183820996803
 20
187.14957340259679
 30
0.0
 40
1.4187340557730961
 50
283.27280271300123
 51
329.77576501659979
  0
LINE
  5
C16B
  8
0
 10
429.65964916306802
 20
186.9719251848968
 30
0.0
 11
428.25424375766801
 21
187.37733059029679
 31
0.0
  0
LINE
  5
C16C
  8
0
 10
429.77076027416791
 20
187.3555588184968
 30
0.0
 11
429.65964916306802
 21
186.9719251848968
 31
0.0
  0
LINE
  5
C16D
  8
0
 10
428.36535486876801
 20
187.76096422389679
 30
0.0
 11
429.77076027416791
 21
187.3555588184968
 31
0.0
  0
LINE
  5
C16E
  8
0
 10
428.67691643026791
 20
188.84129455429681
 30
0.0
 11
428.36535486876801
 21
187.76096422389679
 31
0.0
  0
LINE
  5
C16F
  8
0
 10
430.47271222606793
 20
188.3232765361968
 30
0.0
 11
428.67691643026791
 21
188.84129455429681
 31
0.0
  0
LINE
  5
C170
  8
0
 10
430.58382333716793
 20
188.70691016989679
 30
0.0
 11
430.47271222606793
 21
188.3232765361968
 31
0.0
  0
LINE
  5
C171
  8
0
 10
428.30829781166801
 20
189.36381707679681
 30
0.0
 11
430.58382333716793
 21
188.70691016989679
 31
0.0
  0
LINE
  5
C172
  8
0
 10
427.34508459846802
 20
186.02597923889681
 30
0.0
 11
428.30829781166801
 21
189.36381707679681
 31
0.0
  0
LINE
  5
C173
  8
0
 10
427.82481432816792
 20
185.8870903500968
 30
0.0
 11
427.34508459846802
 21
186.02597923889681
 31
0.0
  0
LINE
  5
C174
  8
0
 10
428.25424375766801
 20
187.37733059029679
 30
0.0
 11
427.82481432816792
 21
185.8870903500968
 31
0.0
  0
CIRCLE
  5
C175
  8
0
 10
425.14871070226792
 20
174.7158743247968
 30
0.0
 40
9.75
  0
LINE
  5
C176
  8
0
 10
426.52826586346799
 20
187.71360318069679
 30
0.0
 11
425.06880640396793
 21
187.76390348099679
 31
0.0
  0
LINE
  5
C177
  8
0
 10
426.54102862616799
 20
188.09723681439681
 30
0.0
 11
426.52826586346799
 21
187.71360318069679
 31
0.0
  0
LINE
  5
C178
  8
0
 10
425.08156916676791
 20
188.1475371146968
 30
0.0
 11
426.54102862616799
 21
188.09723681439681
 31
0.0
  0
LINE
  5
C179
  8
0
 10
425.12135895656792
 20
189.28417375129681
 30
0.0
 11
425.08156916676791
 21
188.1475371146968
 31
0.0
  0
LINE
  5
C17A
  8
0
 10
426.98622382136801
 20
189.2196091866968
 30
0.0
 11
425.12135895656792
 21
189.28417375129681
 31
0.0
  0
LINE
  5
C17B
  8
0
 10
426.99973733486797
 20
189.60324282039679
 30
0.0
 11
426.98622382136801
 21
189.2196091866968
 31
0.0
  0
LINE
  5
C17C
  8
0
 10
424.65514274026788
 20
189.68507465219679
 30
0.0
 11
426.99973733486797
 21
189.60324282039679
 31
0.0
  0
LINE
  5
C17D
  8
0
 10
424.53427186946789
 20
186.21885843599679
 30
0.0
 11
424.65514274026788
 21
189.68507465219679
 31
0.0
  0
LINE
  5
C17E
  8
0
 10
425.01400159916801
 20
186.20159116869681
 30
0.0
 11
424.53427186946789
 21
186.21885843599679
 31
0.0
  0
LINE
  5
C17F
  8
0
 10
425.06880640396793
 20
187.76390348099679
 30
0.0
 11
425.01400159916801
 21
186.20159116869681
 31
0.0
  0
LINE
  5
C180
  8
0
 10
436.31796863106791
 20
172.1124230522968
 30
0.0
 11
439.28718785026791
 21
173.28509572499681
 31
0.0
  0
LINE
  5
C181
  8
0
 10
436.23763830076803
 20
171.61017079999681
 30
0.0
 11
436.31796863106791
 21
172.1124230522968
 31
0.0
  0
LINE
  5
C182
  8
0
 10
439.67232298536788
 20
171.05987049969681
 30
0.0
 11
436.23763830076803
 21
171.61017079999681
 31
0.0
  0
LINE
  5
C183
  8
0
 10
439.74965031276798
 20
171.53960022949681
 30
0.0
 11
439.67232298536788
 21
171.05987049969681
 31
0.0
  0
LINE
  5
C184
  8
0
 10
437.03793860106799
 20
171.9742849141968
 30
0.0
 11
439.74965031276798
 21
171.53960022949681
 31
0.0
  0
LINE
  5
C185
  8
0
 10
440.00415481726787
 20
173.1289395687968
 30
0.0
 11
437.03793860106799
 21
171.9742849141968
 31
0.0
  0
LINE
  5
C186
  8
0
 10
440.08748815056788
 20
173.64845908829679
 30
0.0
 11
440.00415481726787
 21
173.1289395687968
 31
0.0
  0
LINE
  5
C187
  8
0
 10
436.65280346586798
 20
174.19875938859681
 30
0.0
 11
440.08748815056788
 21
173.64845908829679
 31
0.0
  0
LINE
  5
C188
  8
0
 10
436.57547613856792
 20
173.7190296588968
 30
0.0
 11
436.65280346586798
 21
174.19875938859681
 31
0.0
  0
LINE
  5
C189
  8
0
 10
439.28718785026791
 20
173.28509572499681
 30
0.0
 11
436.57547613856792
 21
173.7190296588968
 31
0.0
  0
LINE
  5
C18A
  8
0
 10
436.11645563586791
 20
178.1739910190968
 30
0.0
 11
437.3069476231679
 21
182.61696760189679
 31
0.0
  0
LINE
  5
C18B
  8
0
 10
437.3069476231679
 20
182.61696760189679
 30
0.0
 11
436.04919897626797
 21
181.79961312489681
 31
0.0
  0
ARC
  5
C18C
  8
0
 10
425.14871070226792
 20
174.7158743247968
 30
0.0
 40
12.999999999999989
 50
33.018034190700398
 51
56.981965809299929
  0
LINE
  5
C18D
  8
0
 10
432.23244950246789
 20
185.61636259869681
 30
0.0
 11
433.04980397936788
 21
186.87411124569681
 31
0.0
  0
LINE
  5
C18E
  8
0
 10
433.04980397936788
 20
186.87411124569681
 30
0.0
 11
428.60682739656801
 21
185.68361925839679
 31
0.0
  0
ARC
  5
C18F
  8
0
 10
425.14871070226792
 20
174.7158743247968
 30
0.0
 40
11.50000000000002
 50
17.499999999999758
 51
72.500000000000114
  0
LINE
  5
C190
  8
0
 10
432.5817450758679
 20
173.7158743247968
 30
0.0
 11
434.44871070226787
 21
173.7158743247968
 31
0.0
  0
LINE
  5
C191
  8
0
 10
434.44871070226787
 20
173.7158743247968
 30
0.0
 11
434.44871070226787
 21
174.7158743247968
 31
0.0
  0
ARC
  5
C192
  8
0
 10
425.14871070226792
 20
174.7158743247968
 30
0.0
 40
9.3000000000000114
 50
0.0
 51
90.0
  0
LINE
  5
C193
  8
0
 10
425.14871070226792
 20
184.01587432479681
 30
0.0
 11
424.14871070226792
 21
184.01587432479681
 31
0.0
  0
LINE
  5
C194
  8
0
 10
424.14871070226792
 20
184.01587432479681
 30
0.0
 11
424.14871070226792
 21
182.14890869839681
 31
0.0
  0
ARC
  5
C195
  8
0
 10
438.24268926206798
 20
177.02921808309679
 30
0.0
 40
1.456783946203362
 50
273.26483249179932
 51
318.91206438159929
  0
ARC
  5
C196
  8
0
 10
438.00512235506801
 20
177.08322367939681
 30
0.0
 40
1.542104887461808
 50
239.02865503050131
 51
281.99661683329992
  0
ARC
  5
C197
  8
0
 10
437.74859275166801
 20
176.5432097710968
 30
0.0
 40
0.9488418144787116
 50
188.68861036889911
 51
235.52769038090011
  0
ARC
  5
C198
  8
0
 10
437.74278547106798
 20
176.53226114649681
 30
0.0
 40
0.9414997652680103
 50
140.85622259200051
 51
188.08334468849961
  0
ARC
  5
C199
  8
0
 10
438.118551345068
 20
176.1530206738968
 30
0.0
 40
1.473432653255569
 50
93.567958350700565
 51
138.64243364100039
  0
ARC
  5
C19A
  8
0
 10
438.350935316868
 20
176.13320765079681
 30
0.0
 40
1.5252176201887719
 50
58.770054426101261
 51
102.2677629764989
  0
ARC
  5
C19B
  8
0
 10
438.60121192166798
 20
176.65412260129679
 30
0.0
 40
0.9516780063151212
 50
8.7272917250998372
 51
55.392344502200423
  0
ARC
  5
C19C
  8
0
 10
438.60546007086788
 20
176.66656098609681
 30
0.0
 40
0.9456635073221088
 50
321.02805249139942
 51
8.0214373301998219
  0
ARC
  5
C19D
  8
0
 10
421.48260451426802
 20
187.4894374157968
 30
0.0
 40
1.489036951459765
 50
9.5196707541988612
 51
54.168644007899772
  0
ARC
  5
C19E
  8
0
 10
421.48439428436802
 20
187.2628967835968
 30
0.0
 40
1.5410635376615489
 50
334.82388612509982
 51
17.86682157069886
  0
ARC
  5
C19F
  8
0
 10
422.04049556246798
 20
187.0679082296968
 30
0.0
 40
0.9567304819674201
 50
284.7275420228994
 51
331.22223599049931
  0
ARC
  5
C1A0
  8
0
 10
422.0583217681679
 20
187.06407132949681
 30
0.0
 40
0.9486272618752991
 50
236.8061517377009
 51
283.74510366979951
  0
ARC
  5
C1A1
  8
0
 10
422.39989202106801
 20
187.4721062550968
 30
0.0
 40
1.478400331054657
 50
189.4077295208989
 51
234.38533577150079
  0
ARC
  5
C1A2
  8
0
 10
422.39554474366793
 20
187.7035750920968
 30
0.0
 40
1.52920099021409
 50
154.59691652340081
 51
198.0227590998993
  0
ARC
  5
C1A3
  8
0
 10
421.84787314876797
 20
187.9019016293968
 30
0.0
 40
0.9510415623210967
 50
104.4661783326992
 51
151.23381445929911
  0
ARC
  5
C1A4
  8
0
 10
421.8378098867679
 20
187.9074556530968
 30
0.0
 40
0.9431867612393032
 50
56.798211087200023
 51
103.9585230568988
  0
LINE
  5
D5BA
  8
1
 10
232.5
 20
-197.56803550732459
 30
0.0
 11
232.5
 21
-235.56803550732459
 31
0.0
  0
LINE
  5
D5BB
  8
1
 10
213.49999999999989
 20
-216.56803550732451
 30
0.0
 11
251.5
 21
-216.56803550732451
 31
0.0
  0
LINE
  5
D5BC
  8
0
 10
209.99999999999989
 20
-259.846541097667
 30
0.0
 11
254.99999999999989
 21
-259.846541097667
 31
0.0
  0
LINE
  5
D5BD
  8
0
 10
223.5
 20
-260.846541097667
 30
0.0
 11
222.5
 21
-259.846541097667
 31
0.0
  0
LINE
  5
D5BE
  8
0
 10
209.99999999999989
 20
-262.846541097667
 30
0.0
 11
254.99999999999989
 21
-262.846541097667
 31
0.0
  0
LINE
  5
D5BF
  8
0
 10
223.5
 20
-262.346541097667
 30
0.0
 11
223.0
 21
-262.846541097667
 31
0.0
  0
LINE
  5
D5C0
  8
1
 10
232.5
 20
-254.846541097667
 30
0.0
 11
232.5
 21
-267.846541097667
 31
0.0
  0
CIRCLE
  5
D5C1
  8
0
 10
232.5
 20
-216.56803550732451
 30
0.0
 40
9.0
  0
CIRCLE
  5
D5C2
  8
1
 10
232.5
 20
-216.56803550732451
 30
0.0
 40
14.0
  0
CIRCLE
  5
D5C3
  8
0
 10
218.5
 20
-216.56803550732451
 30
0.0
 40
1.7
  0
CIRCLE
  5
D5C4
  8
2
 10
218.5
 20
-216.56803550732451
 30
0.0
 40
3.5
  0
LINE
  5
D5C5
  8
1
 10
242.24999999999989
 20
-199.68054013352801
 30
0.0
 11
236.74999999999989
 21
-209.20681957515691
 31
0.0
  0
CIRCLE
  5
D5C6
  8
0
 10
239.49999999999989
 20
-204.44367985434249
 30
0.0
 40
1.7
  0
CIRCLE
  5
D5C7
  8
2
 10
239.49999999999989
 20
-204.44367985434249
 30
0.0
 40
3.5
  0
LINE
  5
D5C8
  8
1
 10
242.25
 20
-233.45553088112121
 30
0.0
 11
236.74999999999989
 21
-223.92925143949239
 31
0.0
  0
CIRCLE
  5
D5C9
  8
0
 10
239.5
 20
-228.6923911603067
 30
0.0
 40
1.6999999999999991
  0
CIRCLE
  5
D5CA
  8
2
 10
239.5
 20
-228.6923911603067
 30
0.0
 40
3.5
  0
LINE
  5
D5CB
  8
0
 10
223.5
 20
-260.846541097667
 30
0.0
 11
223.5
 21
-262.346541097667
 31
0.0
  0
LINE
  5
D5CC
  8
1
 10
218.5
 20
-257.846541097667
 30
0.0
 11
218.5
 21
-264.846541097667
 31
0.0
  0
LINE
  5
D5CD
  8
0
 10
241.5
 20
-260.84654109766711
 30
0.0
 11
242.5
 21
-259.846541097667
 31
0.0
  0
LINE
  5
D5CE
  8
0
 10
241.49999999999989
 20
-262.346541097667
 30
0.0
 11
241.99999999999989
 21
-262.846541097667
 31
0.0
  0
LINE
  5
D5CF
  8
0
 10
241.5
 20
-260.84654109766711
 30
0.0
 11
241.49999999999989
 21
-262.346541097667
 31
0.0
  0
LINE
  5
D5D0
  8
0
 10
223.5
 20
-260.846541097667
 30
0.0
 11
241.5
 21
-260.84654109766723
 31
0.0
  0
LINE
  5
D5D1
  8
0
 10
241.49999999999989
 20
-262.346541097667
 30
0.0
 11
223.5
 21
-262.34654109766711
 31
0.0
  0
LINE
  5
D604
  8
0
 10
216.80000000000001
 20
-259.846541097667
 30
0.0
 11
216.80000000000001
 21
-261.04654109766699
 31
0.0
  0
LINE
  5
D605
  8
0
 10
220.19999999999999
 20
-259.846541097667
 30
0.0
 11
220.19999999999999
 21
-261.04654109766699
 31
0.0
  0
LINE
  5
D606
  8
0
 10
216.80000000000001
 20
-261.04654109766699
 30
0.0
 11
215.0
 21
-262.846541097667
 31
0.0
  0
LINE
  5
D607
  8
0
 10
220.19999999999999
 20
-261.04654109766699
 30
0.0
 11
222.0
 21
-262.846541097667
 31
0.0
  0
LINE
  5
D608
  8
0
 10
216.80000000000001
 20
-261.04654109766699
 30
0.0
 11
220.19999999999999
 21
-261.04654109766699
 31
0.0
  0
TEXT
  5
D609
  8
0
 62
     3
 10
170.0866666666665
 20
-183.64136884065789
 30
0.0
 40
3.2000000000000002
  1
3mmのプレートに固定する場合
 72
     1
 11
197.49999999999989
 21
-184.06803550732459
 31
0.0
 73
     1
  0
TEXT
  5
D60A
  8
0
 62
     3
 10
138.77999999999989
 20
-190.64136884065789
 30
0.0
 40
3.2000000000000002
  1
For installation on plate of 3 mm thickness.
 72
     1
 11
197.49999999999989
 21
-191.06803550732459
 31
0.0
 73
     1
  0
TEXT
  5
D60B
  8
0
 62
     3
 10
310.68666666666661
 20
-183.64136884065789
 30
0.0
 40
3.2000000000000002
  1
3mmを超え6mm未満のプレートに固定する場合
 72
     1
 11
352.5
 21
-184.06803550732459
 31
0.0
 73
     1
  0
TEXT
  5
D60C
  8
0
 62
     3
 10
279.7000000000001
 20
-190.64136884065789
 30
0.0
 40
3.2000000000000002
  1
For installation on plate of over 3 to 6 mm thickness.
 72
     1
 11
352.5
 21
-191.06803550732459
 31
0.0
 73
     1
  0
TEXT
  5
D60F
  8
0
 62
     3
 10
153.4333333333332
 20
-289.74654127797112
 30
0.0
 40
3.2000000000000002
  1
組付け状態
 72
     1
 11
162.49999999999989
 21
-289.74654127797112
 31
0.0
  0
TEXT
  5
D610
  8
0
 62
     3
 10
225.2466666666667
 20
-289.74654127797112
 30
0.0
 40
3.2000000000000002
  1
取付け穴
 72
     1
 11
232.5
 21
-289.74654127797112
 31
0.0
  0
TEXT
  5
D611
  8
0
 62
     3
 10
308.43333333333322
 20
-289.74654127797112
 30
0.0
 40
3.2000000000000002
  1
組付け状態
 72
     1
 11
317.49999999999989
 21
-289.74654127797112
 31
0.0
  0
TEXT
  5
D612
  8
0
 62
     3
 10
380.24666666666673
 20
-289.74654127797112
 30
0.0
 40
3.2000000000000002
  1
取付け穴
 72
     1
 11
387.5
 21
-289.74654127797112
 31
0.0
  0
TEXT
  5
D613
  8
0
 62
     3
 10
137.53999999999991
 20
-296.74654127797112
 30
0.0
 40
3.2000000000000002
  1
Installed condition
 72
     1
 11
162.49999999999989
 21
-296.74654127797112
 31
0.0
  0
TEXT
  5
D614
  8
0
 62
     3
 10
210.4733333333333
 20
-296.74654127797112
 30
0.0
 40
3.2000000000000002
  1
Installation hole
 72
     1
 11
232.5
 21
-296.74654127797112
 31
0.0
  0
TEXT
  5
D615
  8
0
 62
     3
 10
292.53999999999991
 20
-296.74654127797112
 30
0.0
 40
3.2000000000000002
  1
Installed condition
 72
     1
 11
317.49999999999989
 21
-296.74654127797112
 31
0.0
  0
TEXT
  5
D616
  8
0
 62
     3
 10
365.4733333333333
 20
-296.74654127797112
 30
0.0
 40
3.2000000000000002
  1
Installation hole
 72
     1
 11
387.5
 21
-296.74654127797112
 31
0.0
  0
LINE
  5
D682
  8
1
 10
387.5
 20
-194.06803550732451
 30
0.0
 11
387.5
 21
-239.06803550732459
 31
0.0
  0
LINE
  5
D683
  8
1
 10
365.0
 20
-216.56803550732451
 30
0.0
 11
410.0
 21
-216.56803550732451
 31
0.0
  0
LINE
  5
D684
  8
0
 10
370.0
 20
-261.846541097667
 30
0.0
 11
405.0
 21
-261.846541097667
 31
0.0
  0
LINE
  5
D685
  8
0
 10
365.0
 20
-259.846541097667
 30
0.0
 11
410.0
 21
-259.846541097667
 31
0.0
  0
LINE
  5
D686
  8
0
 10
405.0
 20
-260.34654109766689
 30
0.0
 11
405.49999999999989
 21
-259.846541097667
 31
0.0
  0
LINE
  5
D687
  8
0
 10
370.0
 20
-260.34654109766689
 30
0.0
 11
369.5
 21
-259.846541097667
 31
0.0
  0
LINE
  5
D688
  8
0
 10
378.5
 20
-262.846541097667
 30
0.0
 11
377.5
 21
-261.846541097667
 31
0.0
  0
LINE
  5
D689
  8
0
 10
365.0
 20
-264.846541097667
 30
0.0
 11
410.0
 21
-264.846541097667
 31
0.0
  0
LINE
  5
D68A
  8
0
 10
378.5
 20
-264.346541097667
 30
0.0
 11
378.0
 21
-264.846541097667
 31
0.0
  0
LINE
  5
D68B
  8
1
 10
387.5
 20
-254.846541097667
 30
0.0
 11
387.5
 21
-269.846541097667
 31
0.0
  0
CIRCLE
  5
D68C
  8
0
 10
387.5
 20
-216.56803550732451
 30
0.0
 40
9.0
  0
CIRCLE
  5
D68D
  8
1
 10
387.5
 20
-216.56803550732451
 30
0.0
 40
14.0
  0
CIRCLE
  5
D68E
  8
0
 10
373.5
 20
-216.56803550732451
 30
0.0
 40
1.7
  0
CIRCLE
  5
D68F
  8
2
 10
373.5
 20
-216.56803550732451
 30
0.0
 40
3.5
  0
LINE
  5
D690
  8
1
 10
397.25
 20
-199.68054013352801
 30
0.0
 11
391.75
 21
-209.20681957515691
 31
0.0
  0
CIRCLE
  5
D691
  8
0
 10
394.5
 20
-204.44367985434249
 30
0.0
 40
1.7
  0
CIRCLE
  5
D692
  8
2
 10
394.5
 20
-204.44367985434249
 30
0.0
 40
3.5
  0
LINE
  5
D693
  8
1
 10
397.25
 20
-233.45553088112121
 30
0.0
 11
391.75
 21
-223.92925143949239
 31
0.0
  0
CIRCLE
  5
D694
  8
0
 10
394.5
 20
-228.6923911603067
 30
0.0
 40
1.6999999999999991
  0
CIRCLE
  5
D695
  8
2
 10
394.5
 20
-228.6923911603067
 30
0.0
 40
3.5
  0
LINE
  5
D696
  8
0
 10
378.5
 20
-262.846541097667
 30
0.0
 11
378.5
 21
-264.346541097667
 31
0.0
  0
LINE
  5
D697
  8
1
 10
373.5
 20
-259.846541097667
 30
0.0
 11
373.5
 21
-266.846541097667
 31
0.0
  0
LINE
  5
D698
  8
0
 10
396.5
 20
-262.846541097667
 30
0.0
 11
397.5
 21
-261.846541097667
 31
0.0
  0
LINE
  5
D699
  8
0
 10
396.5
 20
-264.346541097667
 30
0.0
 11
397.0
 21
-264.846541097667
 31
0.0
  0
LINE
  5
D69A
  8
0
 10
396.5
 20
-262.846541097667
 30
0.0
 11
396.5
 21
-264.346541097667
 31
0.0
  0
LINE
  5
D69B
  8
0
 10
378.5
 20
-262.846541097667
 30
0.0
 11
396.5
 21
-262.84654109766723
 31
0.0
  0
LINE
  5
D69C
  8
0
 10
396.5
 20
-264.346541097667
 30
0.0
 11
378.5
 21
-264.34654109766711
 31
0.0
  0
LINE
  5
D69D
  8
0
 10
371.80000000000013
 20
-261.846541097667
 30
0.0
 11
371.80000000000013
 21
-263.04654109766687
 31
0.0
  0
LINE
  5
D69E
  8
0
 10
375.2000000000001
 20
-261.846541097667
 30
0.0
 11
375.2000000000001
 21
-263.04654109766687
 31
0.0
  0
LINE
  5
D69F
  8
0
 10
371.80000000000013
 20
-263.04654109766687
 30
0.0
 11
370.0
 21
-264.846541097667
 31
0.0
  0
LINE
  5
D6A0
  8
0
 10
375.2000000000001
 20
-263.04654109766687
 30
0.0
 11
377.0
 21
-264.846541097667
 31
0.0
  0
LINE
  5
D6A1
  8
0
 10
371.80000000000013
 20
-263.04654109766687
 30
0.0
 11
375.2000000000001
 21
-263.04654109766687
 31
0.0
  0
CIRCLE
  5
D6A2
  8
0
 10
387.5
 20
-216.56803550732451
 30
0.0
 40
17.5
  0
LINE
  5
D6A3
  8
0
 10
405.0
 20
-261.846541097667
 30
0.0
 11
405.0
 21
-260.34654109766689
 31
0.0
  0
LINE
  5
D6A4
  8
0
 10
370.0
 20
-261.846541097667
 30
0.0
 11
370.0
 21
-260.34654109766689
 31
0.0
  0
LINE
  5
D6A5
  8
0
 10
370.0
 20
-260.34654109766689
 30
0.0
 11
405.0
 21
-260.34654109766689
 31
0.0
  0
LINE
  5
D6C7
  8
0
 10
139.99999999999989
 20
-259.846541097667
 30
0.0
 11
184.99999999999989
 21
-259.846541097667
 31
0.0
  0
LINE
  5
D6C8
  8
0
 10
153.5
 20
-260.846541097667
 30
0.0
 11
152.5
 21
-259.846541097667
 31
0.0
  0
LINE
  5
D6C9
  8
0
 10
139.99999999999989
 20
-262.846541097667
 30
0.0
 11
158.49999981001011
 21
-262.846541097667
 31
0.0
  0
LINE
  5
D6CA
  8
0
 10
153.5
 20
-262.346541097667
 30
0.0
 11
153.0
 21
-262.846541097667
 31
0.0
  0
LINE
  5
D6CC
  8
0
 10
153.5
 20
-259.846541097667
 30
0.0
 11
153.5
 21
-262.346541097667
 31
0.0
  0
LINE
  5
D6CE
  8
0
 10
171.5
 20
-260.84654109766711
 30
0.0
 11
172.5
 21
-259.846541097667
 31
0.0
  0
LINE
  5
D6CF
  8
0
 10
171.49999999999989
 20
-262.346541097667
 30
0.0
 11
171.99999999999989
 21
-262.846541097667
 31
0.0
  0
LINE
  5
D6D0
  8
0
 10
171.5
 20
-259.846541097667
 30
0.0
 11
171.49999999999989
 21
-262.346541097667
 31
0.0
  0
LINE
  5
D6D2
  8
0
 10
171.49999999999989
 20
-262.346541097667
 30
0.0
 11
153.5
 21
-262.34654109766711
 31
0.0
  0
LINE
  5
D6D3
  8
0
 10
146.7999999999999
 20
-259.846541097667
 30
0.0
 11
146.7999999999999
 21
-261.04654109766699
 31
0.0
  0
LINE
  5
D6D4
  8
0
 10
150.19999999999999
 20
-259.846541097667
 30
0.0
 11
150.19999999999999
 21
-261.04654109766699
 31
0.0
  0
LINE
  5
D6D5
  8
0
 10
146.7999999999999
 20
-261.04654109766699
 30
0.0
 11
145.0
 21
-262.846541097667
 31
0.0
  0
LINE
  5
D6D6
  8
0
 10
150.19999999999999
 20
-261.04654109766699
 30
0.0
 11
152.0
 21
-262.846541097667
 31
0.0
  0
LINE
  5
D6D7
  8
0
 10
146.7999999999999
 20
-261.04654109766699
 30
0.0
 11
146.99999999999989
 21
-261.04654109766699
 31
0.0
  0
LINE
  5
D6D8
  8
0
 10
300.0
 20
-261.846541097667
 30
0.0
 11
335.0
 21
-261.846541097667
 31
0.0
  0
LINE
  5
D6D9
  8
0
 10
295.0
 20
-259.846541097667
 30
0.0
 11
300.49999907612801
 21
-259.846541097667
 31
0.0
  0
LINE
  5
D6DA
  8
0
 10
335.0
 20
-260.34654109766689
 30
0.0
 11
335.5
 21
-259.846541097667
 31
0.0
  0
LINE
  5
D6DB
  8
0
 10
300.0
 20
-260.34654109766689
 30
0.0
 11
299.5
 21
-259.846541097667
 31
0.0
  0
LINE
  5
D6DC
  8
0
 10
308.5
 20
-262.846541097667
 30
0.0
 11
307.5
 21
-261.846541097667
 31
0.0
  0
LINE
  5
D6DD
  8
0
 10
295.0
 20
-264.846541097667
 30
0.0
 11
313.49999981001031
 21
-264.846541097667
 31
0.0
  0
LINE
  5
D6DE
  8
0
 10
308.5
 20
-264.346541097667
 30
0.0
 11
308.0
 21
-264.846541097667
 31
0.0
  0
LINE
  5
D6E0
  8
0
 10
308.5
 20
-261.846541097667
 30
0.0
 11
308.5
 21
-264.346541097667
 31
0.0
  0
LINE
  5
D6E2
  8
0
 10
326.5
 20
-262.846541097667
 30
0.0
 11
327.5
 21
-261.846541097667
 31
0.0
  0
LINE
  5
D6E3
  8
0
 10
326.5
 20
-264.346541097667
 30
0.0
 11
327.0
 21
-264.846541097667
 31
0.0
  0
LINE
  5
D6E4
  8
0
 10
326.5
 20
-261.846541097667
 30
0.0
 11
326.5
 21
-264.346541097667
 31
0.0
  0
LINE
  5
D6E6
  8
0
 10
326.5
 20
-264.346541097667
 30
0.0
 11
308.5
 21
-264.34654109766711
 31
0.0
  0
LINE
  5
D6E7
  8
0
 10
301.80000000000013
 20
-261.846541097667
 30
0.0
 11
301.80000000000013
 21
-263.04654109766687
 31
0.0
  0
LINE
  5
D6E8
  8
0
 10
305.19999999999999
 20
-261.846541097667
 30
0.0
 11
305.19999999999999
 21
-263.04654109766687
 31
0.0
  0
LINE
  5
D6E9
  8
0
 10
301.80000000000013
 20
-263.04654109766687
 30
0.0
 11
300.0
 21
-264.846541097667
 31
0.0
  0
LINE
  5
D6EA
  8
0
 10
305.19999999999999
 20
-263.04654109766687
 30
0.0
 11
307.0
 21
-264.846541097667
 31
0.0
  0
LINE
  5
D6EB
  8
0
 10
301.80000000000013
 20
-263.04654109766687
 30
0.0
 11
302.0
 21
-263.04654109766699
 31
0.0
  0
LINE
  5
D6EC
  8
0
 10
335.0
 20
-261.846541097667
 30
0.0
 11
335.0
 21
-260.34654109766689
 31
0.0
  0
LINE
  5
D6ED
  8
0
 10
300.0
 20
-261.846541097667
 30
0.0
 11
300.0
 21
-260.34654109766689
 31
0.0
  0
LINE
  5
D6EE
  8
0
 10
300.0
 20
-260.34654109766689
 30
0.0
 11
300.49999907612801
 21
-260.34654109766689
 31
0.0
  0
LINE
  5
D6F6
  8
0
 10
169.99999983236191
 20
-246.84654129510739
 30
0.0
 11
169.99999983236191
 21
-246.3465402818284
 31
0.0
  0
LINE
  5
D6F7
  8
0
 10
155.00000016763809
 20
-246.3465402818284
 30
0.0
 11
155.00000016763809
 21
-246.84654129510739
 31
0.0
  0
LINE
  5
D6F8
  8
0
 10
169.99999983236191
 20
-246.3465402818284
 30
0.0
 11
169.50000021606681
 21
-245.84654113119461
 31
0.0
  0
LINE
  5
D6F9
  8
0
 10
155.49999978393319
 20
-245.84654113119461
 30
0.0
 11
155.00000016763809
 21
-246.3465402818284
 31
0.0
  0
LINE
  5
D6FA
  8
0
 10
166.50000018998981
 20
-266.44654106190421
 30
0.0
 11
166.50000018998981
 21
-262.34654104178759
 31
0.0
  0
LINE
  5
D6FB
  8
0
 10
166.50000018998981
 20
-270.94654110101982
 30
0.0
 11
166.50000018998981
 21
-270.4465411354787
 31
0.0
  0
LINE
  5
D6FC
  8
0
 10
158.49999981001011
 20
-270.4465411354787
 30
0.0
 11
158.49999981001011
 21
-270.94654110101982
 31
0.0
  0
LINE
  5
D6FD
  8
0
 10
158.49999981001011
 20
-262.34654104178759
 30
0.0
 11
158.49999981001011
 21
-266.44654106190421
 31
0.0
  0
LINE
  5
D6FE
  8
0
 10
158.49999981001011
 20
-270.94654110101982
 30
0.0
 11
159.9433756433427
 21
-273.44654127797111
 31
0.0
  0
LINE
  5
D6FF
  8
0
 10
165.05662435665721
 20
-273.44654127797111
 30
0.0
 11
166.50000018998981
 21
-270.94654110101982
 31
0.0
  0
LINE
  5
D700
  8
0
 10
155.800000205636
 20
-270.4465411354787
 30
0.0
 11
158.49999981001011
 21
-270.4465411354787
 31
0.0
  0
LINE
  5
D701
  8
0
 10
166.50000018998981
 20
-270.4465411354787
 30
0.0
 11
169.19999979436389
 21
-270.4465411354787
 31
0.0
  0
LINE
  5
D702
  8
0
 10
169.19999979436389
 20
-266.44654106190421
 30
0.0
 11
166.50000018998981
 21
-266.44654106190421
 31
0.0
  0
LINE
  5
D703
  8
0
 10
158.49999981001011
 20
-266.44654106190421
 30
0.0
 11
155.800000205636
 21
-266.44654106190421
 31
0.0
  0
LINE
  5
D704
  8
0
 10
169.19999979436389
 20
-270.4465411354787
 30
0.0
 11
169.50000021606681
 21
-270.14654117943712
 31
0.0
  0
LINE
  5
D705
  8
0
 10
169.50000021606681
 20
-266.74654125077637
 30
0.0
 11
169.19999979436389
 21
-266.44654106190421
 31
0.0
  0
LINE
  5
D706
  8
0
 10
155.800000205636
 20
-266.44654106190421
 30
0.0
 11
155.49999978393319
 21
-266.74654125077637
 31
0.0
  0
LINE
  5
D707
  8
0
 10
155.49999978393319
 20
-270.14654117943712
 30
0.0
 11
155.800000205636
 21
-270.4465411354787
 31
0.0
  0
LINE
  5
D70C
  8
0
 10
179.50000092387191
 20
-256.34654098963358
 30
0.0
 11
179.50000092387191
 21
-250.18553202813479
 31
0.0
  0
LINE
  5
D70D
  8
0
 10
145.49999907612801
 20
-250.18553202813479
 30
0.0
 11
145.49999907612801
 21
-256.34654098963358
 31
0.0
  0
ARC
  5
D70E
  8
0
 10
146.5
 20
-250.1855329125377
 30
0.0
 40
1.00000000000001
 50
109.9999999999992
 51
180.0
  0
ARC
  5
D70F
  8
0
 10
178.5
 20
-250.1855329125377
 30
0.0
 40
1.000000000000014
 50
0.0
 51
70.000000000003425
  0
LINE
  5
D710
  8
0
 10
145.49999907612801
 20
-256.34654098963358
 30
0.0
 11
146.000000089407
 21
-256.84654107159002
 31
0.0
  0
LINE
  5
D711
  8
0
 10
178.999999910593
 20
-256.84654107159002
 30
0.0
 11
179.50000092387191
 21
-256.34654098963358
 31
0.0
  0
LINE
  5
D712
  8
0
 10
178.84201966226101
 20
-249.2458405888639
 30
0.0
 11
172.25000020116559
 21
-246.84654129510739
 31
0.0
  0
LINE
  5
D713
  8
0
 10
152.7499997988343
 20
-246.84654129510739
 30
0.0
 11
146.15798033773899
 21
-249.2458405888639
 31
0.0
  0
LINE
  5
D716
  8
0
 10
153.50000038743019
 20
-261.34654134353622
 30
0.0
 11
154.49999962002039
 21
-262.34654104178759
 31
0.0
  0
LINE
  5
D719
  8
0
 10
155.49999978393319
 20
-245.84654113119461
 30
0.0
 11
169.5000002160667
 21
-245.84654113119461
 31
0.0
  0
LINE
  5
D71A
  8
0
 10
158.49999981001011
 20
-270.94654110101982
 30
0.0
 11
166.50000018998981
 21
-270.94654110101982
 31
0.0
  0
POLYLINE
  5
D71B
  8
0
 66
     1
 10
0.0
 20
0.0
 30
0.0
 70
   128
  0
VERTEX
  5
DB98
  8
0
 10
166.49672705680129
 20
-266.45309827132138
 30
0.0
  0
VERTEX
  5
DB99
  8
0
 10
166.4982567541301
 20
-266.45003026193001
 30
0.0
  0
VERTEX
  5
DB9A
  8
0
 10
166.4783641695976
 20
-266.49017189471039
 30
0.0
  0
VERTEX
  5
DB9B
  8
0
 10
166.43657758831969
 20
-266.57661027116689
 30
0.0
  0
VERTEX
  5
DB9C
  8
0
 10
166.37781718745819
 20
-266.70370809575542
 30
0.0
  0
VERTEX
  5
DB9D
  8
0
 10
166.30482967011631
 20
-266.8727785333059
 30
0.0
  0
VERTEX
  5
DB9E
  8
0
 10
166.2194259930402
 20
-267.09224039064708
 30
0.0
  0
VERTEX
  5
DB9F
  8
0
 10
166.13226188346741
 20
-267.35414611017319
 30
0.0
  0
VERTEX
  5
DBA0
  8
0
 10
166.05262076482171
 20
-267.65843340968712
 30
0.0
  0
VERTEX
  5
DBA1
  8
0
 10
165.99252019077531
 20
-268.00190924974152
 30
0.0
  0
VERTEX
  5
DBA2
  8
0
 10
165.96630625426761
 20
-268.32293439498159
 30
0.0
  0
VERTEX
  5
DBA3
  8
0
 10
165.97068021073929
 20
-268.66013074892101
 30
0.0
  0
VERTEX
  5
DBA4
  8
0
 10
165.99980453029269
 20
-268.94517155438649
 30
0.0
  0
VERTEX
  5
DBA5
  8
0
 10
166.05034437961871
 20
-269.22432312699959
 30
0.0
  0
VERTEX
  5
DBA6
  8
0
 10
166.11764966510231
 20
-269.48932034270831
 30
0.0
  0
VERTEX
  5
DBA7
  8
0
 10
166.1958588752895
 20
-269.73470771759742
 30
0.0
  0
VERTEX
  5
DBA8
  8
0
 10
166.284229978919
 20
-269.96982563128688
 30
0.0
  0
VERTEX
  5
DBA9
  8
0
 10
166.36850791983301
 20
-270.16856125397601
 30
0.0
  0
VERTEX
  5
DBAA
  8
0
 10
166.43703719601029
 20
-270.31743968678632
 30
0.0
  0
VERTEX
  5
DBAB
  8
0
 10
166.48377049714321
 20
-270.41388116618612
 30
0.0
  0
VERTEX
  5
DBAC
  8
0
 10
166.4997659623622
 20
-270.4460733787156
 30
0.0
  0
VERTEX
  5
DBAD
  8
0
 10
166.49845698848361
 20
-270.44344460433342
 30
0.0
  0
SEQEND
  5
DBAE
  8
0
  0
POLYLINE
  5
D71C
  8
0
 66
     1
 10
0.0
 20
0.0
 30
0.0
 70
   128
  0
VERTEX
  5
DBAF
  8
0
 10
158.5032729431986
 20
-270.43998415889212
 30
0.0
  0
VERTEX
  5
DBB0
  8
0
 10
158.50174324586979
 20
-270.44305205186822
 30
0.0
  0
VERTEX
  5
DBB1
  8
0
 10
158.52163583040229
 20
-270.40291053550311
 30
0.0
  0
VERTEX
  5
DBB2
  8
0
 10
158.56342241168019
 20
-270.31647204263129
 30
0.0
  0
VERTEX
  5
DBB3
  8
0
 10
158.62218281254169
 20
-270.18937410162749
 30
0.0
  0
VERTEX
  5
DBB4
  8
0
 10
158.69517032988361
 20
-270.02030389690759
 30
0.0
  0
VERTEX
  5
DBB5
  8
0
 10
158.78057400695971
 20
-269.8008419231511
 30
0.0
  0
VERTEX
  5
DBB6
  8
0
 10
158.86773811653251
 20
-269.53893626183259
 30
0.0
  0
VERTEX
  5
DBB7
  8
0
 10
158.9473792351782
 20
-269.234648933215
 30
0.0
  0
VERTEX
  5
DBB8
  8
0
 10
159.00747980922461
 20
-268.89117307860857
 30
0.0
  0
VERTEX
  5
DBB9
  8
0
 10
159.03369374573231
 20
-268.57014797702419
 30
0.0
  0
VERTEX
  5
DBBA
  8
0
 10
159.0293197892606
 20
-268.23295157942908
 30
0.0
  0
VERTEX
  5
DBBB
  8
0
 10
159.00019546970719
 20
-267.94791081761929
 30
0.0
  0
VERTEX
  5
DBBC
  8
0
 10
158.94965562038121
 20
-267.66875921590253
 30
0.0
  0
VERTEX
  5
DBBD
  8
0
 10
158.88235033489761
 20
-267.40376197108992
 30
0.0
  0
VERTEX
  5
DBBE
  8
0
 10
158.80414112471041
 20
-267.15837465440848
 30
0.0
  0
VERTEX
  5
DBBF
  8
0
 10
158.71577002108091
 20
-266.92325668251141
 30
0.0
  0
VERTEX
  5
DBC0
  8
0
 10
158.63149208016691
 20
-266.72452105982222
 30
0.0
  0
VERTEX
  5
DBC1
  8
0
 10
158.56296280398959
 20
-266.57564262701192
 30
0.0
  0
VERTEX
  5
DBC2
  8
0
 10
158.5162295028567
 20
-266.47920114761212
 30
0.0
  0
VERTEX
  5
DBC3
  8
0
 10
158.50023403763771
 20
-266.44700881866731
 30
0.0
  0
VERTEX
  5
DBC4
  8
0
 10
158.5015430115163
 20
-266.44963770946481
 30
0.0
  0
SEQEND
  5
DBC5
  8
0
  0
LINE
  5
D71D
  8
0
 10
165.05662435665721
 20
-273.44654127797111
 30
0.0
 11
159.9433756433427
 21
-273.44654127797111
 31
0.0
  0
LINE
  5
D71E
  8
0
 10
169.19999979436389
 20
-270.4465411354787
 30
0.0
 11
169.19999979436389
 21
-266.44654106190421
 31
0.0
  0
LINE
  5
D71F
  8
0
 10
155.800000205636
 20
-266.44654106190421
 30
0.0
 11
155.800000205636
 21
-270.4465411354787
 31
0.0
  0
LINE
  5
D720
  8
0
 10
169.50000021606681
 20
-266.74654125077637
 30
0.0
 11
169.50000021606681
 21
-270.14654117943712
 31
0.0
  0
LINE
  5
D721
  8
0
 10
155.49999978393319
 20
-270.14654117943712
 30
0.0
 11
155.49999978393319
 21
-266.74654125077637
 31
0.0
  0
LINE
  5
D725
  8
0
 10
172.25000020116559
 20
-246.84654129510739
 30
0.0
 11
152.7499997988343
 21
-246.84654129510739
 31
0.0
  0
LINE
  5
D731
  8
0
 10
153.50000038743019
 20
-261.34654134353622
 30
0.0
 11
171.4999996125697
 21
-261.34654134353622
 31
0.0
  0
LINE
  5
D732
  8
0
 10
146.15798033773899
 20
-249.2458405888639
 30
0.0
 11
178.84201966226101
 21
-249.2458405888639
 31
0.0
  0
LINE
  5
D733
  8
1
 10
162.5
 20
-278.44654127797099
 30
0.0
 11
162.5
 21
-240.84654113119461
 31
0.0
  0
LINE
  5
D734
  8
1
 10
153.49999978393319
 20
-268.44654107158988
 30
0.0
 11
171.50000021606681
 21
-268.44654107158988
 31
0.0
  0
LINE
  5
D735
  8
1
 10
148.4999995678663
 20
-264.846541097667
 30
0.0
 11
148.4999995678663
 21
-254.84654107159
 31
0.0
  0
LINE
  5
D747
  8
0
 10
324.99999983236199
 20
-248.84654129510739
 30
0.0
 11
324.99999983236199
 21
-248.3465402818284
 31
0.0
  0
LINE
  5
D748
  8
0
 10
310.00000016763812
 20
-248.3465402818284
 30
0.0
 11
310.00000016763812
 21
-248.84654129510739
 31
0.0
  0
LINE
  5
D749
  8
0
 10
324.99999983236199
 20
-248.3465402818284
 30
0.0
 11
324.50000021606689
 21
-247.84654113119461
 31
0.0
  0
LINE
  5
D74A
  8
0
 10
310.49999978393322
 20
-247.84654113119461
 30
0.0
 11
310.00000016763812
 21
-248.3465402818284
 31
0.0
  0
LINE
  5
D74B
  8
0
 10
321.50000018998981
 20
-268.44654106190421
 30
0.0
 11
321.50000018998981
 21
-264.34654104178759
 31
0.0
  0
LINE
  5
D74C
  8
0
 10
321.50000018998981
 20
-272.94654110101982
 30
0.0
 11
321.50000018998981
 21
-272.4465411354787
 31
0.0
  0
LINE
  5
D74D
  8
0
 10
313.49999981001019
 20
-272.4465411354787
 30
0.0
 11
313.49999981001019
 21
-272.94654110101982
 31
0.0
  0
LINE
  5
D74E
  8
0
 10
313.49999981001019
 20
-264.34654104178759
 30
0.0
 11
313.49999981001019
 21
-268.44654106190421
 31
0.0
  0
LINE
  5
D74F
  8
0
 10
313.49999981001019
 20
-272.94654110101982
 30
0.0
 11
314.94337564334279
 21
-275.44654127797111
 31
0.0
  0
LINE
  5
D750
  8
0
 10
320.05662435665732
 20
-275.44654127797111
 30
0.0
 11
321.50000018998981
 21
-272.94654110101982
 31
0.0
  0
LINE
  5
D751
  8
0
 10
310.80000020563608
 20
-272.4465411354787
 30
0.0
 11
313.49999981001019
 21
-272.4465411354787
 31
0.0
  0
LINE
  5
D752
  8
0
 10
321.50000018998981
 20
-272.4465411354787
 30
0.0
 11
324.19999979436398
 21
-272.4465411354787
 31
0.0
  0
LINE
  5
D753
  8
0
 10
324.19999979436398
 20
-268.44654106190421
 30
0.0
 11
321.50000018998981
 21
-268.44654106190421
 31
0.0
  0
LINE
  5
D754
  8
0
 10
313.49999981001019
 20
-268.44654106190421
 30
0.0
 11
310.80000020563608
 21
-268.44654106190421
 31
0.0
  0
LINE
  5
D755
  8
0
 10
324.19999979436398
 20
-272.4465411354787
 30
0.0
 11
324.50000021606689
 21
-272.14654117943712
 31
0.0
  0
LINE
  5
D756
  8
0
 10
324.50000021606689
 20
-268.74654125077637
 30
0.0
 11
324.19999979436398
 21
-268.44654106190421
 31
0.0
  0
LINE
  5
D757
  8
0
 10
310.80000020563608
 20
-268.44654106190421
 30
0.0
 11
310.49999978393322
 21
-268.74654125077637
 31
0.0
  0
LINE
  5
D758
  8
0
 10
310.49999978393322
 20
-272.14654117943712
 30
0.0
 11
310.80000020563608
 21
-272.4465411354787
 31
0.0
  0
LINE
  5
D75D
  8
0
 10
334.50000092387199
 20
-258.34654098963358
 30
0.0
 11
334.50000092387199
 21
-252.18553202813479
 31
0.0
  0
LINE
  5
D75E
  8
0
 10
300.49999907612812
 20
-252.18553202813479
 30
0.0
 11
300.49999907612812
 21
-258.34654098963358
 31
0.0
  0
ARC
  5
D75F
  8
0
 10
301.50000000000011
 20
-252.1855329125377
 30
0.0
 40
1.00000000000001
 50
109.9999999999999
 51
180.0
  0
ARC
  5
D760
  8
0
 10
333.5
 20
-252.1855329125377
 30
0.0
 40
1.000000000000014
 50
0.0
 51
70.000000000003425
  0
LINE
  5
D761
  8
0
 10
300.49999907612812
 20
-258.34654098963358
 30
0.0
 11
301.00000008940702
 21
-258.84654107159002
 31
0.0
  0
LINE
  5
D762
  8
0
 10
333.99999991059309
 20
-258.84654107159002
 30
0.0
 11
334.50000092387199
 21
-258.34654098963358
 31
0.0
  0
LINE
  5
D763
  8
0
 10
333.84201966226101
 20
-251.2458405888639
 30
0.0
 11
327.25000020116568
 21
-248.84654129510739
 31
0.0
  0
LINE
  5
D764
  8
0
 10
307.74999979883438
 20
-248.84654129510739
 30
0.0
 11
301.1579803377391
 21
-251.2458405888639
 31
0.0
  0
LINE
  5
D767
  8
0
 10
308.5000003874303
 20
-263.34654134353622
 30
0.0
 11
309.4999996200205
 21
-264.34654104178759
 31
0.0
  0
LINE
  5
D76A
  8
0
 10
310.49999978393322
 20
-247.84654113119461
 30
0.0
 11
324.50000021606678
 21
-247.84654113119461
 31
0.0
  0
LINE
  5
D76B
  8
0
 10
313.49999981001019
 20
-272.94654110101982
 30
0.0
 11
321.50000018998981
 21
-272.94654110101982
 31
0.0
  0
POLYLINE
  5
D76C
  8
0
 66
     1
 10
0.0
 20
0.0
 30
0.0
 70
   128
  0
VERTEX
  5
DBC6
  8
0
 10
321.49672705680132
 20
-268.45309827132138
 30
0.0
  0
VERTEX
  5
DBC7
  8
0
 10
321.49825675413013
 20
-268.45003026193001
 30
0.0
  0
VERTEX
  5
DBC8
  8
0
 10
321.47836416959763
 20
-268.49017189471039
 30
0.0
  0
VERTEX
  5
DBC9
  8
0
 10
321.43657758831978
 20
-268.57661027116689
 30
0.0
  0
VERTEX
  5
DBCA
  8
0
 10
321.37781718745828
 20
-268.70370809575542
 30
0.0
  0
VERTEX
  5
DBCB
  8
0
 10
321.30482967011631
 20
-268.8727785333059
 30
0.0
  0
VERTEX
  5
DBCC
  8
0
 10
321.2194259930402
 20
-269.09224039064708
 30
0.0
  0
VERTEX
  5
DBCD
  8
0
 10
321.13226188346749
 20
-269.35414611017319
 30
0.0
  0
VERTEX
  5
DBCE
  8
0
 10
321.05262076482182
 20
-269.65843340968712
 30
0.0
  0
VERTEX
  5
DBCF
  8
0
 10
320.99252019077539
 20
-270.00190924974152
 30
0.0
  0
VERTEX
  5
DBD0
  8
0
 10
320.96630625426769
 20
-270.32293439498159
 30
0.0
  0
VERTEX
  5
DBD1
  8
0
 10
320.97068021073937
 20
-270.66013074892101
 30
0.0
  0
VERTEX
  5
DBD2
  8
0
 10
320.99980453029281
 20
-270.94517155438649
 30
0.0
  0
VERTEX
  5
DBD3
  8
0
 10
321.05034437961882
 20
-271.22432312699959
 30
0.0
  0
VERTEX
  5
DBD4
  8
0
 10
321.11764966510242
 20
-271.48932034270831
 30
0.0
  0
VERTEX
  5
DBD5
  8
0
 10
321.19585887528962
 20
-271.73470771759742
 30
0.0
  0
VERTEX
  5
DBD6
  8
0
 10
321.28422997891909
 20
-271.96982563128688
 30
0.0
  0
VERTEX
  5
DBD7
  8
0
 10
321.36850791983312
 20
-272.16856125397601
 30
0.0
  0
VERTEX
  5
DBD8
  8
0
 10
321.43703719601041
 20
-272.31743968678632
 30
0.0
  0
VERTEX
  5
DBD9
  8
0
 10
321.48377049714333
 20
-272.41388116618612
 30
0.0
  0
VERTEX
  5
DBDA
  8
0
 10
321.49976596236229
 20
-272.4460733787156
 30
0.0
  0
VERTEX
  5
DBDB
  8
0
 10
321.49845698848372
 20
-272.44344460433342
 30
0.0
  0
SEQEND
  5
DBDC
  8
0
  0
POLYLINE
  5
D76D
  8
0
 66
     1
 10
0.0
 20
0.0
 30
0.0
 70
   128
  0
VERTEX
  5
DBDD
  8
0
 10
313.50327294319868
 20
-272.43998415889212
 30
0.0
  0
VERTEX
  5
DBDE
  8
0
 10
313.50174324586987
 20
-272.44305205186822
 30
0.0
  0
VERTEX
  5
DBDF
  8
0
 10
313.52163583040237
 20
-272.40291053550311
 30
0.0
  0
VERTEX
  5
DBE0
  8
0
 10
313.56342241168022
 20
-272.31647204263129
 30
0.0
  0
VERTEX
  5
DBE1
  8
0
 10
313.62218281254172
 20
-272.18937410162761
 30
0.0
  0
VERTEX
  5
DBE2
  8
0
 10
313.69517032988369
 20
-272.02030389690771
 30
0.0
  0
VERTEX
  5
DBE3
  8
0
 10
313.7805740069598
 20
-271.8008419231511
 30
0.0
  0
VERTEX
  5
DBE4
  8
0
 10
313.86773811653262
 20
-271.53893626183259
 30
0.0
  0
VERTEX
  5
DBE5
  8
0
 10
313.94737923517829
 20
-271.234648933215
 30
0.0
  0
VERTEX
  5
DBE6
  8
0
 10
314.00747980922461
 20
-270.89117307860857
 30
0.0
  0
VERTEX
  5
DBE7
  8
0
 10
314.03369374573231
 20
-270.57014797702431
 30
0.0
  0
VERTEX
  5
DBE8
  8
0
 10
314.02931978926063
 20
-270.23295157942908
 30
0.0
  0
VERTEX
  5
DBE9
  8
0
 10
314.00019546970731
 20
-269.94791081761929
 30
0.0
  0
VERTEX
  5
DBEA
  8
0
 10
313.94965562038129
 20
-269.66875921590253
 30
0.0
  0
VERTEX
  5
DBEB
  8
0
 10
313.88235033489769
 20
-269.40376197108992
 30
0.0
  0
VERTEX
  5
DBEC
  8
0
 10
313.8041411247105
 20
-269.15837465440848
 30
0.0
  0
VERTEX
  5
DBED
  8
0
 10
313.71577002108103
 20
-268.92325668251141
 30
0.0
  0
VERTEX
  5
DBEE
  8
0
 10
313.63149208016699
 20
-268.72452105982222
 30
0.0
  0
VERTEX
  5
DBEF
  8
0
 10
313.56296280398971
 20
-268.57564262701192
 30
0.0
  0
VERTEX
  5
DBF0
  8
0
 10
313.51622950285679
 20
-268.47920114761212
 30
0.0
  0
VERTEX
  5
DBF1
  8
0
 10
313.50023403763771
 20
-268.44700881866731
 30
0.0
  0
VERTEX
  5
DBF2
  8
0
 10
313.50154301151639
 20
-268.44963770946481
 30
0.0
  0
SEQEND
  5
DBF3
  8
0
  0
LINE
  5
D76E
  8
0
 10
320.05662435665732
 20
-275.44654127797111
 30
0.0
 11
314.94337564334279
 21
-275.44654127797111
 31
0.0
  0
LINE
  5
D76F
  8
0
 10
324.19999979436398
 20
-272.4465411354787
 30
0.0
 11
324.19999979436398
 21
-268.44654106190421
 31
0.0
  0
LINE
  5
D770
  8
0
 10
310.80000020563608
 20
-268.44654106190421
 30
0.0
 11
310.80000020563608
 21
-272.4465411354787
 31
0.0
  0
LINE
  5
D771
  8
0
 10
324.50000021606689
 20
-268.74654125077637
 30
0.0
 11
324.50000021606689
 21
-272.14654117943712
 31
0.0
  0
LINE
  5
D772
  8
0
 10
310.49999978393322
 20
-272.14654117943712
 30
0.0
 11
310.49999978393322
 21
-268.74654125077637
 31
0.0
  0
LINE
  5
D776
  8
0
 10
327.25000020116568
 20
-248.84654129510739
 30
0.0
 11
307.74999979883438
 21
-248.84654129510739
 31
0.0
  0
LINE
  5
D782
  8
0
 10
308.5000003874303
 20
-263.34654134353622
 30
0.0
 11
326.49999961257089
 21
-263.34654134353622
 31
0.0
  0
LINE
  5
D783
  8
0
 10
301.1579803377391
 20
-251.2458405888639
 30
0.0
 11
333.84201966226101
 21
-251.2458405888639
 31
0.0
  0
LINE
  5
D784
  8
1
 10
317.5
 20
-280.44654127797099
 30
0.0
 11
317.5
 21
-242.84654113119461
 31
0.0
  0
LINE
  5
D785
  8
1
 10
308.49999978393322
 20
-270.44654107158988
 30
0.0
 11
326.50000021606689
 21
-270.44654107158988
 31
0.0
  0
LINE
  5
D808
  8
0
 10
179.50000092387191
 20
-259.34654101571073
 30
0.0
 11
179.50000092387191
 21
-257.34654115354641
 31
0.0
  0
LINE
  5
D809
  8
0
 10
178.99999991059289
 20
-259.846541097667
 30
0.0
 11
179.50000092387191
 21
-259.34654101571073
 31
0.0
  0
LINE
  5
D80A
  8
0
 10
179.50000092387191
 20
-257.34654115354641
 30
0.0
 11
178.99999991059289
 21
-256.84654107159002
 31
0.0
  0
LINE
  5
D80C
  8
0
 10
145.49999907612789
 20
-257.34654115354641
 30
0.0
 11
145.49999907612789
 21
-259.34654101571061
 31
0.0
  0
LINE
  5
D80E
  8
0
 10
145.49999907612789
 20
-259.34654101571061
 30
0.0
 11
146.0000000894068
 21
-259.846541097667
 31
0.0
  0
LINE
  5
D810
  8
0
 10
146.0000000894068
 20
-256.84654107159002
 30
0.0
 11
178.99999991059289
 21
-256.84654107159002
 31
0.0
  0
LINE
  5
D811
  8
0
 10
146.0000000894068
 20
-256.84654107159002
 30
0.0
 11
145.49999907612789
 21
-257.34654115354641
 31
0.0
  0
LINE
  5
D84E
  8
0
 10
149.99999999999989
 20
-261.14654112374399
 30
0.0
 11
146.99999999999989
 21
-261.14654112374399
 31
0.0
  0
LINE
  5
D84F
  8
0
 10
151.4999999999998
 20
-262.6465411237441
 30
0.0
 11
149.99999999999989
 21
-261.14654112374399
 31
0.0
  0
LINE
  5
D851
  8
0
 10
151.4999999999998
 20
-262.6465411237441
 30
0.0
 11
151.4999999999998
 21
-262.84654112374398
 31
0.0
  0
LINE
  5
D852
  8
0
 10
145.49999999999989
 20
-262.6465411237441
 30
0.0
 11
151.4999999999998
 21
-262.6465411237441
 31
0.0
  0
LINE
  5
D853
  8
0
 10
145.49999999999989
 20
-262.6465411237441
 30
0.0
 11
146.99999999999989
 21
-261.14654112374399
 31
0.0
  0
LINE
  5
D854
  8
0
 10
145.49999999999989
 20
-262.84654112374398
 30
0.0
 11
145.49999999999989
 21
-262.6465411237441
 31
0.0
  0
LINE
  5
D855
  8
0
 10
146.99999999999989
 20
-261.14654112374399
 30
0.0
 11
146.99999999999989
 21
-259.846541097667
 31
0.0
  0
LINE
  5
D859
  8
0
 10
149.99999999999989
 20
-259.846541097667
 30
0.0
 11
149.99999999999989
 21
-261.14654112374399
 31
0.0
  0
LINE
  5
D85D
  8
0
 10
146.99999999999989
 20
-260.67802138029788
 30
0.0
 11
149.99999999999989
 21
-260.67802138029788
 31
0.0
  0
LINE
  5
D85E
  8
3
 10
147.27049999999909
 20
-260.67802138029788
 30
0.0
 11
147.27049999999909
 21
-259.846541097667
 31
0.0
  0
LINE
  5
D860
  8
3
 10
147.27049999999909
 20
-260.67802138029788
 30
0.0
 11
146.99999999999989
 21
-261.14654112374399
 31
0.0
  0
LINE
  5
D861
  8
3
 10
149.7295000000006
 20
-260.67802138029788
 30
0.0
 11
149.99999999999989
 21
-261.14654112374399
 31
0.0
  0
LINE
  5
D862
  8
3
 10
149.7295000000006
 20
-260.67802138029788
 30
0.0
 11
149.7295000000006
 21
-259.846541097667
 31
0.0
  0
LINE
  5
D865
  8
0
 10
334.50000092387199
 20
-261.34654101571073
 30
0.0
 11
334.50000092387199
 21
-259.34654115354641
 31
0.0
  0
LINE
  5
D866
  8
0
 10
333.99999991059309
 20
-261.846541097667
 30
0.0
 11
334.50000092387199
 21
-261.34654101571073
 31
0.0
  0
LINE
  5
D867
  8
0
 10
334.50000092387199
 20
-259.34654115354641
 30
0.0
 11
333.99999991059309
 21
-258.84654107159002
 31
0.0
  0
LINE
  5
D869
  8
0
 10
300.49999907612801
 20
-259.34654115354641
 30
0.0
 11
300.49999907612801
 21
-261.34654101571061
 31
0.0
  0
LINE
  5
D86B
  8
0
 10
300.49999907612801
 20
-261.34654101571061
 30
0.0
 11
301.00000008940702
 21
-261.846541097667
 31
0.0
  0
LINE
  5
D86D
  8
0
 10
301.00000008940702
 20
-258.84654107159002
 30
0.0
 11
333.99999991059309
 21
-258.84654107159002
 31
0.0
  0
LINE
  5
D86E
  8
0
 10
301.00000008940702
 20
-258.84654107159002
 30
0.0
 11
300.49999907612801
 21
-259.34654115354641
 31
0.0
  0
LINE
  5
D870
  8
1
 10
303.5
 20
-256.84654107159002
 30
0.0
 11
303.5
 21
-266.846541097667
 31
0.0
  0
LINE
  5
D871
  8
0
 10
305.00000000000011
 20
-263.14654112374399
 30
0.0
 11
302.0
 21
-263.14654112374399
 31
0.0
  0
LINE
  5
D872
  8
0
 10
306.5
 20
-264.6465411237441
 30
0.0
 11
305.0
 21
-263.14654112374399
 31
0.0
  0
LINE
  5
D874
  8
0
 10
306.5
 20
-264.6465411237441
 30
0.0
 11
306.5
 21
-264.84654112374398
 31
0.0
  0
LINE
  5
D875
  8
0
 10
300.5
 20
-264.6465411237441
 30
0.0
 11
306.5
 21
-264.6465411237441
 31
0.0
  0
LINE
  5
D876
  8
0
 10
300.5
 20
-264.6465411237441
 30
0.0
 11
302.0
 21
-263.14654112374399
 31
0.0
  0
LINE
  5
D877
  8
0
 10
300.5
 20
-264.84654112374398
 30
0.0
 11
300.5
 21
-264.6465411237441
 31
0.0
  0
LINE
  5
D878
  8
0
 10
302.0
 20
-263.14654112374399
 30
0.0
 11
302.0
 21
-261.846541097667
 31
0.0
  0
LINE
  5
D87C
  8
0
 10
305.0
 20
-261.846541097667
 30
0.0
 11
305.0
 21
-263.1465411237441
 31
0.0
  0
LINE
  5
D880
  8
0
 10
302.0
 20
-262.67802138029788
 30
0.0
 11
305.0
 21
-262.67802138029788
 31
0.0
  0
LINE
  5
D881
  8
3
 10
302.27049999999929
 20
-262.67802138029788
 30
0.0
 11
302.27049999999929
 21
-261.846541097667
 31
0.0
  0
LINE
  5
D883
  8
3
 10
302.27049999999929
 20
-262.67802138029788
 30
0.0
 11
302.0
 21
-263.14654112374399
 31
0.0
  0
LINE
  5
D884
  8
3
 10
304.72950000000083
 20
-262.67802138029788
 30
0.0
 11
305.0
 21
-263.14654112374399
 31
0.0
  0
LINE
  5
D885
  8
3
 10
304.72950000000083
 20
-262.67802138029788
 30
0.0
 11
304.72950000000083
 21
-261.846541097667
 31
0.0
  0
LINE
  5
D887
  8
0
 10
171.4999996125697
 20
-261.34654134353622
 30
0.0
 11
170.5000003799795
 21
-262.34654104178759
 31
0.0
  0
LINE
  5
D88F
  8
0
 10
149.99999999999989
 20
-261.04654109766687
 30
0.0
 11
150.19999999999999
 21
-261.04654109766699
 31
0.0
  0
LINE
  5
D899
  8
0
 10
166.50000018998981
 20
-262.846541097667
 30
0.0
 11
184.99999999999989
 21
-262.846541097667
 31
0.0
  0
LINE
  5
D8A8
  8
0
 10
326.49999961257009
 20
-263.34654134353701
 30
0.0
 11
325.50000037997978
 21
-264.34654104178833
 31
0.0
  0
LINE
  5
D8B7
  8
0
 10
334.50000092387199
 20
-260.34654109766689
 30
0.0
 11
335.0
 21
-260.34654109766689
 31
0.0
  0
LINE
  5
D8B8
  8
0
 10
334.50000092387199
 20
-259.846541097667
 30
0.0
 11
340.0
 21
-259.846541097667
 31
0.0
  0
LINE
  5
D8B9
  8
0
 10
305.0
 20
-263.04654109766687
 30
0.0
 11
305.19999999999999
 21
-263.04654109766687
 31
0.0
  0
LINE
  5
D8C8
  8
0
 10
321.50000018998969
 20
-264.846541097667
 30
0.0
 11
340.0
 21
-264.846541097667
 31
0.0
  0
TEXT
  5
D968
  8
0
 62
     3
 10
126.0014673499268
 20
-164.4413688406579
 30
0.0
 40
3.2000000000000002
  1
スペーサー(ボルト付き)(QCASP)を使用する場合
  0
TEXT
  5
D969
  8
0
 62
     3
 10
126.0014673499268
 20
-171.4413688406579
 30
0.0
 40
3.2000000000000002
  1
To use with a spacer(QCASP)
 41
0.85
  0
ENDSEC
  0
EOF
