  0
SECTION
  2
HEADER
  9
$ACADVER
  1
AC1009
  9
$INSBASE
 10
0.0
 20
0.0
 30
0.0
  9
$EXTMIN
 10
0.0
 20
-281.54510620569812
 30
0.0
  9
$EXTMAX
 10
453.88000000000108
 20
237.9321239814162
 30
0.0
  9
$LIMMIN
 10
0.0
 20
0.0
  9
$LIMMAX
 10
187.5
 20
135.0
  9
$ORTHOMODE
 70
     1
  9
$REGENMODE
 70
     1
  9
$FILLMODE
 70
     1
  9
$QTEXTMODE
 70
     0
  9
$MIRRTEXT
 70
     0
  9
$DRAGMODE
 70
     2
  9
$LTSCALE
 40
5.0
  9
$OSMODE
 70
    37
  9
$ATTMODE
 70
     1
  9
$TEXTSIZE
 40
0.2
  9
$TRACEWID
 40
0.05
  9
$TEXTSTYLE
  7
STANDARD
  9
$CLAYER
  8
0
  9
$CELTYPE
  6
BYLAYER
  9
$CECOLOR
 62
   256
  9
$DIMSCALE
 40
0.5
  9
$DIMASZ
 40
3.0
  9
$DIMEXO
 40
2.0
  9
$DIMDLI
 40
0.3799999999999999
  9
$DIMRND
 40
0.0
  9
$DIMDLE
 40
0.0
  9
$DIMEXE
 40
2.0
  9
$DIMTP
 40
0.0
  9
$DIMTM
 40
0.0
  9
$DIMTXT
 40
3.2000000000000002
  9
$DIMCEN
 40
0.0
  9
$DIMTSZ
 40
0.0
  9
$DIMTOL
 70
     0
  9
$DIMLIM
 70
     0
  9
$DIMTIH
 70
     0
  9
$DIMTOH
 70
     0
  9
$DIMSE1
 70
     0
  9
$DIMSE2
 70
     0
  9
$DIMTAD
 70
     1
  9
$DIMZIN
 70
     8
  9
$DIMBLK
  1

  9
$DIMASO
 70
     0
  9
$DIMSHO
 70
     0
  9
$DIMPOST
  1

  9
$DIMAPOST
  1

  9
$DIMALT
 70
     0
  9
$DIMALTD
 70
     2
  9
$DIMALTF
 40
25.399999999999999
  9
$DIMLFAC
 40
1.0
  9
$DIMTOFL
 70
     0
  9
$DIMTVP
 40
1.6000000000000001
  9
$DIMTIX
 70
     0
  9
$DIMSOXD
 70
     0
  9
$DIMSAH
 70
     0
  9
$DIMBLK1
  1

  9
$DIMBLK2
  1

  9
$DIMSTYLE
  2
STANDARD
  9
$DIMCLRD
 70
     0
  9
$DIMCLRE
 70
     0
  9
$DIMCLRT
 70
     0
  9
$DIMTFAC
 40
1.0
  9
$DIMGAP
 40
1.0
  9
$LUNITS
 70
     2
  9
$LUPREC
 70
     1
  9
$SKETCHINC
 40
0.1
  9
$FILLETRAD
 40
0.4
  9
$AUNITS
 70
     0
  9
$AUPREC
 70
     1
  9
$MENU
  1
E:\r13\win\SUPPORT\ACAD
  9
$ELEVATION
 40
0.0
  9
$PELEVATION
 40
0.0
  9
$THICKNESS
 40
0.0
  9
$LIMCHECK
 70
     0
  9
$BLIPMODE
 70
     0
  9
$CHAMFERA
 40
0.5
  9
$CHAMFERB
 40
0.5
  9
$SKPOLY
 70
     0
  9
$TDCREATE
 40
2451824.7531229062
  9
$TDUPDATE
 40
2459191.655923496
  9
$TDINDWG
 40
1.1394687384
  9
$TDUSRTIMER
 40
1.1394685532
  9
$USRTIMER
 70
     1
  9
$ANGBASE
 50
0.0
  9
$ANGDIR
 70
     0
  9
$PDMODE
 70
     0
  9
$PDSIZE
 40
0.0
  9
$PLINEWID
 40
0.0
  9
$COORDS
 70
     1
  9
$SPLFRAME
 70
     0
  9
$SPLINETYPE
 70
     6
  9
$SPLINESEGS
 70
     8
  9
$ATTDIA
 70
     0
  9
$ATTREQ
 70
     1
  9
$HANDLING
 70
     1
  9
$HANDSEED
  5
101E3
  9
$SURFTAB1
 70
     6
  9
$SURFTAB2
 70
     6
  9
$SURFTYPE
 70
     6
  9
$SURFU
 70
     6
  9
$SURFV
 70
     6
  9
$UCSNAME
  2

  9
$UCSORG
 10
0.0
 20
0.0
 30
0.0
  9
$UCSXDIR
 10
1.0
 20
0.0
 30
0.0
  9
$UCSYDIR
 10
0.0
 20
1.0
 30
0.0
  9
$PUCSNAME
  2

  9
$PUCSORG
 10
0.0
 20
0.0
 30
0.0
  9
$PUCSXDIR
 10
1.0
 20
0.0
 30
0.0
  9
$PUCSYDIR
 10
0.0
 20
1.0
 30
0.0
  9
$USERI1
 70
     0
  9
$USERI2
 70
     1
  9
$USERI3
 70
     0
  9
$USERI4
 70
     0
  9
$USERI5
 70
     0
  9
$USERR1
 40
0.0
  9
$USERR2
 40
0.0
  9
$USERR3
 40
0.0
  9
$USERR4
 40
0.0
  9
$USERR5
 40
0.0
  9
$WORLDVIEW
 70
     1
  9
$SHADEDGE
 70
     3
  9
$SHADEDIF
 70
    70
  9
$TILEMODE
 70
     1
  9
$MAXACTVP
 70
    16
  9
$PLIMCHECK
 70
     0
  9
$PEXTMIN
 10
1.0000000000000000E+020
 20
1.0000000000000000E+020
 30
1.0000000000000000E+020
  9
$PEXTMAX
 10
-1.0000000000000000E+020
 20
-1.0000000000000000E+020
 30
-1.0000000000000000E+020
  9
$PLIMMIN
 10
0.0
 20
0.0
  9
$PLIMMAX
 10
12.0
 20
9.0
  9
$UNITMODE
 70
     0
  9
$VISRETAIN
 70
     0
  9
$PLINEGEN
 70
     0
  9
$PSLTSCALE
 70
     0
  0
ENDSEC
  0
SECTION
  2
TABLES
  0
TABLE
  2
VPORT
 70
     1
  0
VPORT
  2
*ACTIVE
 70
     0
 10
0.0
 20
0.0
 11
1.0
 21
1.0
 12
362.34662576687123
 22
150.0
 13
0.0
 23
0.0
 14
5.0
 24
5.0
 15
5.0
 25
5.0
 16
0.0
 26
0.0
 36
1.0
 17
0.0
 27
0.0
 37
0.0
 40
300.0
 41
2.415644171779141
 42
50.0
 43
0.0
 44
0.0
 50
0.0
 51
0.0
 71
     0
 72
   500
 73
     1
 74
     0
 75
     0
 76
     0
 77
     0
 78
     0
  0
ENDTAB
  0
TABLE
  2
LTYPE
 70
     5
  0
LTYPE
  2
CONTINUOUS
 70
     0
  3
Solid Line
 72
    65
 73
     0
 40
0.0
  0
LTYPE
  2
CENTER
 70
     0
  3
____ _ ____ _ ____ _ ____ _ ____ _ ____ _ ____
 72
    65
 73
     4
 40
2.0
 49
1.25
 49
-0.25
 49
0.25
 49
-0.25
  0
LTYPE
  2
PHANTOM2
 70
     0
  3
___ _ _ ___ _ _ ___ _ _ ___ _ _
 72
    65
 73
     6
 40
1.25
 49
0.625
 49
-0.125
 49
0.125
 49
-0.125
 49
0.125
 49
-0.125
  0
LTYPE
  2
HIDDEN
 70
     0
  3
__ __ __ __ __ __ __ __ __ __ __ __ __ __ __ __
 72
    65
 73
     2
 40
0.375
 49
0.25
 49
-0.125
  0
LTYPE
  2
PHANTOM
 70
     0
  3
_____ _ _ _____ _ _ _____ _ _ _____ _ _ ____
 72
    65
 73
     6
 40
2.5
 49
1.25
 49
-0.25
 49
0.25
 49
-0.25
 49
0.25
 49
-0.25
  0
ENDTAB
  0
TABLE
  2
LAYER
 70
     6
  0
LAYER
  2
0
 70
     0
 62
     7
  6
CONTINUOUS
  0
LAYER
  2
1
 70
     0
 62
     1
  6
CENTER
  0
LAYER
  2
2
 70
     0
 62
     2
  6
HIDDEN
  0
LAYER
  2
5
 70
     0
 62
     3
  6
PHANTOM
  0
LAYER
  2
3
 70
     0
 62
     3
  6
CONTINUOUS
  0
LAYER
  2
DEFPOINTS
 70
     0
 62
     7
  6
CONTINUOUS
  0
ENDTAB
  0
TABLE
  2
STYLE
 70
     2
  0
STYLE
  2
STANDARD
 70
     0
 40
0.0
 41
1.0
 50
0.0
 71
     0
 42
0.2
  3
TXT
  4
BIGFONT
  0
STYLE
  2
STANDARD1
 70
     0
 40
0.0
 41
1.0
 50
0.0
 71
     0
 42
3.0
  3
txt
  4

  0
ENDTAB
  0
TABLE
  2
VIEW
 70
     2
  0
VIEW
  2
OLE1
 70
     0
 40
230.57206781759481
 10
150.69838489794819
 20
404.39942226326519
 41
272.25240315385241
 11
0.0
 21
0.0
 31
1.0
 12
0.0
 22
0.0
 32
0.0
 42
50.0
 43
0.0
 44
0.0
 50
0.0
 71
     0
  0
VIEW
  2
OLE2
 70
     0
 40
202.3282431621931
 10
347.29567904807772
 20
-206.63887725582759
 41
238.9029640415126
 11
0.0
 21
0.0
 31
1.0
 12
0.0
 22
0.0
 32
0.0
 42
50.0
 43
0.0
 44
0.0
 50
0.0
 71
     0
  0
ENDTAB
  0
TABLE
  2
UCS
 70
     0
  0
ENDTAB
  0
TABLE
  2
APPID
 70
    11
  0
APPID
  2
ACAD
 70
     0
  0
APPID
  2
ACAD_MLEADERVER
 70
     0
  0
APPID
  2
ACAD_EXEMPT_FROM_CAD_STANDARDS
 70
     0
  0
APPID
  2
ACAD_DSTYLE_DIMJAG
 70
     0
  0
APPID
  2
ACAD_DSTYLE_DIMTALN
 70
     0
  0
APPID
  2
ACAD_NAV_VCDISPLAY
 70
     0
  0
APPID
  2
ACAD_PSEXT
 70
     0
  0
APPID
  2
ACAECLAYERSTANDARD
 70
     0
  0
APPID
  2
ACCMTRANSPARENCY
 70
     0
  0
APPID
  2
ACAD_DSTYLE_DIMRADIAL_EXTENSION
 70
     0
  0
APPID
  2
ACADANNOTATIVE
 70
     0
  0
ENDTAB
  0
TABLE
  2
DIMSTYLE
 70
     1
  0
DIMSTYLE
  2
STANDARD
 70
     0
  3

  4

  5

  6

  7

 40
1.0
 41
0.18
 42
0.0625
 43
0.38
 44
0.18
 45
0.0
 46
0.0
 47
0.0
 48
0.0
140
0.18
141
0.09
142
0.0
143
25.399999999999999
144
1.0
145
0.0
146
1.0
147
0.09
 71
     0
 72
     0
 73
     1
 74
     1
 75
     0
 76
     0
 77
     0
 78
     0
170
     0
171
     2
172
     0
173
     0
174
     0
175
     0
176
     0
177
     0
178
     0
  0
ENDTAB
  0
ENDSEC
  0
SECTION
  2
BLOCKS
  0
BLOCK
  8
0
  2
$MODEL_SPACE
 70
     0
 10
0.0
 20
0.0
 30
0.0
  3
$MODEL_SPACE
  1

  0
ENDBLK
  5
9
  8
0
  0
BLOCK
 67
     1
  8
0
  2
$PAPER_SPACE
 70
     0
 10
0.0
 20
0.0
 30
0.0
  3
$PAPER_SPACE
  1

  0
ENDBLK
  5
E
 67
     1
  8
0
  0
ENDSEC
  0
SECTION
  2
ENTITIES
  0
TEXT
  5
7FEA
  8
0
 62
     3
 10
115.0
 20
0.0
 30
0.0
 40
3.2000000000000002
  1
■サムターンクランパー(自在アプローチ)の取付け方法〈オフを上にする場合〉(下図)
  0
TEXT
  5
7FEB
  8
0
 62
     3
 10
165.0866666666665
 20
-19.168098188633891
 30
0.0
 40
3.2000000000000002
  1
6mmのプレートに固定する場合
 72
     1
 11
192.49999999999989
 21
-19.594764855300561
 31
0.0
 73
     1
  0
TEXT
  5
80DD
  8
0
 62
     3
 10
304.61999999999989
 20
-19.168098188633891
 30
0.0
 40
3.2000000000000002
  1
6mmを超え14mm以下のプレートに固定する場合
 72
     1
 11
347.5
 21
-19.594764855300561
 31
0.0
 73
     1
  0
TEXT
  5
8474
  8
0
 62
     3
 10
148.4333333333332
 20
-123.6732704456434
 30
0.0
 40
3.2000000000000002
  1
組付け状態
 72
     1
 11
157.49999999999989
 21
-123.6732704456434
 31
0.0
  0
POLYLINE
  5
8487
  8
5
 66
     1
 10
0.0
 20
0.0
 30
0.0
 70
     1
  0
VERTEX
  5
10029
  8
5
 10
115.0
 20
-10.0
 30
0.0
  0
VERTEX
  5
1002A
  8
5
 10
425.0
 20
-10.0
 30
0.0
  0
VERTEX
  5
1002B
  8
5
 10
425.0
 20
-281.54510620569812
 30
0.0
  0
VERTEX
  5
1002C
  8
5
 10
115.0
 20
-281.54510620569812
 30
0.0
  0
SEQEND
  5
1002D
  8
5
  0
TEXT
  5
8489
  8
0
 62
     3
 10
220.2466666666667
 20
-123.6732704456434
 30
0.0
 40
3.2000000000000002
  1
取付け穴
 72
     1
 11
227.5
 21
-123.6732704456434
 31
0.0
  0
TEXT
  5
848A
  8
0
 62
     3
 10
303.43333333333322
 20
-123.6732704456434
 30
0.0
 40
3.2000000000000002
  1
組付け状態
 72
     1
 11
312.49999999999989
 21
-123.6732704456434
 31
0.0
  0
TEXT
  5
848B
  8
0
 62
     3
 10
375.24666666666673
 20
-123.6732704456434
 30
0.0
 40
3.2000000000000002
  1
取付け穴
 72
     1
 11
382.5
 21
-123.6732704456434
 31
0.0
  0
TEXT
  5
87B9
  8
0
 62
     3
 10
0.0
 20
0.0
 30
0.0
 40
10.0
  1
QCTHA0834-14
  7
STANDARD1
  0
TEXT
  5
884B
  8
0
 62
     3
 10
115.0
 20
-7.0
 30
0.0
 40
3.2000000000000002
  1
■Installation Instructions for Retractable Quarter-Turn Clamps〈For Y-axis Positioning of "OFF" Mark〉 (see diagram below)
  0
TEXT
  5
884C
  8
0
 62
     3
 10
133.77999999999989
 20
-26.168098188633891
 30
0.0
 40
3.2000000000000002
  1
For installation on plate of 6 mm thickness.
 72
     1
 11
192.49999999999989
 21
-26.594764855300561
 31
0.0
 73
     1
  0
TEXT
  5
884D
  8
0
 62
     3
 10
273.63333333333333
 20
-26.168098188633891
 30
0.0
 40
3.2000000000000002
  1
For installation on plate of over 6 to 14 mm thickness.
 72
     1
 11
347.5
 21
-26.594764855300561
 31
0.0
 73
     1
  0
TEXT
  5
884E
  8
0
 62
     3
 10
132.53999999999991
 20
-130.6732704456434
 30
0.0
 40
3.2000000000000002
  1
Installed condition
 72
     1
 11
157.49999999999989
 21
-130.6732704456434
 31
0.0
  0
TEXT
  5
884F
  8
0
 62
     3
 10
205.4733333333333
 20
-130.6732704456434
 30
0.0
 40
3.2000000000000002
  1
Installation hole
 72
     1
 11
227.5
 21
-130.6732704456434
 31
0.0
  0
TEXT
  5
8850
  8
0
 62
     3
 10
287.53999999999991
 20
-130.6732704456434
 30
0.0
 40
3.2000000000000002
  1
Installed condition
 72
     1
 11
312.49999999999989
 21
-130.6732704456434
 31
0.0
  0
TEXT
  5
8851
  8
0
 62
     3
 10
360.4733333333333
 20
-130.6732704456434
 30
0.0
 40
3.2000000000000002
  1
Installation hole
 72
     1
 11
382.5
 21
-130.6732704456434
 31
0.0
  0
LINE
  5
C4B6
  8
0
 10
119.7500023245811
 20
125.43212523311379
 30
0.0
 11
119.7500023245811
 21
128.43212525919071
 31
0.0
  0
LINE
  5
C4B7
  8
0
 10
114.2500023543834
 20
128.43212525919071
 30
0.0
 11
114.2500023543834
 21
125.43212523311379
 31
0.0
  0
LINE
  5
C4B8
  8
0
 10
118.5000025853514
 20
128.43212525919071
 30
0.0
 11
118.5000025853514
 21
130.93212520331139
 31
0.0
  0
LINE
  5
C4B9
  8
0
 10
115.50000302493569
 20
130.93212520331139
 30
0.0
 11
115.50000302493569
 21
128.43212525919071
 31
0.0
  0
LINE
  5
C4BA
  8
0
 10
140.7500029727816
 20
125.43212523311379
 30
0.0
 11
140.7500029727816
 21
128.43212525919071
 31
0.0
  0
LINE
  5
C4BB
  8
0
 10
135.25000300258401
 20
128.43212525919071
 30
0.0
 11
135.25000300258401
 21
125.43212523311379
 31
0.0
  0
LINE
  5
C4BC
  8
0
 10
139.50000323355201
 20
128.43212525919071
 30
0.0
 11
139.50000323355201
 21
130.93212520331139
 31
0.0
  0
LINE
  5
C4BD
  8
0
 10
136.5000027418136
 20
130.93212520331139
 30
0.0
 11
136.5000027418136
 21
128.43212525919071
 31
0.0
  0
LINE
  5
C4BE
  8
0
 10
140.91923918575051
 20
168.23357989639041
 30
0.0
 11
139.08284895122051
 21
168.9019714817405
 31
0.0
  0
LINE
  5
C4BF
  8
0
 10
122.91715659201139
 20
168.9019714817405
 30
0.0
 11
121.08076635748149
 21
168.23357989639041
 31
0.0
  0
ARC
  5
C4C0
  8
0
 10
141.47311270897549
 20
153.93212523311371
 30
0.0
 40
0.5
 50
270.0000000000008
 51
2.9999999999990772
  0
ARC
  5
C4C1
  8
0
 10
120.5268928342564
 20
153.93212523311371
 30
0.0
 40
0.5
 50
177.00000000000091
 51
270.0000000000008
  0
LINE
  5
C4C2
  8
0
 10
141.97242718189949
 20
153.95829354971639
 30
0.0
 11
141.24754343181851
 21
167.78990154713389
 31
0.0
  0
LINE
  5
C4C3
  8
0
 10
120.75246211141349
 20
167.78990154713389
 30
0.0
 11
120.0275783613324
 21
153.95829354971639
 31
0.0
  0
ARC
  5
C4C4
  8
0
 10
140.7482288039127
 20
167.76373410835049
 30
0.0
 40
0.500000000000012
 50
2.9999999999958149
 51
70.000000000001066
  0
ARC
  5
C4C5
  8
0
 10
121.2517767393192
 20
167.76373410835049
 30
0.0
 40
0.5000000000000071
 50
109.9999999999978
 51
177.00000000000421
  0
ARC
  5
C4C6
  8
0
 10
138.91183928126171
 20
168.43212523311371
 30
0.0
 40
0.500000000000012
 50
70.000000000001066
 51
90.0
  0
ARC
  5
C4C7
  8
0
 10
123.0881662619702
 20
168.43212523311371
 30
0.0
 40
0.500000000000012
 50
90.0
 51
109.99999999999891
  0
LINE
  5
C4C8
  8
0
 10
114.000001847744
 20
131.43212528526769
 30
0.0
 11
114.50000286102291
 21
130.93212520331139
 31
0.0
  0
LINE
  5
C4C9
  8
0
 10
147.50000268220899
 20
130.93212520331139
 30
0.0
 11
148.000003695488
 21
131.43212528526769
 31
0.0
  0
LINE
  5
C4CA
  8
0
 10
148.000003695488
 20
131.43212528526769
 30
0.0
 11
148.000003695488
 21
137.59313331544391
 31
0.0
  0
LINE
  5
C4CB
  8
0
 10
114.000001847744
 20
137.59313331544391
 30
0.0
 11
114.000001847744
 21
131.43212528526769
 31
0.0
  0
ARC
  5
C4CC
  8
0
 10
115.000002771616
 20
137.593133496474
 30
0.0
 40
1.00000000000001
 50
109.9999999999997
 51
180.0
  0
ARC
  5
C4CD
  8
0
 10
147.0000027716159
 20
137.593133496474
 30
0.0
 40
1.00000000000001
 50
0.0
 51
70.000000000000298
  0
LINE
  5
C4CE
  8
0
 10
147.34202243387699
 20
138.53282568603751
 30
0.0
 11
140.7500029727816
 21
140.93212497979391
 31
0.0
  0
LINE
  5
C4CF
  8
0
 10
121.25000257045031
 20
140.93212497979391
 30
0.0
 11
114.6579831093549
 21
138.53282568603751
 31
0.0
  0
ARC
  5
C4D0
  8
0
 10
122.60000277161591
 20
141.33212523311369
 30
0.0
 40
0.4000000000000199
 50
270.0000000000008
 51
0.0
  0
ARC
  5
C4D1
  8
0
 10
139.4000027716159
 20
141.33212523311369
 30
0.0
 40
0.4000000000000057
 50
180.0
 51
270.0000000000008
  0
LINE
  5
C4D2
  8
0
 10
139.00000315159559
 20
141.33212616294611
 30
0.0
 11
139.00000315159559
 21
153.432126097381
 31
0.0
  0
LINE
  5
C4D3
  8
0
 10
123.0000023916363
 20
153.432126097381
 30
0.0
 11
123.0000023916363
 21
141.33212616294611
 31
0.0
  0
LINE
  5
C4D4
  8
0
 10
119.7500023245811
 20
125.43212523311379
 30
0.0
 11
114.2500023543834
 21
125.43212523311379
 31
0.0
  0
LINE
  5
C4D5
  8
0
 10
119.7500023245811
 20
128.43212525919071
 30
0.0
 11
114.2500023543834
 21
128.43212525919071
 31
0.0
  0
LINE
  5
C4D6
  8
0
 10
140.7500029727816
 20
125.43212523311379
 30
0.0
 11
135.25000300258401
 21
125.43212523311379
 31
0.0
  0
LINE
  5
C4D7
  8
0
 10
140.7500029727816
 20
128.43212525919071
 30
0.0
 11
135.25000300258401
 21
128.43212525919071
 31
0.0
  0
LINE
  5
C4DE
  8
0
 10
131.74612870905551
 20
164.5721485242247
 30
0.0
 11
130.25387683417651
 21
164.5721485242247
 31
0.0
  0
ARC
  5
C4E0
  8
0
 10
132.104176245324
 20
153.91926428449241
 30
0.0
 40
0.4874228276584579
 50
271.95818724531011
 51
4.5927449424257443
  0
ARC
  5
C4E2
  8
0
 10
129.89582929790791
 20
153.91926428449241
 30
0.0
 40
0.4874228276584437
 50
175.40725505757101
 51
268.04181275469148
  0
ARC
  5
C4E3
  8
0
 10
131.9693827955052
 20
160.10658083588569
 30
0.0
 40
4.4711449502620848
 50
87.137905753297346
 51
92.862094246702654
  0
LINE
  5
C4E4
  8
0
 10
132.19263688195491
 20
164.5721485242247
 30
0.0
 11
132.59003397077319
 21
153.95829354971639
 31
0.0
  0
LINE
  5
C4E5
  8
0
 10
129.40997157245869
 20
153.95829354971639
 30
0.0
 11
129.807368661277
 21
164.5721485242247
 31
0.0
  0
ARC
  5
C4E6
  8
0
 10
130.03062274772671
 20
160.10658083588569
 30
0.0
 40
4.4711449502620848
 50
87.137905753297346
 51
92.862094246702654
  0
ARC
  5
C4E7
  8
0
 10
128.28489782319241
 20
153.91926428449241
 30
0.0
 40
0.4874228276584437
 50
175.40725505757101
 51
268.04181275469148
  0
ARC
  5
C4EA
  8
0
 10
133.7151077200395
 20
153.91926428449241
 30
0.0
 40
0.4874228276584579
 50
271.95818724531011
 51
4.5927449424257443
  0
ARC
  5
C4ED
  8
0
 10
134.1557252248067
 20
164.84052994349281
 30
0.0
 40
1.981349143399217
 50
147.5659612698492
 51
187.78486609319589
  0
LINE
  5
C4EE
  8
0
 10
133.5594336688518
 20
166.98506002873179
 30
0.0
 11
132.48344782739881
 21
165.9031835719943
 31
0.0
  0
LINE
  5
C4EF
  8
0
 10
134.20096544548869
 20
153.95829354971639
 30
0.0
 11
133.5594336688518
 21
166.98506002873179
 31
0.0
  0
LINE
  5
C4F0
  8
0
 10
128.44057187438011
 20
166.98506002873179
 30
0.0
 11
127.7990400977432
 21
153.95829354971639
 31
0.0
  0
LINE
  5
C4F1
  8
0
 10
129.51655771583319
 20
165.9031835719943
 30
0.0
 11
128.44057187438011
 21
166.98506002873179
 31
0.0
  0
ARC
  5
C4F2
  8
0
 10
127.6667503194662
 20
164.8017423346102
 30
0.0
 40
2.1528957715281898
 50
353.8780967498202
 51
30.771075887135549
  0
POLYLINE
  5
C4FF
  8
0
 66
     1
 10
0.0
 20
0.0
 30
0.0
 70
   128
  0
VERTEX
  5
1002F
  8
0
 10
136.4350136555731
 20
153.95829354971639
 30
0.0
  0
VERTEX
  5
10030
  8
0
 10
136.43255217000839
 20
153.8571426048874
 30
0.0
  0
VERTEX
  5
10031
  8
0
 10
136.42004497349259
 20
153.75906688719979
 30
0.0
  0
VERTEX
  5
10032
  8
0
 10
136.39800569042561
 20
153.66809157282111
 30
0.0
  0
VERTEX
  5
10033
  8
0
 10
136.36733723804349
 20
153.58794753998509
 30
0.0
  0
VERTEX
  5
10034
  8
0
 10
136.3292992301285
 20
153.52192422002551
 30
0.0
  0
VERTEX
  5
10035
  8
0
 10
136.28545116633171
 20
153.47272989898909
 30
0.0
  0
VERTEX
  5
10036
  8
0
 10
136.2375923618674
 20
153.4423818215727
 30
0.0
  0
VERTEX
  5
10037
  8
0
 10
136.1876860447228
 20
153.432126097381
 30
0.0
  0
SEQEND
  5
10038
  8
0
  0
POLYLINE
  5
C501
  8
0
 66
     1
 10
0.0
 20
0.0
 30
0.0
 70
   128
  0
VERTEX
  5
10039
  8
0
 10
125.8123194985091
 20
153.432126097381
 30
0.0
  0
VERTEX
  5
1003A
  8
0
 10
125.76241318136449
 20
153.4423818215727
 30
0.0
  0
VERTEX
  5
1003B
  8
0
 10
125.7145543769002
 20
153.47272989898909
 30
0.0
  0
VERTEX
  5
1003C
  8
0
 10
125.67070631310339
 20
153.52192422002551
 30
0.0
  0
VERTEX
  5
1003D
  8
0
 10
125.6326683051884
 20
153.58794753998509
 30
0.0
  0
VERTEX
  5
1003E
  8
0
 10
125.6019998528063
 20
153.66809157282111
 30
0.0
  0
VERTEX
  5
1003F
  8
0
 10
125.5799605697393
 20
153.75906688719979
 30
0.0
  0
VERTEX
  5
10040
  8
0
 10
125.5674533732235
 20
153.8571426048874
 30
0.0
  0
VERTEX
  5
10041
  8
0
 10
125.56499188765881
 20
153.95829354971639
 30
0.0
  0
SEQEND
  5
10042
  8
0
  0
ARC
  5
C504
  8
0
 10
135.81777240956549
 20
164.26050743890039
 30
0.0
 40
3.5388247600814449
 50
85.816156305269331
 51
129.6548008053806
  0
LINE
  5
C505
  8
0
 10
136.0759543441236
 20
167.78990154713389
 30
0.0
 11
136.4350136555731
 21
153.95829354971639
 31
0.0
  0
LINE
  5
C506
  8
0
 10
125.56499188765881
 20
153.95829354971639
 30
0.0
 11
125.92405119910831
 21
167.78990154713389
 31
0.0
  0
ARC
  5
C507
  8
0
 10
126.1916145405437
 20
164.2898405483763
 30
0.0
 40
3.5102730857732221
 50
50.157550011639543
 51
94.371492877711475
  0
LINE
  5
C50A
  8
0
 10
141.47311255335811
 20
153.432126097381
 30
0.0
 11
120.5268928342564
 21
153.43212523311371
 31
0.0
  0
LINE
  5
C50C
  8
0
 10
123.0881660431623
 20
168.9321239814162
 30
0.0
 11
138.91183950006959
 21
168.9321239814162
 31
0.0
  0
LINE
  5
C50D
  8
0
 10
147.5000026822089
 20
130.93212520331139
 30
0.0
 11
114.50000286102291
 21
130.93212520331139
 31
0.0
  0
LINE
  5
C511
  8
0
 10
140.7500029727816
 20
140.93212497979391
 30
0.0
 11
121.25000257045031
 21
140.93212497979391
 31
0.0
  0
LINE
  5
C512
  8
0
 10
146.03691354393959
 20
138.99348297715181
 30
0.0
 11
143.26240953057999
 21
139.9715979918837
 31
0.0
  0
LINE
  5
C513
  8
0
 10
146.09145272523159
 20
138.98419955372799
 30
0.0
 11
146.03691354393959
 21
138.99348297715181
 31
0.0
  0
LINE
  5
C514
  8
0
 10
142.51570489257571
 20
140.2888800352811
 30
0.0
 11
146.09145272523159
 21
138.98419955372799
 31
0.0
  0
LINE
  5
C515
  8
0
 10
142.47041653841731
 20
140.2996591627597
 30
0.0
 11
142.51570489257571
 21
140.2888800352811
 31
0.0
  0
LINE
  5
C516
  8
0
 10
145.14789536595339
 20
139.32086428254831
 30
0.0
 11
142.47041653841731
 21
140.2996591627597
 31
0.0
  0
LINE
  5
C517
  8
0
 10
145.14626368880269
 20
139.32103750854719
 30
0.0
 11
145.14789536595339
 21
139.32086428254831
 31
0.0
  0
LINE
  5
C518
  8
0
 10
142.3697470873594
 20
140.30178630352009
 30
0.0
 11
145.14626368880269
 21
139.32103750854719
 31
0.0
  0
LINE
  5
C519
  8
0
 10
142.31709104031319
 20
140.29052195698009
 30
0.0
 11
142.3697470873594
 21
140.30178630352009
 31
0.0
  0
LINE
  5
C51A
  8
0
 10
145.8928379416466
 20
138.98546522110689
 30
0.0
 11
142.31709104031319
 21
140.29052195698009
 31
0.0
  0
LINE
  5
C51B
  8
0
 10
145.9381272271275
 20
138.99308064579961
 30
0.0
 11
145.8928379416466
 21
138.98546522110689
 31
0.0
  0
LINE
  5
C51C
  8
0
 10
143.26198950409889
 20
139.9716445580124
 30
0.0
 11
145.9381272271275
 21
138.99308064579961
 31
0.0
  0
LINE
  5
C51D
  8
0
 10
143.26240953057999
 20
139.9715979918837
 30
0.0
 11
143.26198950409889
 21
139.9716445580124
 31
0.0
  0
ARC
  5
C51E
  8
0
 10
140.11701691257201
 20
130.52727915675621
 30
0.0
 40
0.4028311887991901
 50
106.886713633006
 51
179.31068652888089
  0
ARC
  5
C51F
  8
0
 10
121.88558225754861
 20
130.5292265989255
 30
0.0
 40
0.4002189077153576
 50
0.4150016366471264
 51
73.3875982014671
  0
LINE
  5
C520
  8
0
 10
122.2857906669378
 20
125.93212525686241
 30
0.0
 11
122.957148514688
 21
125.43212523311369
 31
0.0
  0
LINE
  5
C522
  8
0
 10
135.25000300258401
 20
125.43212523311369
 30
0.0
 11
122.957148514688
 21
125.43212523311369
 31
0.0
  0
LINE
  5
C523
  8
0
 10
139.71421487629411
 20
128.43212525919071
 30
0.0
 11
139.71421487629411
 21
130.53212541714299
 31
0.0
  0
LINE
  5
C524
  8
0
 10
122.2857906669378
 20
130.53212541714299
 30
0.0
 11
122.2857906669378
 21
125.93212525686241
 31
0.0
  0
LINE
  5
C534
  8
0
 10
141.24754343181851
 20
167.78990154713389
 30
0.0
 11
136.0759543441236
 21
167.78990154713389
 31
0.0
  0
LINE
  5
C535
  8
0
 10
125.92405119910831
 20
167.78990154713389
 30
0.0
 11
120.75246211141349
 21
167.78990154713389
 31
0.0
  0
LINE
  5
C538
  8
0
 10
114.6579831093549
 20
138.53282568603751
 30
0.0
 11
147.34202243387699
 21
138.53282568603751
 31
0.0
  0
ARC
  5
C53E
  8
0
 10
129.8791740143468
 20
232.36705914725161
 30
0.0
 40
0.5000000000000091
 50
93.901413300464228
 51
159.9999999999965
  0
ARC
  5
C53F
  8
0
 10
132.12083152888499
 20
232.36705914725161
 30
0.0
 40
0.5000000000000084
 50
20.000000000003499
 51
86.098586699537364
  0
ARC
  5
C540
  8
0
 10
132.12083152888499
 20
199.49718881558081
 30
0.0
 40
0.499999999999989
 50
273.90141330046339
 51
340.00000000000341
  0
ARC
  5
C541
  8
0
 10
129.8791740143468
 20
199.49718881558081
 30
0.0
 40
0.499999999999989
 50
199.99999999999829
 51
266.0985866995365
  0
ARC
  5
C542
  8
0
 10
131.00000277161601
 20
215.9321239814162
 30
0.0
 40
16.973109937359531
 50
86.098586699535758
 51
93.901413300464228
  0
LINE
  5
C543
  8
0
 10
129.40932767931369
 20
232.53806928545231
 30
0.0
 11
127.7983963210135
 21
228.1120714396238
 31
0.0
  0
LINE
  5
C544
  8
0
 10
134.20160922221839
 20
228.1120714396238
 30
0.0
 11
132.59067786391819
 21
232.53806928545231
 31
0.0
  0
ARC
  5
C545
  8
0
 10
138.92534074356391
 20
229.8313692138164
 30
0.0
 40
5.0268900626404882
 50
200.0
 51
240.3082477634897
  0
ARC
  5
C546
  8
0
 10
123.074664799668
 20
229.8313692138164
 30
0.0
 40
5.0268900626404749
 50
299.69175223651263
 51
339.99999999999989
  0
ARC
  5
C547
  8
0
 10
131.00000277161601
 20
215.9321239814162
 30
0.0
 40
10.97310993735954
 50
119.6917522365121
 51
240.3082477634897
  0
ARC
  5
C548
  8
0
 10
131.00000277161601
 20
215.9321239814162
 30
0.0
 40
10.97310993735954
 50
299.69175223651263
 51
60.30824776348787
  0
ARC
  5
C549
  8
0
 10
123.074664799668
 20
202.03287874901599
 30
0.0
 40
5.026890062640474
 50
20.000000000000028
 51
60.30824776348787
  0
ARC
  5
C54A
  8
0
 10
138.92534074356391
 20
202.03287874901591
 30
0.0
 40
5.026890062640506
 50
119.6917522365121
 51
159.99999999999989
  0
ARC
  5
C54B
  8
0
 10
131.00000277161601
 20
215.9321239814162
 30
0.0
 40
16.97310993735951
 50
266.0985866995365
 51
270.0000000000008
  0
ARC
  5
C54C
  8
0
 10
131.00000277161601
 20
215.9321239814162
 30
0.0
 40
16.97310993735951
 50
270.0000000000008
 51
273.90141330046498
  0
LINE
  5
C54D
  8
0
 10
132.59067786391819
 20
199.32617867738
 30
0.0
 11
134.20160922221839
 21
203.75217652320859
 31
0.0
  0
LINE
  5
C54E
  8
0
 10
127.7983963210135
 20
203.75217652320859
 30
0.0
 11
129.40932767931369
 21
199.32617867738
 31
0.0
  0
LINE
  5
C54F
  8
0
 10
129.84530224464831
 20
215.93212398141611
 30
0.0
 11
130.4226525081321
 21
214.93212393391869
 31
0.0
  0
LINE
  5
C550
  8
0
 10
130.4226525081321
 20
214.93212393391869
 30
0.0
 11
131.5773530350998
 21
214.93212393391869
 31
0.0
  0
LINE
  5
C551
  8
0
 10
131.5773530350998
 20
214.93212393391869
 30
0.0
 11
132.1547032985836
 21
215.93212398141611
 31
0.0
  0
LINE
  5
C552
  8
0
 10
132.1547032985836
 20
215.93212398141611
 30
0.0
 11
131.5773530350998
 21
216.93212402891359
 31
0.0
  0
LINE
  5
C553
  8
0
 10
131.5773530350998
 20
216.93212402891359
 30
0.0
 11
130.4226525081321
 21
216.93212402891359
 31
0.0
  0
LINE
  5
C554
  8
0
 10
130.4226525081321
 20
216.93212402891359
 30
0.0
 11
129.84530224464831
 21
215.93212398141611
 31
0.0
  0
CIRCLE
  5
C555
  8
0
 10
131.0000027716159
 20
215.93212398141611
 30
0.0
 40
3.0
  0
CIRCLE
  5
C558
  8
0
 10
131.00000277161601
 20
215.93212398141611
 30
0.0
 40
8.082846581308587
  0
CIRCLE
  5
C559
  8
0
 10
131.0000027716159
 20
215.93212398141611
 30
0.0
 40
3.301421356237312
  0
LINE
  5
C5B2
  8
0
 10
139.39177144318819
 20
228.0831929892301
 30
0.0
 11
138.38752212002871
 21
226.62906503677371
 31
0.0
  0
POLYLINE
  5
C5B3
  8
0
 66
     1
 10
0.0
 20
0.0
 30
0.0
 70
   128
  0
VERTEX
  5
10043
  8
0
 10
134.89119444973761
 20
226.84603991359469
 30
0.0
  0
VERTEX
  5
10044
  8
0
 10
137.07614170387379
 20
227.44665449857709
 30
0.0
  0
VERTEX
  5
10045
  8
0
 10
139.39177144318819
 20
228.0831929892301
 30
0.0
  0
SEQEND
  5
10046
  8
0
  0
ARC
  5
C5B4
  8
0
 10
131.00000277161601
 20
215.9321239814162
 30
0.0
 40
11.5
 50
18.999999999998401
 51
69.782483770540281
  0
POLYLINE
  5
C5B5
  8
0
 66
     1
 10
0.0
 20
0.0
 30
0.0
 70
   128
  0
VERTEX
  5
10047
  8
0
 10
143.15107177942991
 20
224.32389265298841
 30
0.0
  0
VERTEX
  5
10048
  8
0
 10
142.51528952270741
 20
222.01101217791441
 30
0.0
  0
VERTEX
  5
10049
  8
0
 10
141.873466707766
 20
219.67615784518421
 30
0.0
  0
SEQEND
  5
1004A
  8
0
  0
LINE
  5
C5B6
  8
0
 10
141.69694382697341
 20
223.31964332982901
 30
0.0
 11
143.15107177942991
 21
224.32389265298841
 31
0.0
  0
ARC
  5
C5B7
  8
0
 10
131.00000277161601
 20
215.9321239814162
 30
0.0
 40
13.000000000000011
 50
34.629725722035971
 51
55.370274277964342
  0
ARC
  5
C5B8
  8
0
 10
144.07009835890591
 20
216.10099142402629
 30
0.0
 40
2.2240354247980831
 50
89.092344753912954
 51
131.75547761850311
  0
ARC
  5
C5B9
  8
0
 10
143.2663883695044
 20
217.229042141685
 30
0.0
 40
0.8607509181444024
 50
141.90410002648869
 51
187.7871742115023
  0
ARC
  5
C5BA
  8
0
 10
143.23456779869949
 20
217.17168613661141
 30
0.0
 40
0.8231293615185853
 50
184.12922347292229
 51
230.9557821075702
  0
ARC
  5
C5BB
  8
0
 10
143.82567200702599
 20
218.46127425301779
 30
0.0
 40
2.2252665658989121
 50
240.08984984249901
 51
282.7168238021747
  0
ARC
  5
C5BC
  8
0
 10
144.3453159022261
 20
218.49024105669281
 30
0.0
 40
2.1998491817392352
 50
269.22408387733481
 51
311.87083415660499
  0
ARC
  5
C5BD
  8
0
 10
145.16546830266191
 20
217.3723164687207
 30
0.0
 40
0.8310810959435336
 50
321.2497324199889
 51
7.5612442853206518
  0
ARC
  5
C5BE
  8
0
 10
145.1448014552054
 20
217.4299025244687
 30
0.0
 40
0.8461069454659913
 50
3.5080662360202401
 51
50.187428511025637
  0
ARC
  5
C5BF
  8
0
 10
144.58429001342481
 20
216.1902316438661
 30
0.0
 40
2.1875929058316022
 50
59.74384663379648
 51
102.6470318735019
  0
ARC
  5
C5C0
  8
0
 10
128.86370920185871
 20
228.8065210412845
 30
0.0
 40
2.1177945897094581
 50
186.3325913799861
 51
225.67820039208189
  0
POLYLINE
  5
C5C1
  8
0
 66
     1
 10
0.0
 20
0.0
 30
0.0
 70
   128
  0
VERTEX
  5
1004B
  8
0
 10
127.979733441025
 20
230.486103951931
 30
0.0
  0
VERTEX
  5
1004C
  8
0
 10
128.29572327435011
 20
230.1839000210166
 30
0.0
  0
VERTEX
  5
1004D
  8
0
 10
128.4520574100315
 20
229.90799105167389
 30
0.0
  0
SEQEND
  5
1004E
  8
0
  0
ARC
  5
C5C2
  8
0
 10
127.5550907769947
 20
229.7653919803146
 30
0.0
 40
0.8365088990237779
 50
59.493456922005642
 51
105.74400637328991
  0
ARC
  5
C5C3
  8
0
 10
127.50224828715599
 20
229.73403868637891
 30
0.0
 40
0.8544126804718997
 50
101.7596951967536
 51
148.28036608558659
  0
ARC
  5
C5C4
  8
0
 10
128.81921012168041
 20
229.3569118352093
 30
0.0
 40
2.204488191315491
 50
157.9851491174943
 51
200.83208098781211
  0
LINE
  5
C5C5
  8
0
 10
133.8442409597337
 20
229.16394347697491
 30
0.0
 11
133.83618292398751
 21
229.1160725653171
 31
0.0
  0
LINE
  5
C5C6
  8
0
 10
133.8171068765223
 20
229.16848274320361
 30
0.0
 11
133.8442409597337
 21
229.16394347697491
 31
0.0
  0
LINE
  5
C5C7
  8
0
 10
134.40380377694959
 20
230.27773449569941
 30
0.0
 11
133.34902321919799
 21
230.45453211665151
 31
0.0
  0
LINE
  5
C5C8
  8
0
 10
134.4620677828789
 20
230.62794438004491
 30
0.0
 11
134.40380377694959
 21
230.27773449569941
 31
0.0
  0
LINE
  5
C5C9
  8
0
 10
133.2095343805849
 20
230.8377750813961
 30
0.0
 11
134.4620677828789
 21
230.62794438004491
 31
0.0
  0
LINE
  5
C5CA
  8
0
 10
146.03691354393959
 20
214.84196678642181
 30
0.0
 11
143.26240953057999
 21
214.16538456827399
 31
0.0
  0
LINE
  5
C5CB
  8
0
 10
146.09145272523159
 20
215.3709123739973
 30
0.0
 11
146.03691354393959
 21
214.84196678642181
 31
0.0
  0
LINE
  5
C5CC
  8
0
 10
142.51570489257571
 20
215.74017123924571
 30
0.0
 11
146.09145272523159
 21
215.3709123739973
 31
0.0
  0
LINE
  5
C5CD
  8
0
 10
142.47041653841731
 20
215.30238280678171
 30
0.0
 11
142.51570489257571
 21
215.74017123924571
 31
0.0
  0
LINE
  5
C5CE
  8
0
 10
145.14789536595339
 20
215.02564391260961
 30
0.0
 11
142.47041653841731
 21
215.30238280678171
 31
0.0
  0
LINE
  5
C5CF
  8
0
 10
145.14626368880269
 20
215.00778684997931
 30
0.0
 11
145.14789536595339
 21
215.02564391260961
 31
0.0
  0
LINE
  5
C5D0
  8
0
 10
142.3697470873594
 20
214.3316249493509
 30
0.0
 11
145.14626368880269
 21
215.00778684997931
 31
0.0
  0
LINE
  5
C5D1
  8
0
 10
142.31709104031319
 20
213.8183844871819
 30
0.0
 11
142.3697470873594
 21
214.3316249493509
 31
0.0
  0
LINE
  5
C5D2
  8
0
 10
145.8928379416466
 20
213.4491255637258
 30
0.0
 11
142.31709104031319
 21
213.8183844871819
 31
0.0
  0
LINE
  5
C5D3
  8
0
 10
145.9381272271275
 20
213.8869139961898
 30
0.0
 11
145.8928379416466
 21
213.4491255637258
 31
0.0
  0
LINE
  5
C5D4
  8
0
 10
143.26198950409889
 20
214.16337256226689
 30
0.0
 11
145.9381272271275
 21
213.8869139961898
 31
0.0
  0
LINE
  5
C5D5
  8
0
 10
143.26240953057999
 20
214.16538456827399
 30
0.0
 11
143.26198950409889
 21
214.16337256226689
 31
0.0
  0
ARC
  5
C5D6
  8
0
 10
127.51779839188291
 20
229.7552029194735
 30
0.0
 40
0.4854077250181986
 50
55.013389881099691
 51
102.36467816689481
  0
ARC
  5
C5D7
  8
0
 10
126.8294101523733
 20
229.10939907286499
 30
0.0
 40
1.422466253926757
 50
8.3673909114944145
 51
47.187294842786969
  0
ARC
  5
C5D8
  8
0
 10
129.6666294607821
 20
229.0474383207893
 30
0.0
 40
2.521520306950066
 50
188.4412949369231
 51
214.22746552894779
  0
ARC
  5
C5D9
  8
0
 10
129.3156528293535
 20
229.4576061103034
 30
0.0
 40
2.280859177056529
 50
166.8484261336599
 51
200.00580318557499
  0
ARC
  5
C5DA
  8
0
 10
127.5712455914458
 20
229.70261301116429
 30
0.0
 40
0.5497495920545573
 50
106.6361139654561
 51
150.11096122892059
  0
ARC
  5
C5DB
  8
0
 10
145.1590826474567
 20
217.41095826184531
 30
0.0
 40
0.4834014481196525
 50
316.96210878005991
 51
4.160154060902256
  0
ARC
  5
C5DC
  8
0
 10
144.3965895283545
 20
218.56244581968829
 30
0.0
 40
1.8546116134027599
 50
266.15610065847699
 51
306.98759626594722
  0
ARC
  5
C5DD
  8
0
 10
143.7886470062146
 20
218.8700301361844
 30
0.0
 40
2.2115486859502131
 50
248.13855109928269
 51
282.63127298174197
  0
ARC
  5
C5DE
  8
0
 10
143.27846453288259
 20
217.23501555665069
 30
0.0
 40
0.5219864407114495
 50
189.54209801293669
 51
233.11288499829519
  0
ARC
  5
C5DF
  8
0
 10
143.2660660061903
 20
217.19487208553721
 30
0.0
 40
0.504502855196698
 50
138.06979332338469
 51
185.275610877579
  0
ARC
  5
C5E0
  8
0
 10
144.02511046675849
 20
216.0055533263141
 30
0.0
 40
1.9017949346841629
 50
86.277119415058223
 51
126.61788862640999
  0
ARC
  5
C5E1
  8
0
 10
144.61250856990529
 20
215.68739408796279
 30
0.0
 40
2.2639809088688341
 50
68.616076230490876
 51
101.82424830443649
  0
ARC
  5
C5E2
  8
0
 10
145.13450237451531
 20
217.38521964388511
 30
0.0
 40
0.5103435145288428
 50
6.8429762782515651
 51
53.510495513841711
  0
CIRCLE
  5
C5E3
  8
0
 10
131.00000277161601
 20
215.9321239814162
 30
0.0
 40
16.999999999999972
  0
LINE
  5
C5EA
  8
0
 10
69.750000908970861
 20
125.43212523311379
 30
0.0
 11
69.750000908970861
 21
128.43212525919071
 31
0.0
  0
LINE
  5
C5EB
  8
0
 10
64.250000938773184
 20
128.43212525919071
 30
0.0
 11
64.250000938773184
 21
125.43212523311379
 31
0.0
  0
LINE
  5
C5EC
  8
0
 10
68.500000936910538
 20
128.43212525919071
 30
0.0
 11
68.500000936910538
 21
130.93212520331139
 31
0.0
  0
LINE
  5
C5ED
  8
0
 10
65.500000910833506
 20
130.93212520331139
 30
0.0
 11
65.500000910833506
 21
128.43212525919071
 31
0.0
  0
LINE
  5
C5EE
  8
0
 10
81.874356791377039
 20
125.43212523311379
 30
0.0
 11
81.874356791377039
 21
128.43212525919071
 31
0.0
  0
LINE
  5
C5EF
  8
0
 10
76.374356821179362
 20
128.43212525919071
 30
0.0
 11
76.374356821179362
 21
125.43212523311379
 31
0.0
  0
LINE
  5
C5F0
  8
0
 10
80.624356120824785
 20
128.43212525919071
 30
0.0
 11
80.624356120824785
 21
130.93212520331139
 31
0.0
  0
LINE
  5
C5F1
  8
0
 10
77.624356560409041
 20
130.93212520331139
 30
0.0
 11
77.624356560409041
 21
128.43212525919071
 31
0.0
  0
LINE
  5
C5F2
  8
0
 10
57.625645026564563
 20
125.43212523311379
 30
0.0
 11
57.625645026564563
 21
128.43212525919071
 31
0.0
  0
LINE
  5
C5F3
  8
0
 10
52.125645056366878
 20
128.43212525919071
 30
0.0
 11
52.125645056366878
 21
125.43212523311379
 31
0.0
  0
LINE
  5
C5F4
  8
0
 10
56.375645287334883
 20
128.43212525919071
 30
0.0
 11
56.375645287334883
 21
130.93212520331139
 31
0.0
  0
LINE
  5
C5F5
  8
0
 10
53.375645726919132
 20
130.93212520331139
 30
0.0
 11
53.375645726919132
 21
128.43212525919071
 31
0.0
  0
LINE
  5
C5F6
  8
0
 10
82.102958299219594
 20
166.34686192125079
 30
0.0
 11
75.082847505180581
 21
168.9019715435067
 31
0.0
  0
LINE
  5
C5F7
  8
0
 10
58.917154744267457
 20
168.9019714817405
 30
0.0
 11
51.897043548524373
 21
166.34686192125079
 31
0.0
  0
ARC
  5
C5F8
  8
0
 10
74.911837433517746
 20
168.43212523311371
 30
0.0
 40
0.500000000000012
 50
70.000000000001066
 51
90.0
  0
ARC
  5
C5F9
  8
0
 10
59.088164414226199
 20
168.43212523311371
 30
0.0
 40
0.500000000000012
 50
90.0
 51
109.99999999999891
  0
ARC
  5
C5FA
  8
0
 10
50.526890986512463
 20
153.93212523311371
 30
0.0
 40
0.5000000000000031
 50
176.99999999999761
 51
270.0000000000008
  0
ARC
  5
C5FB
  8
0
 10
83.473110861231504
 20
153.93212523311371
 30
0.0
 40
0.5
 50
270.0000000000008
 51
3.0000000000023381
  0
LINE
  5
C5FC
  8
0
 10
50.583825632929802
 20
164.5721485242247
 30
0.0
 11
50.027576461434357
 21
153.95829354971639
 31
0.0
  0
LINE
  5
C5FD
  8
0
 10
83.972425386309624
 20
153.95829354971639
 30
0.0
 11
83.416176214814186
 21
164.5721485242247
 31
0.0
  0
ARC
  5
C5FE
  8
0
 10
81.41891806149718
 20
164.46747491384519
 30
0.0
 40
1.999999999999998
 50
2.9999999999990772
 51
70.000000000000298
  0
ARC
  5
C5FF
  8
0
 10
52.581083786246793
 20
164.46747491384519
 30
0.0
 40
2.0000000000000022
 50
109.9999999999997
 51
177.00000000000091
  0
LINE
  5
C600
  8
0
 10
50.0
 20
131.43212528526769
 30
0.0
 11
50.500001013278961
 21
130.93212520331139
 31
0.0
  0
LINE
  5
C601
  8
0
 10
83.500000834465027
 20
130.93212520331139
 30
0.0
 11
84.000001847743974
 21
131.43212528526769
 31
0.0
  0
LINE
  5
C602
  8
0
 10
84.000001847743974
 20
131.43212528526769
 30
0.0
 11
84.000001847743974
 21
137.59313331544391
 31
0.0
  0
LINE
  5
C603
  8
0
 10
50.0
 20
137.59313331544391
 30
0.0
 11
50.0
 21
131.43212528526769
 31
0.0
  0
ARC
  5
C604
  8
0
 10
51.00000092387198
 20
137.593133496474
 30
0.0
 40
1.00000000000001
 50
109.9999999999997
 51
180.0
  0
ARC
  5
C605
  8
0
 10
83.000000923871994
 20
137.593133496474
 30
0.0
 40
1.00000000000001
 50
0.0
 51
70.000000000000298
  0
LINE
  5
C606
  8
0
 10
83.342020586133003
 20
138.53282568603751
 30
0.0
 11
76.75000112503767
 21
140.93212497979391
 31
0.0
  0
LINE
  5
C607
  8
0
 10
51.899455673992627
 20
138.984685704112
 30
0.0
 11
50.657981261610978
 21
138.53282568603751
 31
0.0
  0
LINE
  5
C609
  8
0
 10
57.250000722706311
 20
140.93212497979391
 30
0.0
 11
53.808276727795601
 21
139.67944023758159
 31
0.0
  0
ARC
  5
C60A
  8
0
 10
57.600000923871981
 20
130.5321252331137
 30
0.0
 40
0.3999999999999986
 50
0.0
 51
90.0
  0
ARC
  5
C60B
  8
0
 10
76.400000923871971
 20
130.5321252331137
 30
0.0
 40
0.3999999999999986
 50
90.0
 51
180.0
  0
LINE
  5
C60C
  8
0
 10
58.000001311302178
 20
130.53212541714299
 30
0.0
 11
58.000001311302178
 21
125.93212525686241
 31
0.0
  0
LINE
  5
C60D
  8
0
 10
58.000001311302178
 20
125.93212525686241
 30
0.0
 11
58.50000046193599
 21
125.43212523311369
 31
0.0
  0
LINE
  5
C60E
  8
0
 10
76.000000536441803
 20
125.93212525686241
 30
0.0
 11
76.000000536441803
 21
130.53212541714299
 31
0.0
  0
LINE
  5
C60F
  8
0
 10
75.500001385807991
 20
125.43212523311369
 30
0.0
 11
76.000000536441803
 21
125.93212525686241
 31
0.0
  0
ARC
  5
C610
  8
0
 10
58.600000923871981
 20
141.33212523311369
 30
0.0
 40
0.4000000000000057
 50
270.0000000000008
 51
0.0
  0
ARC
  5
C611
  8
0
 10
75.400000923871971
 20
141.33212523311369
 30
0.0
 40
0.4000000000000057
 50
180.0
 51
270.0000000000008
  0
LINE
  5
C612
  8
0
 10
75.000001303851604
 20
141.33212616294611
 30
0.0
 11
75.000001303851604
 21
153.432126097381
 31
0.0
  0
LINE
  5
C613
  8
0
 10
59.000000543892376
 20
153.432126097381
 30
0.0
 11
59.000000543892376
 21
141.33212616294611
 31
0.0
  0
LINE
  5
C618
  8
0
 10
69.750000908970861
 20
125.43212523311379
 30
0.0
 11
64.250000938773184
 21
125.43212523311379
 31
0.0
  0
LINE
  5
C619
  8
0
 10
69.750000908970861
 20
128.43212525919071
 30
0.0
 11
64.250000938773184
 21
128.43212525919071
 31
0.0
  0
LINE
  5
C61B
  8
0
 10
81.874356791377039
 20
125.43212523311379
 30
0.0
 11
76.374356821179362
 21
125.43212523311379
 31
0.0
  0
LINE
  5
C61D
  8
0
 10
81.874356791377039
 20
128.43212525919071
 30
0.0
 11
76.374356821179362
 21
128.43212525919071
 31
0.0
  0
LINE
  5
C61E
  8
0
 10
57.625645026564563
 20
125.43212523311379
 30
0.0
 11
52.125645056366878
 21
125.43212523311379
 31
0.0
  0
LINE
  5
C620
  8
0
 10
57.625645026564563
 20
128.43212525919071
 30
0.0
 11
52.125645056366878
 21
128.43212525919071
 31
0.0
  0
ARC
  5
C629
  8
0
 10
57.939770646882671
 20
153.90515028326561
 30
0.0
 40
0.4745313187614214
 50
173.56989565747179
 51
265.43231681500339
  0
ARC
  5
C62B
  8
0
 10
76.060231200861352
 20
153.90515028326561
 30
0.0
 40
0.4745313187614202
 50
274.5676831849965
 51
6.430104342528165
  0
LINE
  5
C62C
  8
0
 10
58.097933605313301
 20
167.78990154713389
 30
0.0
 11
57.468224503099918
 21
153.95829354971639
 31
0.0
  0
LINE
  5
C62D
  8
0
 10
75.902068242430687
 20
167.78990154713389
 30
0.0
 11
58.097933605313301
 21
167.78990154713389
 31
0.0
  0
LINE
  5
C62E
  8
0
 10
76.531777344644055
 20
153.95829354971639
 30
0.0
 11
75.902068242430687
 21
167.78990154713389
 31
0.0
  0
LINE
  5
C636
  8
0
 10
59.088164195418351
 20
168.9321239814162
 30
0.0
 11
74.91183765232563
 21
168.9321239814162
 31
0.0
  0
POLYLINE
  5
C637
  8
0
 66
     1
 10
0.0
 20
0.0
 30
0.0
 70
   128
  0
VERTEX
  5
1004F
  8
0
 10
54.991063848137848
 20
153.432126097381
 30
0.0
  0
VERTEX
  5
10050
  8
0
 10
54.956603981554501
 20
153.4423818215727
 30
0.0
  0
VERTEX
  5
10051
  8
0
 10
54.92355786263942
 20
153.47272989898909
 30
0.0
  0
VERTEX
  5
10052
  8
0
 10
54.893281497061253
 20
153.52192422002551
 30
0.0
  0
VERTEX
  5
10053
  8
0
 10
54.867017269134521
 20
153.58794753998509
 30
0.0
  0
VERTEX
  5
10054
  8
0
 10
54.845840856432908
 20
153.66809157282111
 30
0.0
  0
VERTEX
  5
10055
  8
0
 10
54.830623045563691
 20
153.75906688719979
 30
0.0
  0
VERTEX
  5
10056
  8
0
 10
54.821986891329281
 20
153.8571426048874
 30
0.0
  0
VERTEX
  5
10057
  8
0
 10
54.820288158953183
 20
153.95829354971639
 30
0.0
  0
SEQEND
  5
10058
  8
0
  0
POLYLINE
  5
C63B
  8
0
 66
     1
 10
0.0
 20
0.0
 30
0.0
 70
   128
  0
VERTEX
  5
10059
  8
0
 10
79.008937999606133
 20
153.432126097381
 30
0.0
  0
VERTEX
  5
1005A
  8
0
 10
79.043397866189466
 20
153.4423818215727
 30
0.0
  0
VERTEX
  5
1005B
  8
0
 10
79.076443985104561
 20
153.47272989898909
 30
0.0
  0
VERTEX
  5
1005C
  8
0
 10
79.106720350682735
 20
153.52192422002551
 30
0.0
  0
VERTEX
  5
1005D
  8
0
 10
79.132984578609467
 20
153.58794753998509
 30
0.0
  0
VERTEX
  5
1005E
  8
0
 10
79.154160991311073
 20
153.66809157282111
 30
0.0
  0
VERTEX
  5
1005F
  8
0
 10
79.16937880218029
 20
153.75906688719979
 30
0.0
  0
VERTEX
  5
10060
  8
0
 10
79.178014956414685
 20
153.8571426048874
 30
0.0
  0
VERTEX
  5
10061
  8
0
 10
79.179713688790784
 20
153.95829354971639
 30
0.0
  0
SEQEND
  5
10062
  8
0
  0
LINE
  5
C63D
  8
0
 10
54.820288158953183
 20
153.95829354971639
 30
0.0
 11
55.053786560893052
 21
166.98506002873179
 31
0.0
  0
ARC
  5
C63E
  8
0
 10
59.277707320972027
 20
157.16830086793729
 30
0.0
 40
10.686920370643239
 50
96.33803829545289
 51
113.28107354798991
  0
ARC
  5
C63F
  8
0
 10
74.696341042176954
 20
157.07013716537489
 30
0.0
 40
10.78735956950827
 50
66.798374932801849
 51
83.582513223756493
  0
LINE
  5
C640
  8
0
 10
78.946215286850915
 20
166.98506002873179
 30
0.0
 11
79.179713688790784
 21
153.95829354971639
 31
0.0
  0
POLYLINE
  5
C643
  8
0
 66
     1
 10
0.0
 20
0.0
 30
0.0
 70
   128
  0
VERTEX
  5
10063
  8
0
 10
50.39429031312465
 20
153.95829354971639
 30
0.0
  0
VERTEX
  5
10064
  8
0
 10
50.395989045500748
 20
153.8571426048874
 30
0.0
  0
VERTEX
  5
10065
  8
0
 10
50.404626131057732
 20
153.75906688719979
 30
0.0
  0
VERTEX
  5
10066
  8
0
 10
50.419843941926949
 20
153.66809157282111
 30
0.0
  0
VERTEX
  5
10067
  8
0
 10
50.441020354628563
 20
153.58794753998509
 30
0.0
  0
VERTEX
  5
10068
  8
0
 10
50.467283651232712
 20
153.52192422002551
 30
0.0
  0
VERTEX
  5
10069
  8
0
 10
50.497560948133462
 20
153.47272989898909
 30
0.0
  0
VERTEX
  5
1006A
  8
0
 10
50.530606135725968
 20
153.4423818215727
 30
0.0
  0
VERTEX
  5
1006B
  8
0
 10
50.565065070986741
 20
153.432126097381
 30
0.0
  0
SEQEND
  5
1006C
  8
0
  0
POLYLINE
  5
C647
  8
0
 66
     1
 10
0.0
 20
0.0
 30
0.0
 70
   128
  0
VERTEX
  5
1006D
  8
0
 10
83.43493677675724
 20
153.432126097381
 30
0.0
  0
VERTEX
  5
1006E
  8
0
 10
83.469395712018013
 20
153.4423818215727
 30
0.0
  0
VERTEX
  5
1006F
  8
0
 10
83.502440899610505
 20
153.47272989898909
 30
0.0
  0
VERTEX
  5
10070
  8
0
 10
83.532718196511254
 20
153.52192422002551
 30
0.0
  0
VERTEX
  5
10071
  8
0
 10
83.558981493115425
 20
153.58794753998509
 30
0.0
  0
VERTEX
  5
10072
  8
0
 10
83.580157905817032
 20
153.66809157282111
 30
0.0
  0
VERTEX
  5
10073
  8
0
 10
83.595375716686235
 20
153.75906688719979
 30
0.0
  0
VERTEX
  5
10074
  8
0
 10
83.604012802243233
 20
153.8571426048874
 30
0.0
  0
VERTEX
  5
10075
  8
0
 10
83.605711534619331
 20
153.95829354971639
 30
0.0
  0
SEQEND
  5
10076
  8
0
  0
LINE
  5
C649
  8
0
 10
50.928811728954308
 20
164.5721485242247
 30
0.0
 11
50.39429031312465
 21
153.95829354971639
 31
0.0
  0
ARC
  5
C64A
  8
0
 10
52.423259050882841
 20
164.48944958186851
 30
0.0
 40
1.4967337482285661
 50
109.1704114299896
 51
176.8326266396148
  0
LINE
  5
C64B
  8
0
 10
55.053786560893052
 20
166.98506002873179
 30
0.0
 11
51.931763254106038
 21
165.9031835719943
 31
0.0
  0
LINE
  5
C64C
  8
0
 10
82.068238593637943
 20
165.9031835719943
 30
0.0
 11
78.946215286850915
 21
166.98506002873179
 31
0.0
  0
ARC
  5
C64D
  8
0
 10
81.579232475784977
 20
164.49132558601869
 30
0.0
 40
1.494145225826597
 50
3.1008194434686511
 51
70.896142486925797
  0
LINE
  5
C64E
  8
0
 10
83.605711534619331
 20
153.95829354971639
 30
0.0
 11
83.071190118789673
 21
164.5721485242247
 31
0.0
  0
LINE
  5
C65B
  8
0
 10
83.473110861231504
 20
153.43212523311371
 30
0.0
 11
50.526890158653252
 21
153.432126097381
 31
0.0
  0
LINE
  5
C65D
  8
0
 10
83.500000834465027
 20
130.93212520331139
 30
0.0
 11
50.500001013278961
 21
130.93212520331139
 31
0.0
  0
LINE
  5
C663
  8
0
 10
51.899455673992627
 20
138.984685704112
 30
0.0
 11
53.808276727795601
 21
139.67944023758159
 31
0.0
  0
LINE
  5
C669
  8
0
 10
76.75000112503767
 20
140.93212497979391
 30
0.0
 11
57.250000722706311
 21
140.93212497979391
 31
0.0
  0
ARC
  5
C66A
  8
0
 10
49.201836221636363
 20
154.3321133352876
 30
0.0
 40
15.58243055565061
 50
289.32782740604188
 51
295.00315599463949
  0
POLYLINE
  5
C66B
  8
0
 66
     1
 10
0.0
 20
0.0
 30
0.0
 70
   128
  0
VERTEX
  5
10077
  8
0
 10
55.877078510820859
 20
140.30708552896971
 30
0.0
  0
VERTEX
  5
10078
  8
0
 10
55.90633787214756
 20
140.30165405571449
 30
0.0
  0
VERTEX
  5
10079
  8
0
 10
55.882836878299713
 20
140.26567520201201
 30
0.0
  0
VERTEX
  5
1007A
  8
0
 10
55.788033828139298
 20
140.20999794453371
 30
0.0
  0
SEQEND
  5
1007B
  8
0
  0
ARC
  5
C66C
  8
0
 10
56.148209917497859
 20
138.3722532517566
 30
0.0
 40
1.953736978365326
 50
97.977013105185307
 51
109.8379340230631
  0
ARC
  5
C66D
  8
0
 10
67.670566913744921
 20
103.5619254895595
 30
0.0
 40
38.620827992714943
 50
108.391794340676
 51
110.95595485019101
  0
ARC
  5
C66E
  8
0
 10
61.755080221073733
 20
117.56088729905289
 30
0.0
 40
23.43785709273789
 50
109.6908305224471
 51
113.4020344158134
  0
POLYLINE
  5
C66F
  8
0
 66
     1
 10
0.0
 20
0.0
 30
0.0
 70
   128
  0
VERTEX
  5
1007C
  8
0
 10
52.36160680651664
 20
138.9878335744142
 30
0.0
  0
VERTEX
  5
1007D
  8
0
 10
52.333381213247769
 20
138.99231416732059
 30
0.0
  0
VERTEX
  5
1007E
  8
0
 10
52.352649345993989
 20
139.0202137976884
 30
0.0
  0
VERTEX
  5
1007F
  8
0
 10
52.446020953357213
 20
139.0707585364579
 30
0.0
  0
SEQEND
  5
10080
  8
0
  0
ARC
  5
C670
  8
0
 10
52.15555826370548
 20
140.89612985935739
 30
0.0
 40
1.9193881090396081
 50
276.16264402189279
 51
288.0058283555793
  0
ARC
  5
C671
  8
0
 10
45.722203415056534
 20
161.98521955262731
 30
0.0
 40
23.967628474345609
 50
287.04802108958398
 51
291.12235244232869
  0
LINE
  5
C675
  8
0
 10
64.75000102072957
 20
128.43212525919071
 30
0.0
 11
64.75000102072957
 21
130.9321252033113
 31
0.0
  0
LINE
  5
C676
  8
0
 10
64.250000938773184
 20
125.43212523311369
 30
0.0
 11
58.50000046193599
 21
125.43212523311369
 31
0.0
  0
LINE
  5
C678
  8
0
 10
69.250000827014446
 20
130.9321252033113
 30
0.0
 11
69.250000827014475
 21
128.43212525919071
 31
0.0
  0
LINE
  5
C679
  8
0
 10
75.500001385807991
 20
125.43212523311369
 30
0.0
 11
69.750000908970861
 21
125.43212523311369
 31
0.0
  0
POLYLINE
  5
C684
  8
0
 66
     1
 10
0.0
 20
0.0
 30
0.0
 70
   128
  0
VERTEX
  5
10081
  8
0
 10
52.779234200716012
 20
139.1751644536852
 30
0.0
  0
VERTEX
  5
10082
  8
0
 10
52.702518366277211
 20
139.13299882411951
 30
0.0
  0
VERTEX
  5
10083
  8
0
 10
52.69033852964639
 20
139.1204846426844
 30
0.0
  0
VERTEX
  5
10084
  8
0
 10
52.702773548662663
 20
139.11586993932721
 30
0.0
  0
SEQEND
  5
10085
  8
0
  0
ARC
  5
C685
  8
0
 10
60.492974112953647
 20
121.1951157606139
 30
0.0
 40
19.564864794801469
 50
109.50158452682039
 51
113.2201370787149
  0
ARC
  5
C686
  8
0
 10
66.238297867793307
 20
107.6747460570183
 30
0.0
 40
34.239467652775659
 50
108.66852945371269
 51
111.0114577686621
  0
ARC
  5
C687
  8
0
 10
55.765329702044539
 20
138.71313198356691
 30
0.0
 40
1.481866572130363
 50
99.251545605431986
 51
109.1794513430421
  0
POLYLINE
  5
C688
  8
0
 66
     1
 10
0.0
 20
0.0
 30
0.0
 70
   128
  0
VERTEX
  5
10086
  8
0
 10
55.454820580780499
 20
140.11268963664759
 30
0.0
  0
VERTEX
  5
10087
  8
0
 10
55.531948991119862
 20
140.1583346873521
 30
0.0
  0
VERTEX
  5
10088
  8
0
 10
55.541492253541939
 20
140.17112547159189
 30
0.0
  0
VERTEX
  5
10089
  8
0
 10
55.52709121257066
 20
140.17572247982019
 30
0.0
  0
SEQEND
  5
1008A
  8
0
  0
ARC
  5
C689
  8
0
 10
49.090192526998848
 20
154.42618692514409
 30
0.0
 40
15.66475964995251
 50
289.25045876389629
 51
293.97276245245928
  0
ARC
  5
C68A
  8
0
 10
44.646270797917282
 20
164.59161402667891
 30
0.0
 40
26.74027436318482
 50
288.10386801664782
 51
291.05901357645399
  0
ARC
  5
C68B
  8
0
 10
52.424194346072227
 20
140.87318013290979
 30
0.0
 40
1.779254194483064
 50
279.00790724296172
 51
287.37623436114018
  0
LINE
  5
C6A6
  8
0
 10
50.657981261610978
 20
138.53282568603751
 30
0.0
 11
83.342020586133003
 21
138.53282568603751
 31
0.0
  0
LINE
  5
C6AA
  8
0
 10
185.6256487220526
 20
125.43212523311379
 30
0.0
 11
185.6256487220526
 21
128.43212525919071
 31
0.0
  0
LINE
  5
C6AB
  8
0
 10
180.1256487518549
 20
128.43212525919071
 30
0.0
 11
180.1256487518549
 21
125.43212523311379
 31
0.0
  0
LINE
  5
C6AC
  8
0
 10
184.3756489828229
 20
128.43212525919071
 30
0.0
 11
184.3756489828229
 21
130.93212520331139
 31
0.0
  0
LINE
  5
C6AD
  8
0
 10
181.37564942240709
 20
130.93212520331139
 30
0.0
 11
181.37564942240709
 21
128.43212525919071
 31
0.0
  0
LINE
  5
C6AE
  8
0
 10
209.87436048686499
 20
125.43212523311379
 30
0.0
 11
209.87436048686499
 21
128.43212525919071
 31
0.0
  0
LINE
  5
C6AF
  8
0
 10
204.37436051666739
 20
128.43212525919071
 30
0.0
 11
204.37436051666739
 21
125.43212523311379
 31
0.0
  0
LINE
  5
C6B0
  8
0
 10
208.62435981631279
 20
128.43212525919071
 30
0.0
 11
208.62435981631279
 21
130.93212520331139
 31
0.0
  0
LINE
  5
C6B1
  8
0
 10
205.62436025589699
 20
130.93212520331139
 30
0.0
 11
205.62436025589699
 21
128.43212525919071
 31
0.0
  0
LINE
  5
C6BC
  8
0
 10
192.3725999798626
 20
125.5547204914036
 30
0.0
 11
192.4433802627027
 21
125.43212523311369
 31
0.0
  0
LINE
  5
C6BD
  8
0
 10
197.55662897601721
 20
125.43212523311369
 30
0.0
 11
197.6274092588574
 21
125.5547204914036
 31
0.0
  0
LINE
  5
C6BE
  8
0
 10
178.000003695488
 20
131.43212528526769
 30
0.0
 11
178.50000470876691
 21
130.93212520331139
 31
0.0
  0
LINE
  5
C6BF
  8
0
 10
211.500004529953
 20
130.93212520331139
 30
0.0
 11
212.00000554323199
 21
131.43212528526769
 31
0.0
  0
LINE
  5
C6C0
  8
0
 10
212.00000554323199
 20
131.43212528526769
 30
0.0
 11
212.00000554323199
 21
137.59313331544391
 31
0.0
  0
LINE
  5
C6C1
  8
0
 10
178.000003695488
 20
137.59313331544391
 30
0.0
 11
178.000003695488
 21
131.43212528526769
 31
0.0
  0
ARC
  5
C6C2
  8
0
 10
179.00000461935991
 20
137.593133496474
 30
0.0
 40
1.00000000000001
 50
109.9999999999997
 51
180.0
  0
ARC
  5
C6C3
  8
0
 10
211.00000461936
 20
137.593133496474
 30
0.0
 40
1.00000000000002
 50
0.0
 51
69.999999999997996
  0
LINE
  5
C6C4
  8
0
 10
208.19172881543639
 20
139.67944023758159
 30
0.0
 11
204.75000482052559
 21
140.93212497979391
 31
0.0
  0
LINE
  5
C6C6
  8
0
 10
211.34202428162101
 20
138.53282568603751
 30
0.0
 11
210.1005498692393
 21
138.984685704112
 31
0.0
  0
LINE
  5
C6C7
  8
0
 10
185.25000441819429
 20
140.93212497979391
 30
0.0
 11
178.6579849570989
 21
138.53282568603751
 31
0.0
  0
ARC
  5
C6CA
  8
0
 10
204.40000461936
 20
130.5321252331137
 30
0.0
 40
0.4000000000000057
 50
90.0
 51
180.0
  0
ARC
  5
C6CB
  8
0
 10
185.60000461935991
 20
130.5321252331137
 30
0.0
 40
0.4000000000000199
 50
0.0
 51
90.0
  0
LINE
  5
C6CC
  8
0
 10
204.00000423192981
 20
125.93212525686241
 30
0.0
 11
204.00000423192981
 21
130.53212541714299
 31
0.0
  0
LINE
  5
C6CD
  8
0
 10
203.500005081296
 20
125.43212523311369
 30
0.0
 11
204.00000423192981
 21
125.93212525686241
 31
0.0
  0
LINE
  5
C6CE
  8
0
 10
186.0000050067901
 20
130.53212541714299
 30
0.0
 11
186.0000050067901
 21
125.93212525686241
 31
0.0
  0
LINE
  5
C6CF
  8
0
 10
186.0000050067901
 20
125.93212525686241
 30
0.0
 11
186.500004157424
 21
125.43212523311369
 31
0.0
  0
ARC
  5
C6D0
  8
0
 10
186.60000461935999
 20
141.33212523311369
 30
0.0
 40
0.4000000000000057
 50
270.0000000000008
 51
0.0
  0
ARC
  5
C6D1
  8
0
 10
203.40000461936
 20
141.33212523311369
 30
0.0
 40
0.4000000000000057
 50
180.0
 51
270.0000000000008
  0
LINE
  5
C6D2
  8
0
 10
203.00000499933961
 20
141.33212616294611
 30
0.0
 11
203.00000499933961
 21
153.432126097381
 31
0.0
  0
LINE
  5
C6D3
  8
0
 10
187.0000042393803
 20
153.432126097381
 30
0.0
 11
187.0000042393803
 21
141.33212616294611
 31
0.0
  0
LINE
  5
C6D4
  8
0
 10
185.6256487220526
 20
125.43212523311379
 30
0.0
 11
180.1256487518549
 21
125.43212523311379
 31
0.0
  0
LINE
  5
C6D5
  8
0
 10
185.6256487220526
 20
128.43212525919071
 30
0.0
 11
180.1256487518549
 21
128.43212525919071
 31
0.0
  0
LINE
  5
C6D6
  8
0
 10
209.87436048686499
 20
125.43212523311379
 30
0.0
 11
204.37436051666739
 21
125.43212523311379
 31
0.0
  0
LINE
  5
C6D7
  8
0
 10
209.87436048686499
 20
128.43212525919071
 30
0.0
 11
204.37436051666739
 21
128.43212525919071
 31
0.0
  0
LINE
  5
C711
  8
0
 10
192.75000471621749
 20
127.9321251772343
 30
0.0
 11
197.25000452250239
 21
127.9321251772343
 31
0.0
  0
LINE
  5
C712
  8
0
 10
197.55662897601721
 20
125.43212523311369
 30
0.0
 11
192.4433802627027
 21
125.43212523311369
 31
0.0
  0
LINE
  5
C713
  8
0
 10
211.500004529953
 20
130.93212520331139
 30
0.0
 11
178.50000470876691
 21
130.93212520331139
 31
0.0
  0
LINE
  5
C715
  8
0
 10
207.1510736271739
 20
139.1060128211974
 30
0.0
 11
205.6969456747174
 21
139.7492223754524
 31
0.0
  0
POLYLINE
  5
C716
  8
0
 66
     1
 10
0.0
 20
0.0
 30
0.0
 70
   128
  0
VERTEX
  5
1008B
  8
0
 10
205.87346855550999
 20
140.29517763853059
 30
0.0
  0
VERTEX
  5
1008C
  8
0
 10
206.51453513652089
 20
139.7421731948852
 30
0.0
  0
VERTEX
  5
1008D
  8
0
 10
207.1510736271739
 20
139.1060128211974
 30
0.0
  0
SEQEND
  5
1008E
  8
0
  0
LINE
  5
C717
  8
0
 10
198.74403848312789
 20
140.29517763853059
 30
0.0
 11
205.87346855550999
 21
140.29517763853059
 31
0.0
  0
POLYLINE
  5
C718
  8
0
 66
     1
 10
0.0
 20
0.0
 30
0.0
 70
   128
  0
VERTEX
  5
1008F
  8
0
 10
203.39177329093209
 20
139.1060128211974
 30
0.0
  0
VERTEX
  5
10090
  8
0
 10
201.0788928158581
 20
139.74146259576071
 30
0.0
  0
VERTEX
  5
10091
  8
0
 10
198.74403848312789
 20
140.29517763853059
 30
0.0
  0
SEQEND
  5
10092
  8
0
  0
LINE
  5
C719
  8
0
 10
202.38752396777269
 20
139.7492223754524
 30
0.0
 11
203.39177329093209
 21
139.1060128211974
 31
0.0
  0
LINE
  5
C71A
  8
0
 10
205.6969456747174
 20
139.7492223754524
 30
0.0
 11
202.38752396777269
 21
139.7492223754524
 31
0.0
  0
ARC
  5
C71B
  8
0
 10
196.58471639016821
 20
139.40842207720701
 30
0.0
 40
0.8382889355129735
 50
15.471511425106
 51
73.130022450168582
  0
ARC
  5
C71C
  8
0
 10
196.21858835299381
 20
138.28675738414961
 30
0.0
 40
2.0180874830150888
 50
72.424087044563294
 51
91.087217618476174
  0
ARC
  5
C71D
  8
0
 10
196.11780171365979
 20
138.84688242049251
 30
0.0
 40
1.458938246940523
 50
87.544943104335687
 51
110.7767912907089
  0
POLYLINE
  5
C71E
  8
0
 66
     1
 10
0.0
 20
0.0
 30
0.0
 70
   128
  0
VERTEX
  5
10093
  8
0
 10
195.3584742289967
 20
139.6326245144009
 30
0.0
  0
VERTEX
  5
10094
  8
0
 10
195.3378217725548
 20
139.91927722096429
 30
0.0
  0
VERTEX
  5
10095
  8
0
 10
195.4053995280992
 20
140.0676769539713
 30
0.0
  0
VERTEX
  5
10096
  8
0
 10
195.60027508065099
 20
140.2109450995921
 30
0.0
  0
SEQEND
  5
10097
  8
0
  0
ARC
  5
C71F
  8
0
 10
196.1193121404057
 20
139.84237286682949
 30
0.0
 40
0.7892203106761068
 50
195.41250578396179
 51
255.37201794874349
  0
ARC
  5
C720
  8
0
 10
196.50778213209111
 20
141.11716891541039
 30
0.0
 40
2.1214858243099348
 50
253.91511939621009
 51
271.12826630084038
  0
ARC
  5
C721
  8
0
 10
196.6260774576113
 20
140.6524645658628
 30
0.0
 40
1.658136814223419
 50
267.35490199080408
 51
288.33619600258868
  0
POLYLINE
  5
C722
  8
0
 66
     1
 10
0.0
 20
0.0
 30
0.0
 70
   128
  0
VERTEX
  5
10098
  8
0
 10
197.3926284257322
 20
139.63204336911431
 30
0.0
  0
VERTEX
  5
10099
  8
0
 10
197.41165441460899
 20
139.35285800695411
 30
0.0
  0
VERTEX
  5
1009A
  8
0
 10
197.34347741119561
 20
139.21117404103271
 30
0.0
  0
VERTEX
  5
1009B
  8
0
 10
197.14771433733401
 20
139.07851645350451
 30
0.0
  0
SEQEND
  5
1009C
  8
0
  0
LINE
  5
C726
  8
0
 10
210.1005498692393
 20
138.984685704112
 30
0.0
 11
208.19172881543639
 21
139.67944023758159
 31
0.0
  0
LINE
  5
C729
  8
0
 10
204.75000482052559
 20
140.93212497979391
 30
0.0
 11
185.25000441819429
 21
140.93212497979391
 31
0.0
  0
LINE
  5
C72A
  8
0
 10
208.23182411491871
 20
139.55484045296899
 30
0.0
 11
207.88183774799111
 21
139.68388264626259
 31
0.0
  0
LINE
  5
C72B
  8
0
 10
208.4201384708285
 20
139.55641811341039
 30
0.0
 11
208.23182411491871
 21
139.55484045296899
 31
0.0
  0
LINE
  5
C72C
  8
0
 10
209.5951350778341
 20
139.12310352176419
 30
0.0
 11
208.4201384708285
 21
139.55641811341039
 31
0.0
  0
LINE
  5
C72D
  8
0
 10
209.34561513364321
 20
139.1144962385296
 30
0.0
 11
209.5951350778341
 21
139.12310352176419
 31
0.0
  0
LINE
  5
C72E
  8
0
 10
209.69582501798871
 20
138.9855713918804
 30
0.0
 11
209.34561513364321
 21
139.1144962385296
 31
0.0
  0
LINE
  5
C72F
  8
0
 10
210.01855436712501
 20
138.98603053390971
 30
0.0
 11
209.69582501798871
 21
138.9855713918804
 31
0.0
  0
LINE
  5
C730
  8
0
 10
206.47301398217681
 20
140.2909391894936
 30
0.0
 11
210.01855436712501
 21
138.98603053390971
 31
0.0
  0
LINE
  5
C731
  8
0
 10
206.39980457723141
 20
140.3013485819101
 30
0.0
 11
206.47301398217681
 21
140.2909391894936
 31
0.0
  0
LINE
  5
C732
  8
0
 10
208.07015117257831
 20
139.6854919716715
 30
0.0
 11
206.39980457723141
 21
140.3013485819101
 31
0.0
  0
LINE
  5
C733
  8
0
 10
207.88183774799111
 20
139.68388264626259
 30
0.0
 11
208.07015117257831
 21
139.6854919716715
 31
0.0
  0
LINE
  5
C734
  8
0
 10
193.90984742436549
 20
138.99348297715181
 30
0.0
 11
193.23326520621771
 21
139.9715979918837
 31
0.0
  0
LINE
  5
C735
  8
0
 10
194.4387930119409
 20
138.98419955372799
 30
0.0
 11
193.90984742436549
 21
138.99348297715181
 31
0.0
  0
LINE
  5
C736
  8
0
 10
194.8080518771894
 20
140.2888800352811
 30
0.0
 11
194.4387930119409
 21
138.98419955372799
 31
0.0
  0
LINE
  5
C737
  8
0
 10
194.3702634447254
 20
140.2996591627597
 30
0.0
 11
194.8080518771894
 21
140.2888800352811
 31
0.0
  0
LINE
  5
C738
  8
0
 10
194.0935245505533
 20
139.32086428254831
 30
0.0
 11
194.3702634447254
 21
140.2996591627597
 31
0.0
  0
LINE
  5
C739
  8
0
 10
194.075667487923
 20
139.32103750854719
 30
0.0
 11
194.0935245505533
 21
139.32086428254831
 31
0.0
  0
LINE
  5
C73A
  8
0
 10
193.39950558729461
 20
140.30178630352009
 30
0.0
 11
194.075667487923
 21
139.32103750854719
 31
0.0
  0
LINE
  5
C73B
  8
0
 10
192.88626512512559
 20
140.29052195698009
 30
0.0
 11
193.39950558729461
 21
140.30178630352009
 31
0.0
  0
LINE
  5
C73C
  8
0
 10
192.51700620166949
 20
138.98546522110689
 30
0.0
 11
192.88626512512559
 21
140.29052195698009
 31
0.0
  0
LINE
  5
C73D
  8
0
 10
192.95479463413349
 20
138.99308064579961
 30
0.0
 11
192.51700620166949
 21
138.98546522110689
 31
0.0
  0
LINE
  5
C73E
  8
0
 10
193.2312532002106
 20
139.9716445580124
 30
0.0
 11
192.95479463413349
 21
138.99308064579961
 31
0.0
  0
LINE
  5
C73F
  8
0
 10
193.23326520621771
 20
139.9715979918837
 30
0.0
 11
193.2312532002106
 21
139.9716445580124
 31
0.0
  0
ARC
  5
C752
  8
0
 10
196.5324706963915
 20
140.08128083617419
 30
0.0
 40
0.9580014240277099
 50
268.88968409716472
 51
290.2084220981946
  0
ARC
  5
C755
  8
0
 10
196.5158541964004
 20
140.29831151660071
 30
0.0
 40
1.1748538431402451
 50
251.80101935383209
 51
269.90504148705361
  0
ARC
  5
C756
  8
0
 10
196.36059204006619
 20
139.73015255497211
 30
0.0
 40
0.5873884673083774
 50
188.651405338714
 51
248.87826249742051
  0
POLYLINE
  5
C757
  8
0
 66
     1
 10
0.0
 20
0.0
 30
0.0
 70
   128
  0
VERTEX
  5
1009D
  8
0
 10
195.88540117489171
 20
140.11397206783289
 30
0.0
  0
VERTEX
  5
1009E
  8
0
 10
195.7923667063005
 20
140.04307699948541
 30
0.0
  0
VERTEX
  5
1009F
  8
0
 10
195.74802952352911
 20
139.92833805829281
 30
0.0
  0
VERTEX
  5
100A0
  8
0
 10
195.7465405133552
 20
139.80909989774219
 30
0.0
  0
VERTEX
  5
100A1
  8
0
 10
195.77988698380059
 20
139.64179617911569
 30
0.0
  0
SEQEND
  5
100A2
  8
0
  0
ARC
  5
C758
  8
0
 10
196.2030005066544
 20
139.33834929991531
 30
0.0
 40
0.8381288765149147
 50
89.086320949295853
 51
112.26794879641631
  0
ARC
  5
C759
  8
0
 10
196.22070254059969
 20
138.99345301252691
 30
0.0
 40
1.1829265503413009
 50
71.304606291788218
 51
90.210075638191995
  0
ARC
  5
C75A
  8
0
 10
196.3661598395509
 20
139.54807724736679
 30
0.0
 40
0.612249790776866
 50
8.7919147013548127
 51
67.559103246658083
  0
POLYLINE
  5
C75B
  8
0
 66
     1
 10
0.0
 20
0.0
 30
0.0
 70
   128
  0
VERTEX
  5
100A3
  8
0
 10
196.86339901760221
 20
139.18225181847799
 30
0.0
  0
VERTEX
  5
100A4
  8
0
 10
196.95782744325689
 20
139.25180019438261
 30
0.0
  0
VERTEX
  5
100A5
  8
0
 10
197.0052324607968
 20
139.38858540356151
 30
0.0
  0
VERTEX
  5
100A6
  8
0
 10
196.99937094934279
 20
139.51450300961719
 30
0.0
  0
VERTEX
  5
100A7
  8
0
 10
196.9712156709283
 20
139.6416574120521
 30
0.0
  0
SEQEND
  5
100A8
  8
0
  0
LINE
  5
C76D
  8
0
 10
197.25000452250239
 20
130.93212520331139
 30
0.0
 11
197.25000452250239
 21
125.93212525686241
 31
0.0
  0
LINE
  5
C76E
  8
0
 10
203.500005081296
 20
125.43212523311369
 30
0.0
 11
197.75000460445881
 21
125.43212523311369
 31
0.0
  0
LINE
  5
C76F
  8
0
 10
197.25000452250239
 20
125.93212525686241
 30
0.0
 11
197.75000460445881
 21
125.43212523311369
 31
0.0
  0
LINE
  5
C771
  8
0
 10
192.75000471621749
 20
125.93212525686241
 30
0.0
 11
192.75000471621749
 21
130.93212520331139
 31
0.0
  0
LINE
  5
C772
  8
0
 10
192.2500046342611
 20
125.43212523311369
 30
0.0
 11
192.75000471621749
 21
125.93212525686241
 31
0.0
  0
LINE
  5
C773
  8
0
 10
192.2500046342611
 20
125.43212523311369
 30
0.0
 11
186.500004157424
 21
125.43212523311369
 31
0.0
  0
LINE
  5
C782
  8
0
 10
178.6579849570989
 20
138.53282568603751
 30
0.0
 11
211.34202428162101
 21
138.53282568603751
 31
0.0
  0
LINE
  5
C787
  8
0
 10
124.30000297725201
 20
64.999999905005083
 30
0.0
 11
127.53590119071301
 21
64.999999905005083
 31
0.0
  0
LINE
  5
C788
  8
0
 10
134.46410435251889
 20
64.999999905005083
 30
0.0
 11
137.7000025659799
 21
64.999999905005083
 31
0.0
  0
LINE
  5
C789
  8
0
 10
137.7000025659799
 20
69.000000094994903
 30
0.0
 11
134.46410435251889
 21
69.000000094994903
 31
0.0
  0
LINE
  5
C78A
  8
0
 10
127.53590119071301
 20
69.000000094994903
 30
0.0
 11
124.30000297725201
 21
69.000000094994903
 31
0.0
  0
LINE
  5
C78B
  8
0
 10
124.30000297725201
 20
69.000000094994903
 30
0.0
 11
124.0000025555491
 21
68.700000022538006
 31
0.0
  0
LINE
  5
C78C
  8
0
 10
124.0000025555491
 20
65.299999977461994
 30
0.0
 11
124.30000297725201
 21
64.999999905005083
 31
0.0
  0
LINE
  5
C78D
  8
0
 10
137.7000025659799
 20
64.999999905005083
 30
0.0
 11
138.00000298768279
 21
65.299999977461994
 31
0.0
  0
LINE
  5
C78E
  8
0
 10
138.00000298768279
 20
68.700000022538006
 30
0.0
 11
137.7000025659799
 21
69.000000094994903
 31
0.0
  0
CIRCLE
  5
C790
  8
0
 10
131.00000277161601
 20
67.0
 30
0.0
 40
1.5
  0
LINE
  5
C791
  8
0
 10
131.00000277161601
 20
67.866025395225734
 30
0.0
 11
130.2500027650967
 21
67.433012697612867
 31
0.0
  0
LINE
  5
C792
  8
0
 10
130.2500027650967
 20
67.433012697612867
 30
0.0
 11
130.2500027650967
 21
66.566987302387133
 31
0.0
  0
LINE
  5
C793
  8
0
 10
130.2500027650967
 20
66.566987302387133
 30
0.0
 11
131.00000277161601
 21
66.133974604774266
 31
0.0
  0
LINE
  5
C794
  8
0
 10
131.00000277161601
 20
66.133974604774266
 30
0.0
 11
131.75000277813521
 21
66.566987302387133
 31
0.0
  0
LINE
  5
C795
  8
0
 10
131.75000277813521
 20
66.566987302387133
 30
0.0
 11
131.75000277813521
 21
67.433012697612867
 31
0.0
  0
LINE
  5
C796
  8
0
 10
131.75000277813521
 20
67.433012697612867
 30
0.0
 11
131.00000277161601
 21
67.866025395225734
 31
0.0
  0
LINE
  5
C797
  8
0
 10
115.7500026002526
 20
67.721687858458608
 30
0.0
 11
115.7500026002526
 21
66.278312141541392
 31
0.0
  0
LINE
  5
C798
  8
0
 10
117.00000233948229
 20
65.556624283082783
 30
0.0
 11
115.7500026002526
 21
66.278312141541392
 31
0.0
  0
LINE
  5
C799
  8
0
 10
117.00000233948229
 20
65.556624283082783
 30
0.0
 11
118.2500030100345
 21
66.278312141541392
 31
0.0
  0
LINE
  5
C79A
  8
0
 10
118.2500030100345
 20
66.278312141541392
 30
0.0
 11
118.2500030100345
 21
67.721687858458608
 31
0.0
  0
LINE
  5
C79B
  8
0
 10
117.00000233948229
 20
68.443375716917217
 30
0.0
 11
118.2500030100345
 21
67.721687858458608
 31
0.0
  0
LINE
  5
C79C
  8
0
 10
117.00000233948229
 20
68.443375716917217
 30
0.0
 11
115.7500026002526
 21
67.721687858458608
 31
0.0
  0
CIRCLE
  5
C79D
  8
0
 10
117.0000027716159
 20
67.0
 30
0.0
 40
2.750000000000056
  0
LINE
  5
C79E
  8
0
 10
139.2500027269125
 20
79.846043333411217
 30
0.0
 11
138.00000298768279
 21
80.567731715738773
 31
0.0
  0
LINE
  5
C79F
  8
0
 10
136.7500027827918
 20
79.846043333411217
 30
0.0
 11
138.00000298768279
 21
80.567731715738773
 31
0.0
  0
LINE
  5
C7A0
  8
0
 10
136.7500027827918
 20
79.846043333411217
 30
0.0
 11
136.7500027827918
 21
78.402667500078664
 31
0.0
  0
LINE
  5
C7A1
  8
0
 10
136.7500027827918
 20
78.402667500078664
 30
0.0
 11
138.00000298768279
 21
77.680980049073696
 31
0.0
  0
LINE
  5
C7A2
  8
0
 10
139.2500027269125
 20
78.402667500078664
 30
0.0
 11
138.00000298768279
 21
77.680980049073696
 31
0.0
  0
LINE
  5
C7A3
  8
0
 10
139.2500027269125
 20
78.402667500078664
 30
0.0
 11
139.2500027269125
 21
79.846043333411217
 31
0.0
  0
CIRCLE
  5
C7A4
  8
0
 10
138.0000027716159
 20
79.124355652982203
 30
0.0
 40
2.75000000000004
  0
LINE
  5
C7A5
  8
0
 10
138.00000298768279
 20
53.43226828426122
 30
0.0
 11
139.2500027269125
 21
54.153956666588783
 31
0.0
  0
LINE
  5
C7A6
  8
0
 10
139.2500027269125
 20
55.597332499921322
 30
0.0
 11
139.2500027269125
 21
54.153956666588783
 31
0.0
  0
LINE
  5
C7A7
  8
0
 10
139.2500027269125
 20
55.597332499921322
 30
0.0
 11
138.00000298768279
 21
56.319019950926297
 31
0.0
  0
LINE
  5
C7A8
  8
0
 10
138.00000298768279
 20
56.319019950926297
 30
0.0
 11
136.7500027827918
 21
55.597332499921322
 31
0.0
  0
LINE
  5
C7A9
  8
0
 10
136.7500027827918
 20
54.153956666588783
 30
0.0
 11
136.7500027827918
 21
55.597332499921322
 31
0.0
  0
LINE
  5
C7AA
  8
0
 10
136.7500027827918
 20
54.153956666588783
 30
0.0
 11
138.00000298768279
 21
53.43226828426122
 31
0.0
  0
CIRCLE
  5
C7AB
  8
0
 10
138.00000277161601
 20
54.875644347017897
 30
0.0
 40
2.7500000000000369
  0
LINE
  5
C7AC
  8
0
 10
137.7000025659799
 20
64.999999905005083
 30
0.0
 11
137.7000025659799
 21
69.000000094994903
 31
0.0
  0
LINE
  5
C7AD
  8
0
 10
124.30000297725201
 20
69.000000094994903
 30
0.0
 11
124.30000297725201
 21
64.999999905005083
 31
0.0
  0
LINE
  5
C7AE
  8
0
 10
124.0000025555491
 20
65.299999977461994
 30
0.0
 11
124.0000025555491
 21
68.700000022538006
 31
0.0
  0
LINE
  5
C7AF
  8
0
 10
138.00000298768279
 20
68.700000022538006
 30
0.0
 11
138.00000298768279
 21
65.299999977461994
 31
0.0
  0
CIRCLE
  5
C7B2
  8
0
 10
131.00000277161601
 20
67.0
 30
0.0
 40
2.556624327025943
  0
ARC
  5
C7B7
  8
0
 10
131.00000277161601
 20
67.0
 30
0.0
 40
9.0000000000000071
 50
194.4775121859299
 51
345.52248781407172
  0
LINE
  5
C7BE
  8
0
 10
122.0000031590443
 20
64.750000096857534
 30
0.0
 11
127.6928136777133
 21
64.750000096857534
 31
0.0
  0
LINE
  5
C7BF
  8
0
 10
134.30719186551869
 20
64.750000096857534
 30
0.0
 11
140.00000238418579
 21
64.750000096857534
 31
0.0
  0
LINE
  5
C7C2
  8
0
 10
127.6928136777133
 20
69.249999903142452
 30
0.0
 11
122.0000031590461
 21
69.249999903142452
 31
0.0
  0
LINE
  5
C7C7
  8
0
 10
140.00000238418681
 20
69.249999903142452
 30
0.0
 11
134.30719186551869
 21
69.249999903142452
 31
0.0
  0
ARC
  5
C7CA
  8
0
 10
131.00000277161601
 20
67.0
 30
0.0
 40
9.0000000000000089
 50
14.477512185929919
 51
165.5224878140701
  0
POLYLINE
  5
C7CC
  8
0
 66
     1
 10
0.0
 20
0.0
 30
0.0
 70
   128
  0
VERTEX
  5
100A9
  8
0
 10
140.12764200568199
 20
64.753623407334089
 30
0.0
  0
VERTEX
  5
100AA
  8
0
 10
140.1220224052667
 20
64.753310948610306
 30
0.0
  0
VERTEX
  5
100AB
  8
0
 10
140.00000238418579
 20
64.750000096857534
 30
0.0
  0
SEQEND
  5
100AC
  8
0
  0
LINE
  5
C7CE
  8
0
 10
122.0000031590461
 20
64.750000096857534
 30
0.0
 11
121.8723635375499
 21
64.753623407334089
 31
0.0
  0
LINE
  5
C7D1
  8
0
 10
140.00000238418579
 20
69.249999903142452
 30
0.0
 11
140.12764200568199
 21
69.246376592665911
 31
0.0
  0
POLYLINE
  5
C7D2
  8
0
 66
     1
 10
0.0
 20
0.0
 30
0.0
 70
   128
  0
VERTEX
  5
100AD
  8
0
 10
121.8723635375499
 20
69.246376592665911
 30
0.0
  0
VERTEX
  5
100AE
  8
0
 10
121.8779831379652
 20
69.246689051389694
 30
0.0
  0
VERTEX
  5
100AF
  8
0
 10
122.0000031590461
 20
69.249999903142452
 30
0.0
  0
SEQEND
  5
100B0
  8
0
  0
CIRCLE
  5
C7DA
  8
0
 10
131.00000277161601
 20
67.0
 30
0.0
 40
17.0
  0
ARC
  5
C7DB
  8
0
 10
140.00000277161601
 20
67.0
 30
0.0
 40
2.2500000000000031
 50
273.25204344797891
 51
86.747956552021805
  0
ARC
  5
C7DC
  8
0
 10
122.000002771616
 20
67.0
 30
0.0
 40
2.2500000000000031
 50
93.252043447978195
 51
266.74795655202257
  0
LINE
  5
C7E5
  8
0
 10
365.37134118657411
 20
125.43212523311379
 30
0.0
 11
365.37134118657411
 21
128.43212525919071
 31
0.0
  0
LINE
  5
C7E6
  8
0
 10
359.87134121637638
 20
128.43212525919071
 30
0.0
 11
359.87134121637638
 21
125.43212523311379
 31
0.0
  0
LINE
  5
C7E7
  8
0
 10
364.12134144734438
 20
128.43212525919071
 30
0.0
 11
364.12134144734438
 21
130.93212520331139
 31
0.0
  0
LINE
  5
C7E8
  8
0
 10
361.12134095560612
 20
130.93212520331139
 30
0.0
 11
361.12134095560612
 21
128.43212525919071
 31
0.0
  0
LINE
  5
C7E9
  8
0
 10
344.3713405383736
 20
125.43212523311379
 30
0.0
 11
344.3713405383736
 21
128.43212525919071
 31
0.0
  0
LINE
  5
C7EA
  8
0
 10
338.87134056817592
 20
128.43212525919071
 30
0.0
 11
338.87134056817592
 21
125.43212523311379
 31
0.0
  0
LINE
  5
C7EB
  8
0
 10
343.12134079914392
 20
128.43212525919071
 30
0.0
 11
343.12134079914392
 21
130.93212520331139
 31
0.0
  0
LINE
  5
C7EC
  8
0
 10
340.12134123872812
 20
130.93212520331139
 30
0.0
 11
340.12134123872812
 21
128.43212525919071
 31
0.0
  0
LINE
  5
C7F7
  8
0
 10
351.62134079541858
 20
125.43212523311369
 30
0.0
 11
351.62134079541858
 21
116.5000004097819
 31
0.0
  0
LINE
  5
C7F8
  8
0
 10
359.62134117539819
 20
116.5000004097819
 30
0.0
 11
359.62134117539819
 21
125.43212523311369
 31
0.0
  0
LINE
  5
C7F9
  8
0
 10
351.62134079541858
 20
116.5000004097819
 30
0.0
 11
353.06471662875111
 21
113.9999999999999
 31
0.0
  0
LINE
  5
C7FA
  8
0
 10
358.1779653420657
 20
113.9999999999999
 30
0.0
 11
359.62134117539819
 21
116.5000004097819
 31
0.0
  0
LINE
  5
C7FB
  8
0
 10
338.62134006153639
 20
131.43212528526769
 30
0.0
 11
339.1213410748154
 21
130.93212520331139
 31
0.0
  0
LINE
  5
C7FC
  8
0
 10
372.12134089600141
 20
130.93212520331139
 30
0.0
 11
372.62134190928037
 21
131.43212528526769
 31
0.0
  0
LINE
  5
C7FD
  8
0
 10
372.62134190928037
 20
131.43212528526769
 30
0.0
 11
372.62134190928037
 21
137.59313331544391
 31
0.0
  0
LINE
  5
C7FE
  8
0
 10
338.62134006153639
 20
137.59313331544391
 30
0.0
 11
338.62134006153639
 21
131.43212528526769
 31
0.0
  0
ARC
  5
C7FF
  8
0
 10
339.62134098540838
 20
137.593133496474
 30
0.0
 40
1.00000000000002
 50
110.00000000000161
 51
180.0
  0
ARC
  5
C800
  8
0
 10
371.62134098540838
 20
137.593133496474
 30
0.0
 40
1.00000000000001
 50
0.0
 51
70.000000000000682
  0
LINE
  5
C801
  8
0
 10
371.96336064766939
 20
138.53282568603751
 30
0.0
 11
365.37134118657411
 21
140.93212497979391
 31
0.0
  0
LINE
  5
C802
  8
0
 10
345.8713407842427
 20
140.93212497979391
 30
0.0
 11
339.27932132314743
 21
138.53282568603751
 31
0.0
  0
ARC
  5
C803
  8
0
 10
347.2213409854084
 20
141.33212523311369
 30
0.0
 40
0.4000000000000057
 50
270.0000000000008
 51
0.0
  0
ARC
  5
C804
  8
0
 10
364.02134098540841
 20
141.33212523311369
 30
0.0
 40
0.4000000000000057
 50
180.0
 51
270.0000000000008
  0
LINE
  5
C805
  8
0
 10
363.62134136538799
 20
141.33212616294611
 30
0.0
 11
363.62134136538799
 21
141.99999993294469
 31
0.0
  0
LINE
  5
C806
  8
0
 10
347.62134060542883
 20
141.99999993294469
 30
0.0
 11
347.62134060542883
 21
141.33212616294611
 31
0.0
  0
LINE
  5
C807
  8
0
 10
365.37134118657411
 20
125.43212523311379
 30
0.0
 11
359.87134121637638
 21
125.43212523311379
 31
0.0
  0
LINE
  5
C808
  8
0
 10
365.37134118657411
 20
128.43212525919071
 30
0.0
 11
359.87134121637638
 21
128.43212525919071
 31
0.0
  0
LINE
  5
C809
  8
0
 10
344.3713405383736
 20
125.43212523311379
 30
0.0
 11
338.87134056817592
 21
125.43212523311379
 31
0.0
  0
LINE
  5
C80A
  8
0
 10
344.3713405383736
 20
128.43212525919071
 30
0.0
 11
338.87134056817592
 21
128.43212525919071
 31
0.0
  0
CIRCLE
  5
C80B
  8
0
 10
355.62134098540838
 20
119.0000002331136
 30
0.0
 40
1.7000000000000171
  0
CIRCLE
  5
C80C
  8
0
 10
355.62134098540838
 20
119.0000002331136
 30
0.0
 40
2.0
  0
LINE
  5
C842
  8
0
 10
351.62134079541858
 20
116.5000004097819
 30
0.0
 11
359.62134117539819
 21
116.5000004097819
 31
0.0
  0
LINE
  5
C843
  8
0
 10
358.1779653420657
 20
113.9999999999999
 30
0.0
 11
353.06471662875111
 21
113.9999999999999
 31
0.0
  0
LINE
  5
C844
  8
0
 10
372.12134089600141
 20
130.93212520331139
 30
0.0
 11
339.1213410748154
 21
130.93212520331139
 31
0.0
  0
LINE
  5
C848
  8
0
 10
365.37134118657411
 20
140.93212497979391
 30
0.0
 11
345.8713407842427
 21
140.93212497979391
 31
0.0
  0
LINE
  5
C849
  8
0
 10
370.65825175773199
 20
138.99348297715181
 30
0.0
 11
367.8837477443725
 21
139.9715979918837
 31
0.0
  0
LINE
  5
C84A
  8
0
 10
370.7127909390241
 20
138.98419955372799
 30
0.0
 11
370.65825175773199
 21
138.99348297715181
 31
0.0
  0
LINE
  5
C84B
  8
0
 10
367.1370431063682
 20
140.2888800352811
 30
0.0
 11
370.7127909390241
 21
138.98419955372799
 31
0.0
  0
LINE
  5
C84C
  8
0
 10
367.09175475220979
 20
140.2996591627597
 30
0.0
 11
367.1370431063682
 21
140.2888800352811
 31
0.0
  0
LINE
  5
C84D
  8
0
 10
369.7692335797459
 20
139.32086428254831
 30
0.0
 11
367.09175475220979
 21
140.2996591627597
 31
0.0
  0
LINE
  5
C84E
  8
0
 10
369.76760190259512
 20
139.32103750854719
 30
0.0
 11
369.7692335797459
 21
139.32086428254831
 31
0.0
  0
LINE
  5
C84F
  8
0
 10
366.99108530115183
 20
140.30178630352009
 30
0.0
 11
369.76760190259512
 21
139.32103750854719
 31
0.0
  0
LINE
  5
C850
  8
0
 10
366.9384292541057
 20
140.29052195698009
 30
0.0
 11
366.99108530115183
 21
140.30178630352009
 31
0.0
  0
LINE
  5
C851
  8
0
 10
370.51417615543897
 20
138.98546522110689
 30
0.0
 11
366.9384292541057
 21
140.29052195698009
 31
0.0
  0
LINE
  5
C852
  8
0
 10
370.55946544092001
 20
138.99308064579961
 30
0.0
 11
370.51417615543897
 21
138.98546522110689
 31
0.0
  0
LINE
  5
C853
  8
0
 10
367.88332771789129
 20
139.9716445580124
 30
0.0
 11
370.55946544092001
 21
138.99308064579961
 31
0.0
  0
LINE
  5
C854
  8
0
 10
367.8837477443725
 20
139.9715979918837
 30
0.0
 11
367.88332771789129
 21
139.9716445580124
 31
0.0
  0
ARC
  5
C855
  8
0
 10
364.73835512636441
 20
130.52727915675621
 30
0.0
 40
0.4028311887991818
 50
106.8867136330021
 51
179.31068652888089
  0
ARC
  5
C856
  8
0
 10
346.50692047134112
 20
130.5292265989255
 30
0.0
 40
0.4002189077153576
 50
0.4150016366471264
 51
73.387598201466886
  0
LINE
  5
C857
  8
0
 10
346.90712888073023
 20
125.93212525686241
 30
0.0
 11
347.57848672848041
 21
125.43212523311369
 31
0.0
  0
LINE
  5
C859
  8
0
 10
359.87134121637638
 20
125.43212523311369
 30
0.0
 11
347.57848672848041
 21
125.43212523311369
 31
0.0
  0
LINE
  5
C85A
  8
0
 10
364.33555309008659
 20
128.43212525919071
 30
0.0
 11
364.33555309008659
 21
130.53212541714299
 31
0.0
  0
LINE
  5
C85B
  8
0
 10
346.90712888073023
 20
130.53212541714299
 30
0.0
 11
346.90712888073023
 21
125.93212525686241
 31
0.0
  0
LINE
  5
C86E
  8
0
 10
339.27932132314743
 20
138.53282568603751
 30
0.0
 11
371.96336064766939
 21
138.53282568603751
 31
0.0
  0
LINE
  5
C8E8
  8
0
 10
364.0131096569807
 20
228.0831929892301
 30
0.0
 11
363.00886033382119
 21
226.6290650367736
 31
0.0
  0
POLYLINE
  5
C8E9
  8
0
 66
     1
 10
0.0
 20
0.0
 30
0.0
 70
   128
  0
VERTEX
  5
100B1
  8
0
 10
359.36537484917648
 20
226.80558791756621
 30
0.0
  0
VERTEX
  5
100B2
  8
0
 10
361.69747991766639
 20
227.44665449857709
 30
0.0
  0
VERTEX
  5
100B3
  8
0
 10
364.0131096569807
 20
228.0831929892301
 30
0.0
  0
SEQEND
  5
100B4
  8
0
  0
ARC
  5
C8EA
  8
0
 10
355.62134098540849
 20
215.9321239814162
 30
0.0
 40
11.50000000000003
 50
20.217516229461939
 51
71.000000000000014
  0
POLYLINE
  5
C8EB
  8
0
 66
     1
 10
0.0
 20
0.0
 30
0.0
 70
   128
  0
VERTEX
  5
100B5
  8
0
 10
367.77240999322242
 20
224.32389265298841
 30
0.0
  0
VERTEX
  5
100B6
  8
0
 10
367.13662773649997
 20
222.0110121779143
 30
0.0
  0
VERTEX
  5
100B7
  8
0
 10
366.54146231990171
 20
219.84589068591589
 30
0.0
  0
SEQEND
  5
100B8
  8
0
  0
LINE
  5
C8EC
  8
0
 10
366.31828204076589
 20
223.31964332982889
 30
0.0
 11
367.77240999322242
 21
224.32389265298841
 31
0.0
  0
ARC
  5
C8ED
  8
0
 10
355.62134098540849
 20
215.9321239814162
 30
0.0
 40
13.00000000000002
 50
34.629725722036213
 51
55.370274277964171
  0
LINE
  5
C8EE
  8
0
 10
355.70909708872063
 20
229.4775514528155
 30
0.0
 11
355.72347959782792
 21
229.12747940421099
 31
0.0
  0
LINE
  5
C8EF
  8
0
 10
354.56220370065279
 20
229.43144726008171
 30
0.0
 11
355.70909708872063
 21
229.4775514528155
 31
0.0
  0
LINE
  5
C8F0
  8
0
 10
354.51427632756389
 20
230.63524315506211
 30
0.0
 11
354.56220370065279
 21
229.43144726008171
 31
0.0
  0
LINE
  5
C8F1
  8
0
 10
356.0311566495788
 20
230.6959560737013
 30
0.0
 11
354.51427632756389
 21
230.63524315506211
 31
0.0
  0
LINE
  5
C8F2
  8
0
 10
356.01745706912919
 20
231.04608307033769
 30
0.0
 11
356.0311566495788
 21
230.6959560737013
 31
0.0
  0
LINE
  5
C8F3
  8
0
 10
354.06276078242672
 20
230.9680615216493
 30
0.0
 11
356.01745706912919
 21
231.04608307033769
 31
0.0
  0
LINE
  5
C8F4
  8
0
 10
354.20678667537732
 20
227.36219285428521
 30
0.0
 11
354.06276078242672
 21
230.9680615216493
 31
0.0
  0
LINE
  5
C8F5
  8
0
 10
354.64460258185721
 20
227.37950148433441
 30
0.0
 11
354.20678667537732
 21
227.36219285428521
 31
0.0
  0
LINE
  5
C8F6
  8
0
 10
354.5765862315879
 20
229.08137521147719
 30
0.0
 11
354.64460258185721
 21
227.37950148433441
 31
0.0
  0
LINE
  5
C8F7
  8
0
 10
355.72347959782792
 20
229.12747940421099
 30
0.0
 11
354.5765862315879
 21
229.08137521147719
 31
0.0
  0
ARC
  5
C8F8
  8
0
 10
353.58638260018603
 20
228.85004066144609
 30
0.0
 40
2.2235430476827869
 50
187.15916919373311
 51
230.1050154149105
  0
ARC
  5
C8F9
  8
0
 10
352.59787209126517
 20
227.8665992073098
 30
0.0
 40
0.8447123298245015
 50
238.79625451061551
 51
286.10713683541621
  0
ARC
  5
C8FA
  8
0
 10
352.65666154419819
 20
227.85095003315701
 30
0.0
 40
0.8150367348155297
 50
282.43927127383222
 51
330.28410986674947
  0
ARC
  5
C8FB
  8
0
 10
351.29009385362173
 20
228.27615511177339
 30
0.0
 40
2.234016768393992
 50
338.21169896038992
 51
20.932670080505929
  0
ARC
  5
C8FC
  8
0
 10
351.18556950986789
 20
228.78953100287779
 30
0.0
 40
2.2095262147835979
 50
7.4051103187558533
 51
50.160735544411978
  0
ARC
  5
C8FD
  8
0
 10
352.1764289907872
 20
229.76539198031449
 30
0.0
 40
0.8365088990237776
 50
59.493456922006793
 51
105.7440063732904
  0
ARC
  5
C8FE
  8
0
 10
352.12358650094848
 20
229.73403868637891
 30
0.0
 40
0.8544126804718889
 50
101.7596951967552
 51
148.28036608559029
  0
ARC
  5
C8FF
  8
0
 10
353.44054833547301
 20
229.3569118352093
 30
0.0
 40
2.2044881913155052
 50
157.9851491174943
 51
200.8320809878104
  0
LINE
  5
C900
  8
0
 10
358.46557917352618
 20
229.16394347697491
 30
0.0
 11
358.40666743274642
 21
228.81395711004731
 31
0.0
  0
LINE
  5
C901
  8
0
 10
357.33990052062882
 20
229.3522578328847
 30
0.0
 11
358.46557917352618
 21
229.16394347697491
 31
0.0
  0
LINE
  5
C902
  8
0
 10
357.5364995729164
 20
230.5272544398903
 30
0.0
 11
357.33990052062882
 21
229.3522578328847
 31
0.0
  0
LINE
  5
C903
  8
0
 10
359.02514199074221
 20
230.27773449569929
 30
0.0
 11
357.5364995729164
 21
230.5272544398903
 31
0.0
  0
LINE
  5
C904
  8
0
 10
359.08340599667139
 20
230.62794438004491
 30
0.0
 11
359.02514199074221
 21
230.27773449569929
 31
0.0
  0
LINE
  5
C905
  8
0
 10
357.15695116482527
 20
230.9506737291812
 30
0.0
 11
359.08340599667139
 21
230.62794438004491
 31
0.0
  0
LINE
  5
C906
  8
0
 10
356.56370159517832
 20
227.40513334423301
 30
0.0
 11
357.15695116482527
 21
230.9506737291812
 31
0.0
  0
LINE
  5
C907
  8
0
 10
357.00151389278329
 20
227.33192393928761
 30
0.0
 11
356.56370159517832
 21
227.40513334423301
 31
0.0
  0
LINE
  5
C908
  8
0
 10
357.28098877984888
 20
229.0022705346345
 30
0.0
 11
357.00151389278329
 21
227.33192393928761
 31
0.0
  0
LINE
  5
C909
  8
0
 10
358.40666743274642
 20
228.81395711004731
 30
0.0
 11
357.28098877984888
 21
229.0022705346345
 31
0.0
  0
LINE
  5
C90A
  8
0
 10
370.51417615543909
 20
213.4491255637258
 30
0.0
 11
369.93887584935732
 21
213.5085355620831
 31
0.0
  0
LINE
  5
C90B
  8
0
 10
370.54307230096168
 20
213.72844503633669
 30
0.0
 11
370.51417615543909
 21
213.4491255637258
 31
0.0
  0
ARC
  5
C90C
  8
0
 10
352.1391366056755
 20
229.75520291947339
 30
0.0
 40
0.4854077250182236
 50
55.013389881101467
 51
102.364678166894
  0
ARC
  5
C90D
  8
0
 10
351.09599037523918
 20
228.82651667056339
 30
0.0
 40
1.8723129059666159
 50
4.4119146530585747
 51
45.106079013301837
  0
ARC
  5
C90E
  8
0
 10
350.88061619629048
 20
228.17889737026979
 30
0.0
 40
2.2275573619361442
 50
346.36096173805549
 51
20.817291027712599
  0
ARC
  5
C90F
  8
0
 10
352.59714248174538
 20
227.8899674055379
 30
0.0
 40
0.5067073663638287
 50
286.8574640270802
 51
332.1979426582576
  0
ARC
  5
C910
  8
0
 10
352.6263476988633
 20
227.89739098158799
 30
0.0
 40
0.5062384891708139
 50
236.0802184218592
 51
283.44841058351369
  0
ARC
  5
C911
  8
0
 10
353.69400993300872
 20
228.8223087233537
 30
0.0
 40
1.905772034092833
 50
184.3641335449195
 51
224.89041282943811
  0
ARC
  5
C912
  8
0
 10
353.93699104314612
 20
229.4576061103034
 30
0.0
 40
2.2808591770565378
 50
166.8484261336599
 51
200.0058031855767
  0
ARC
  5
C913
  8
0
 10
352.19258380523843
 20
229.70261301116429
 30
0.0
 40
0.5497495920545698
 50
106.6361139654569
 51
150.1109612289207
  0
LINE
  5
C972
  8
0
 10
306.49569500516952
 20
125.43212523311379
 30
0.0
 11
306.49569500516952
 21
128.43212525919071
 31
0.0
  0
LINE
  5
C973
  8
0
 10
300.99569503497179
 20
128.43212525919071
 30
0.0
 11
300.99569503497179
 21
125.43212523311379
 31
0.0
  0
LINE
  5
C974
  8
0
 10
305.24569433461721
 20
128.43212525919071
 30
0.0
 11
305.24569433461721
 21
130.93212520331139
 31
0.0
  0
LINE
  5
C975
  8
0
 10
302.24569477420152
 20
130.93212520331139
 30
0.0
 11
302.24569477420152
 21
128.43212525919071
 31
0.0
  0
LINE
  5
C976
  8
0
 10
282.246983240357
 20
125.43212523311379
 30
0.0
 11
282.246983240357
 21
128.43212525919071
 31
0.0
  0
LINE
  5
C977
  8
0
 10
276.74698327015932
 20
128.43212525919071
 30
0.0
 11
276.74698327015932
 21
125.43212523311379
 31
0.0
  0
LINE
  5
C978
  8
0
 10
280.99698350112732
 20
128.43212525919071
 30
0.0
 11
280.99698350112732
 21
130.93212520331139
 31
0.0
  0
LINE
  5
C979
  8
0
 10
277.99698394071157
 20
130.93212520331139
 30
0.0
 11
277.99698394071157
 21
128.43212525919071
 31
0.0
  0
LINE
  5
C97A
  8
0
 10
294.37133912276329
 20
125.43212523311379
 30
0.0
 11
294.37133912276329
 21
128.43212525919071
 31
0.0
  0
LINE
  5
C97B
  8
0
 10
288.87133915256561
 20
128.43212525919071
 30
0.0
 11
288.87133915256561
 21
125.43212523311379
 31
0.0
  0
LINE
  5
C97C
  8
0
 10
293.12133915070291
 20
128.43212525919071
 30
0.0
 11
293.12133915070291
 21
130.93212520331139
 31
0.0
  0
LINE
  5
C97D
  8
0
 10
290.12133912462588
 20
130.93212520331139
 30
0.0
 11
290.12133912462588
 21
128.43212525919071
 31
0.0
  0
LINE
  5
C97E
  8
0
 10
284.92133934330042
 20
121.00000021606679
 30
0.0
 11
284.6213389215975
 21
120.70000026002521
 31
0.0
  0
LINE
  5
C97F
  8
0
 10
284.6213389215975
 20
117.29999998211851
 30
0.0
 11
284.92133934330042
 21
117.00000049173821
 31
0.0
  0
LINE
  5
C980
  8
0
 10
284.92133934330042
 20
117.00000049173821
 30
0.0
 11
287.62133894767459
 21
117.00000049173821
 31
0.0
  0
LINE
  5
C981
  8
0
 10
295.6213393276542
 20
117.00000049173821
 30
0.0
 11
298.32133893202843
 21
117.00000049173821
 31
0.0
  0
LINE
  5
C982
  8
0
 10
298.32133893202843
 20
121.00000021606679
 30
0.0
 11
295.6213393276542
 21
121.00000021606679
 31
0.0
  0
LINE
  5
C983
  8
0
 10
287.62133894767459
 20
121.00000021606679
 30
0.0
 11
284.92133934330042
 21
121.00000021606679
 31
0.0
  0
LINE
  5
C984
  8
0
 10
298.32133893202843
 20
117.00000049173821
 30
0.0
 11
298.62133935373117
 21
117.29999998211851
 31
0.0
  0
LINE
  5
C985
  8
0
 10
298.62133935373117
 20
120.70000026002521
 30
0.0
 11
298.32133893202843
 21
121.00000021606679
 31
0.0
  0
LINE
  5
C990
  8
0
 10
287.62133894767459
 20
117.00000049173821
 30
0.0
 11
287.62133894767459
 21
116.5000004097819
 31
0.0
  0
LINE
  5
C991
  8
0
 10
287.62133894767459
 20
125.43212523311369
 30
0.0
 11
287.62133894767459
 21
121.00000021606679
 31
0.0
  0
LINE
  5
C992
  8
0
 10
295.6213393276542
 20
121.00000021606679
 30
0.0
 11
295.6213393276542
 21
125.43212523311369
 31
0.0
  0
LINE
  5
C993
  8
0
 10
295.6213393276542
 20
116.5000004097819
 30
0.0
 11
295.6213393276542
 21
117.00000049173821
 31
0.0
  0
LINE
  5
C994
  8
0
 10
287.62133894767459
 20
116.5000004097819
 30
0.0
 11
289.06471478100713
 21
113.9999999999999
 31
0.0
  0
LINE
  5
C995
  8
0
 10
294.1779634943216
 20
113.9999999999999
 30
0.0
 11
295.6213393276542
 21
116.5000004097819
 31
0.0
  0
LINE
  5
C996
  8
0
 10
274.6213382137924
 20
131.43212528526769
 30
0.0
 11
275.12133922707142
 21
130.93212520331139
 31
0.0
  0
LINE
  5
C997
  8
0
 10
308.12133904825743
 20
130.93212520331139
 30
0.0
 11
308.62134006153639
 21
131.43212528526769
 31
0.0
  0
LINE
  5
C998
  8
0
 10
308.62134006153639
 20
131.43212528526769
 30
0.0
 11
308.62134006153639
 21
137.59313331544391
 31
0.0
  0
LINE
  5
C999
  8
0
 10
274.6213382137924
 20
137.59313331544391
 30
0.0
 11
274.6213382137924
 21
131.43212528526769
 31
0.0
  0
ARC
  5
C99A
  8
0
 10
275.62133913766439
 20
137.593133496474
 30
0.0
 40
1.00000000000001
 50
109.9999999999993
 51
180.0
  0
ARC
  5
C99B
  8
0
 10
307.62133913766439
 20
137.593133496474
 30
0.0
 40
1.00000000000002
 50
0.0
 51
69.99999999999838
  0
LINE
  5
C99C
  8
0
 10
307.9633587999254
 20
138.53282568603751
 30
0.0
 11
301.37133933883013
 21
140.93212497979391
 31
0.0
  0
LINE
  5
C99D
  8
0
 10
276.52079388778498
 20
138.984685704112
 30
0.0
 11
275.27931947540338
 21
138.53282568603751
 31
0.0
  0
LINE
  5
C99E
  8
0
 10
278.429614941588
 20
139.67944023758159
 30
0.0
 11
276.52079388778498
 21
138.984685704112
 31
0.0
  0
LINE
  5
C99F
  8
0
 10
281.87133893649872
 20
140.93212497979391
 30
0.0
 11
278.429614941588
 21
139.67944023758159
 31
0.0
  0
ARC
  5
C9A0
  8
0
 10
282.22133913766442
 20
130.5321252331137
 30
0.0
 40
0.4000000000000057
 50
0.0
 51
90.0
  0
ARC
  5
C9A1
  8
0
 10
301.02133913766443
 20
130.5321252331137
 30
0.0
 40
0.4000000000000057
 50
90.0
 51
180.0
  0
LINE
  5
C9A2
  8
0
 10
282.62133952509458
 20
130.53212541714299
 30
0.0
 11
282.62133952509458
 21
125.93212525686241
 31
0.0
  0
LINE
  5
C9A3
  8
0
 10
282.62133952509458
 20
125.93212525686241
 30
0.0
 11
283.1213386757284
 21
125.43212523311369
 31
0.0
  0
LINE
  5
C9A4
  8
0
 10
300.6213387502342
 20
125.93212525686241
 30
0.0
 11
300.6213387502342
 21
130.53212541714299
 31
0.0
  0
LINE
  5
C9A5
  8
0
 10
300.12133959960039
 20
125.43212523311369
 30
0.0
 11
300.6213387502342
 21
125.93212525686241
 31
0.0
  0
ARC
  5
C9A6
  8
0
 10
283.22133913766442
 20
141.33212523311369
 30
0.0
 40
0.3999999999999915
 50
270.0000000000008
 51
0.0
  0
ARC
  5
C9A7
  8
0
 10
300.02133913766443
 20
141.33212523311369
 30
0.0
 40
0.3999999999999915
 50
180.0
 51
270.0000000000008
  0
LINE
  5
C9A8
  8
0
 10
299.621339517644
 20
141.33212616294611
 30
0.0
 11
299.621339517644
 21
141.99999993294469
 31
0.0
  0
LINE
  5
C9A9
  8
0
 10
283.62133875768478
 20
141.99999993294469
 30
0.0
 11
283.62133875768478
 21
141.33212616294611
 31
0.0
  0
LINE
  5
C9AF
  8
0
 10
306.49569500516952
 20
125.43212523311379
 30
0.0
 11
300.99569503497179
 21
125.43212523311379
 31
0.0
  0
LINE
  5
C9B1
  8
0
 10
306.49569500516952
 20
128.43212525919071
 30
0.0
 11
300.99569503497179
 21
128.43212525919071
 31
0.0
  0
LINE
  5
C9B2
  8
0
 10
282.246983240357
 20
125.43212523311379
 30
0.0
 11
276.74698327015932
 21
125.43212523311379
 31
0.0
  0
LINE
  5
C9B4
  8
0
 10
282.246983240357
 20
128.43212525919071
 30
0.0
 11
276.74698327015932
 21
128.43212525919071
 31
0.0
  0
LINE
  5
C9B6
  8
0
 10
294.37133912276329
 20
125.43212523311379
 30
0.0
 11
288.87133915256561
 21
125.43212523311379
 31
0.0
  0
LINE
  5
C9B7
  8
0
 10
294.37133912276329
 20
128.43212525919071
 30
0.0
 11
288.87133915256561
 21
128.43212525919071
 31
0.0
  0
LINE
  5
C9B8
  8
0
 10
284.92133934330042
 20
121.00000021606679
 30
0.0
 11
284.92133934330042
 21
117.00000049173821
 31
0.0
  0
LINE
  5
C9B9
  8
0
 10
284.6213389215975
 20
117.29999998211851
 30
0.0
 11
284.6213389215975
 21
120.70000026002521
 31
0.0
  0
LINE
  5
C9BA
  8
0
 10
298.32133893202843
 20
117.00000049173821
 30
0.0
 11
298.32133893202843
 21
121.00000021606679
 31
0.0
  0
LINE
  5
C9BB
  8
0
 10
298.62133935373117
 20
120.70000026002521
 30
0.0
 11
298.62133935373117
 21
117.29999998211851
 31
0.0
  0
ARC
  5
C9F1
  8
0
 10
283.9717039053038
 20
119.00100803475689
 30
0.0
 40
4.1612264638491716
 50
331.61839418479508
 51
28.71057206814945
  0
POLYLINE
  5
C9F2
  8
0
 66
     1
 10
0.0
 20
0.0
 30
0.0
 70
   128
  0
VERTEX
  5
100B9
  8
0
 10
295.61332250293191
 20
117.0162250623106
 30
0.0
  0
VERTEX
  5
100BA
  8
0
 10
295.61959589179452
 20
117.0034892261027
 30
0.0
  0
VERTEX
  5
100BB
  8
0
 10
295.55791672598423
 20
117.130069002509
 30
0.0
  0
VERTEX
  5
100BC
  8
0
 10
295.4261688077807
 20
117.4262379631399
 30
0.0
  0
VERTEX
  5
100BD
  8
0
 10
295.25360102113177
 20
117.90760507434599
 30
0.0
  0
VERTEX
  5
100BE
  8
0
 10
295.1739599024861
 20
118.2118923738598
 30
0.0
  0
VERTEX
  5
100BF
  8
0
 10
295.11385932843979
 20
118.5553683303296
 30
0.0
  0
VERTEX
  5
100C0
  8
0
 10
295.08764539193209
 20
118.87639335915441
 30
0.0
  0
VERTEX
  5
100C1
  8
0
 10
295.09201934840382
 20
119.21358987316481
 30
0.0
  0
VERTEX
  5
100C2
  8
0
 10
295.1716835172831
 20
119.7777822948991
 30
0.0
  0
VERTEX
  5
100C3
  8
0
 10
295.3171980129539
 20
120.2881666235625
 30
0.0
  0
VERTEX
  5
100C4
  8
0
 10
295.4898470574974
 20
120.7220204509794
 30
0.0
  0
VERTEX
  5
100C5
  8
0
 10
295.55837633367469
 20
120.87089888378971
 30
0.0
  0
VERTEX
  5
100C6
  8
0
 10
295.6051096348076
 20
120.96734013035891
 30
0.0
  0
VERTEX
  5
100C7
  8
0
 10
295.60847915988262
 20
120.9741471670567
 30
0.0
  0
SEQEND
  5
100C8
  8
0
  0
LINE
  5
C9F4
  8
0
 10
287.62133894767459
 20
116.5000004097819
 30
0.0
 11
295.6213393276542
 21
116.5000004097819
 31
0.0
  0
LINE
  5
C9F5
  8
0
 10
294.1779634943216
 20
114.0
 30
0.0
 11
289.06471478100713
 21
113.9999999999999
 31
0.0
  0
LINE
  5
C9F7
  8
0
 10
308.12133904825743
 20
130.93212520331139
 30
0.0
 11
275.12133922707142
 21
130.93212520331139
 31
0.0
  0
LINE
  5
CA03
  8
0
 10
301.37133933883013
 20
140.93212497979391
 30
0.0
 11
281.87133893649872
 21
140.93212497979391
 31
0.0
  0
ARC
  5
CA04
  8
0
 10
273.82317443543172
 20
154.33211333528041
 30
0.0
 40
15.58243055564278
 50
289.32782740604131
 51
295.00315599464182
  0
POLYLINE
  5
CA05
  8
0
 66
     1
 10
0.0
 20
0.0
 30
0.0
 70
   128
  0
VERTEX
  5
100C9
  8
0
 10
280.49841672461321
 20
140.30708552896971
 30
0.0
  0
VERTEX
  5
100CA
  8
0
 10
280.5276760859399
 20
140.30165405571449
 30
0.0
  0
VERTEX
  5
100CB
  8
0
 10
280.50417509209211
 20
140.26567520201201
 30
0.0
  0
VERTEX
  5
100CC
  8
0
 10
280.4093720419317
 20
140.20999794453371
 30
0.0
  0
SEQEND
  5
100CD
  8
0
  0
ARC
  5
CA06
  8
0
 10
280.76954813129032
 20
138.37225325175669
 30
0.0
 40
1.953736978365326
 50
97.977013105185492
 51
109.8379340230627
  0
ARC
  5
CA07
  8
0
 10
292.29190512753729
 20
103.5619254895595
 30
0.0
 40
38.620827992714943
 50
108.3917943406756
 51
110.95595485019059
  0
ARC
  5
CA08
  8
0
 10
286.37641843486608
 20
117.56088729905289
 30
0.0
 40
23.43785709273789
 50
109.6908305224469
 51
113.4020344158132
  0
POLYLINE
  5
CA09
  8
0
 66
     1
 10
0.0
 20
0.0
 30
0.0
 70
   128
  0
VERTEX
  5
100CE
  8
0
 10
276.98294502030899
 20
138.9878335744142
 30
0.0
  0
VERTEX
  5
100CF
  8
0
 10
276.95471942704017
 20
138.99231416732059
 30
0.0
  0
VERTEX
  5
100D0
  8
0
 10
276.97398755978639
 20
139.0202137976884
 30
0.0
  0
VERTEX
  5
100D1
  8
0
 10
277.06735916714962
 20
139.0707585364579
 30
0.0
  0
SEQEND
  5
100D2
  8
0
  0
ARC
  5
CA0A
  8
0
 10
276.77689647749793
 20
140.89612985935719
 30
0.0
 40
1.919388109039398
 50
276.16264402189108
 51
288.00582835558021
  0
ARC
  5
CA0B
  8
0
 10
270.34354162884898
 20
161.98521955262731
 30
0.0
 40
23.96762847434562
 50
287.04802108958398
 51
291.12235244232841
  0
LINE
  5
CA0C
  8
0
 10
289.37133923452188
 20
130.53212541714299
 30
0.0
 11
289.37133923452188
 21
130.91274065524331
 31
0.0
  0
LINE
  5
CA0D
  8
0
 10
293.87133904080679
 20
130.91274065524331
 30
0.0
 11
293.87133904080679
 21
130.53212541714299
 31
0.0
  0
LINE
  5
CA0F
  8
0
 10
289.37133923452188
 20
128.43212525919071
 30
0.0
 11
289.37133923452188
 21
130.53212541714299
 31
0.0
  0
LINE
  5
CA10
  8
0
 10
288.8713391525655
 20
125.43212523311369
 30
0.0
 11
283.1213386757284
 21
125.43212523311369
 31
0.0
  0
LINE
  5
CA12
  8
0
 10
293.87133904080679
 20
130.53212541714299
 30
0.0
 11
293.87133904080679
 21
128.43212525919071
 31
0.0
  0
LINE
  5
CA13
  8
0
 10
300.12133959960039
 20
125.43212523311369
 30
0.0
 11
294.37133912276317
 21
125.43212523311369
 31
0.0
  0
POLYLINE
  5
CA1E
  8
0
 66
     1
 10
0.0
 20
0.0
 30
0.0
 70
   128
  0
VERTEX
  5
100D3
  8
0
 10
277.40057241450842
 20
139.1751644536852
 30
0.0
  0
VERTEX
  5
100D4
  8
0
 10
277.32385658006962
 20
139.13299882411951
 30
0.0
  0
VERTEX
  5
100D5
  8
0
 10
277.3116767434388
 20
139.1204846426844
 30
0.0
  0
VERTEX
  5
100D6
  8
0
 10
277.32411176245512
 20
139.11586993932721
 30
0.0
  0
SEQEND
  5
100D7
  8
0
  0
ARC
  5
CA1F
  8
0
 10
285.11431232674607
 20
121.1951157606139
 30
0.0
 40
19.564864794801579
 50
109.50158452682039
 51
113.2201370787151
  0
ARC
  5
CA20
  8
0
 10
290.85963608158568
 20
107.6747460570183
 30
0.0
 40
34.239467652775673
 50
108.6685294537123
 51
111.01145776866311
  0
ARC
  5
CA21
  8
0
 10
280.38666791583688
 20
138.71313198356691
 30
0.0
 40
1.481866572130361
 50
99.251545605431986
 51
109.179451343042
  0
POLYLINE
  5
CA22
  8
0
 66
     1
 10
0.0
 20
0.0
 30
0.0
 70
   128
  0
VERTEX
  5
100D8
  8
0
 10
280.0761587945729
 20
140.11268963664759
 30
0.0
  0
VERTEX
  5
100D9
  8
0
 10
280.1532872049122
 20
140.1583346873521
 30
0.0
  0
VERTEX
  5
100DA
  8
0
 10
280.16283046733429
 20
140.17112547159189
 30
0.0
  0
VERTEX
  5
100DB
  8
0
 10
280.14842942636312
 20
140.17572247982019
 30
0.0
  0
SEQEND
  5
100DC
  8
0
  0
ARC
  5
CA23
  8
0
 10
273.7115307407891
 20
154.4261869251493
 30
0.0
 40
15.664759649958111
 50
289.2504587638972
 51
293.97276245245871
  0
ARC
  5
CA24
  8
0
 10
269.26760901170968
 20
164.591614026679
 30
0.0
 40
26.740274363184891
 50
288.10386801664771
 51
291.05901357645399
  0
ARC
  5
CA25
  8
0
 10
277.0455325598648
 20
140.8731801329094
 30
0.0
 40
1.7792541944825271
 50
279.00790724295928
 51
287.37623436114171
  0
LINE
  5
CA41
  8
0
 10
275.27931947540338
 20
138.53282568603751
 30
0.0
 11
307.9633587999254
 21
138.53282568603751
 31
0.0
  0
LINE
  5
CA44
  8
0
 10
283.62133875768478
 20
141.33212616294611
 30
0.0
 11
299.621339517644
 21
141.33212616294611
 31
0.0
  0
LINE
  5
CA45
  8
0
 10
410.24698693584492
 20
125.43212523311379
 30
0.0
 11
410.24698693584492
 21
128.43212525919071
 31
0.0
  0
LINE
  5
CA46
  8
0
 10
404.74698696564718
 20
128.43212525919071
 30
0.0
 11
404.74698696564718
 21
125.43212523311379
 31
0.0
  0
LINE
  5
CA47
  8
0
 10
408.99698719661518
 20
128.43212525919071
 30
0.0
 11
408.99698719661518
 21
130.93212520331139
 31
0.0
  0
LINE
  5
CA48
  8
0
 10
405.99698763619949
 20
130.93212520331139
 30
0.0
 11
405.99698763619949
 21
128.43212525919071
 31
0.0
  0
LINE
  5
CA49
  8
0
 10
434.49569870065739
 20
125.43212523311379
 30
0.0
 11
434.49569870065739
 21
128.43212525919071
 31
0.0
  0
LINE
  5
CA4A
  8
0
 10
428.99569873045982
 20
128.43212525919071
 30
0.0
 11
428.99569873045982
 21
125.43212523311379
 31
0.0
  0
LINE
  5
CA4B
  8
0
 10
433.24569803010519
 20
128.43212525919071
 30
0.0
 11
433.24569803010519
 21
130.93212520331139
 31
0.0
  0
LINE
  5
CA4C
  8
0
 10
430.24569846968939
 20
130.93212520331139
 30
0.0
 11
430.24569846968939
 21
128.43212525919071
 31
0.0
  0
LINE
  5
CA4D
  8
0
 10
426.32134262751629
 20
117.00000049173821
 30
0.0
 11
426.62134304921909
 21
117.29999998211851
 31
0.0
  0
LINE
  5
CA4E
  8
0
 10
426.62134304921909
 20
120.70000026002521
 30
0.0
 11
426.32134262751629
 21
121.00000021606679
 31
0.0
  0
LINE
  5
CA4F
  8
0
 10
426.32134262751629
 20
121.00000021606679
 30
0.0
 11
423.62134302314212
 21
121.00000021606679
 31
0.0
  0
LINE
  5
CA50
  8
0
 10
415.62134264316251
 20
121.00000021606679
 30
0.0
 11
412.92134303878828
 21
121.00000021606679
 31
0.0
  0
LINE
  5
CA51
  8
0
 10
412.92134303878828
 20
117.00000049173821
 30
0.0
 11
415.62134264316251
 21
117.00000049173821
 31
0.0
  0
LINE
  5
CA52
  8
0
 10
423.62134302314212
 20
117.00000049173821
 30
0.0
 11
426.32134262751629
 21
117.00000049173821
 31
0.0
  0
LINE
  5
CA53
  8
0
 10
412.92134303878828
 20
121.00000021606679
 30
0.0
 11
412.62134261708542
 21
120.70000026002521
 31
0.0
  0
LINE
  5
CA54
  8
0
 10
412.62134261708542
 20
117.29999998211851
 30
0.0
 11
412.92134303878828
 21
117.00000049173821
 31
0.0
  0
LINE
  5
CA5F
  8
0
 10
415.62134264316251
 20
116.5000004097819
 30
0.0
 11
417.06471847649499
 21
113.9999999999999
 31
0.0
  0
LINE
  5
CA60
  8
0
 10
422.17796718980952
 20
113.9999999999999
 30
0.0
 11
423.62134302314212
 21
116.5000004097819
 31
0.0
  0
LINE
  5
CA61
  8
0
 10
415.62134264316251
 20
117.00000049173821
 30
0.0
 11
415.62134264316251
 21
116.5000004097819
 31
0.0
  0
LINE
  5
CA62
  8
0
 10
415.62134264316251
 20
125.43212523311369
 30
0.0
 11
415.62134264316251
 21
121.00000021606679
 31
0.0
  0
LINE
  5
CA63
  8
0
 10
423.62134302314212
 20
121.00000021606679
 30
0.0
 11
423.62134302314212
 21
125.43212523311369
 31
0.0
  0
LINE
  5
CA64
  8
0
 10
423.62134302314212
 20
116.5000004097819
 30
0.0
 11
423.62134302314212
 21
117.00000049173821
 31
0.0
  0
LINE
  5
CA65
  8
0
 10
402.62134190928032
 20
131.43212528526769
 30
0.0
 11
403.12134292255928
 21
130.93212520331139
 31
0.0
  0
LINE
  5
CA66
  8
0
 10
436.1213427437454
 20
130.93212520331139
 30
0.0
 11
436.62134375702442
 21
131.43212528526769
 31
0.0
  0
LINE
  5
CA67
  8
0
 10
436.62134375702442
 20
131.43212528526769
 30
0.0
 11
436.62134375702442
 21
137.59313331544391
 31
0.0
  0
LINE
  5
CA68
  8
0
 10
402.62134190928032
 20
137.59313331544391
 30
0.0
 11
402.62134190928032
 21
131.43212528526769
 31
0.0
  0
ARC
  5
CA69
  8
0
 10
403.62134283315231
 20
137.593133496474
 30
0.0
 40
1.0
 50
109.99999999999849
 51
180.0
  0
ARC
  5
CA6A
  8
0
 10
435.62134283315231
 20
137.593133496474
 30
0.0
 40
1.00000000000001
 50
0.0
 51
70.000000000000682
  0
LINE
  5
CA6B
  8
0
 10
432.81306702922882
 20
139.67944023758159
 30
0.0
 11
429.37134303431799
 21
140.93212497979391
 31
0.0
  0
LINE
  5
CA6D
  8
0
 10
435.96336249541338
 20
138.53282568603751
 30
0.0
 11
432.81306702922882
 21
139.67944023758159
 31
0.0
  0
LINE
  5
CA6E
  8
0
 10
409.87134263198658
 20
140.93212497979391
 30
0.0
 11
403.2793231708913
 21
138.53282568603751
 31
0.0
  0
ARC
  5
CA71
  8
0
 10
429.0213428331524
 20
130.5321252331137
 30
0.0
 40
0.4000000000000341
 50
90.0
 51
180.0
  0
ARC
  5
CA72
  8
0
 10
410.22134283315228
 20
130.5321252331137
 30
0.0
 40
0.4000000000000057
 50
0.0
 51
90.0
  0
LINE
  5
CA73
  8
0
 10
428.62134244572218
 20
125.93212525686241
 30
0.0
 11
428.62134244572218
 21
130.53212541714299
 31
0.0
  0
LINE
  5
CA74
  8
0
 10
428.12134329508842
 20
125.43212523311369
 30
0.0
 11
428.62134244572218
 21
125.93212525686241
 31
0.0
  0
LINE
  5
CA75
  8
0
 10
410.6213432205825
 20
130.53212541714299
 30
0.0
 11
410.6213432205825
 21
125.93212525686241
 31
0.0
  0
LINE
  5
CA76
  8
0
 10
410.6213432205825
 20
125.93212525686241
 30
0.0
 11
411.12134237121631
 21
125.43212523311369
 31
0.0
  0
ARC
  5
CA77
  8
0
 10
411.22134283315228
 20
141.33212523311369
 30
0.0
 40
0.4000000000000341
 50
270.0000000000008
 51
0.0
  0
ARC
  5
CA78
  8
0
 10
428.02134283315229
 20
141.33212523311369
 30
0.0
 40
0.4000000000000341
 50
180.0
 51
270.0000000000008
  0
LINE
  5
CA79
  8
0
 10
427.62134321313198
 20
141.33212616294611
 30
0.0
 11
427.62134321313198
 21
141.99999993294469
 31
0.0
  0
LINE
  5
CA7A
  8
0
 10
411.6213424531727
 20
141.99999993294469
 30
0.0
 11
411.6213424531727
 21
141.33212616294611
 31
0.0
  0
LINE
  5
CA7B
  8
0
 10
410.24698693584492
 20
125.43212523311379
 30
0.0
 11
404.74698696564718
 21
125.43212523311379
 31
0.0
  0
LINE
  5
CA7C
  8
0
 10
410.24698693584492
 20
128.43212525919071
 30
0.0
 11
404.74698696564718
 21
128.43212525919071
 31
0.0
  0
LINE
  5
CA7D
  8
0
 10
434.49569870065739
 20
125.43212523311379
 30
0.0
 11
428.99569873045982
 21
125.43212523311379
 31
0.0
  0
LINE
  5
CA7E
  8
0
 10
434.49569870065739
 20
128.43212525919071
 30
0.0
 11
428.99569873045982
 21
128.43212525919071
 31
0.0
  0
LINE
  5
CA80
  8
0
 10
426.32134262751629
 20
117.00000049173821
 30
0.0
 11
426.32134262751629
 21
121.00000021606679
 31
0.0
  0
LINE
  5
CA81
  8
0
 10
426.62134304921909
 20
120.70000026002521
 30
0.0
 11
426.62134304921909
 21
117.29999998211851
 31
0.0
  0
LINE
  5
CA83
  8
0
 10
412.92134303878828
 20
121.00000021606679
 30
0.0
 11
412.92134303878828
 21
117.00000049173821
 31
0.0
  0
LINE
  5
CA86
  8
0
 10
412.62134261708542
 20
117.29999998211851
 30
0.0
 11
412.62134261708542
 21
120.70000026002521
 31
0.0
  0
LINE
  5
CABD
  8
0
 10
415.62134264316251
 20
116.5000004097819
 30
0.0
 11
423.62134302314212
 21
116.5000004097819
 31
0.0
  0
LINE
  5
CABE
  8
0
 10
422.17796718980952
 20
113.9999999999999
 30
0.0
 11
417.06471847649499
 21
113.9999999999999
 31
0.0
  0
POLYLINE
  5
CABF
  8
0
 66
     1
 10
0.0
 20
0.0
 30
0.0
 70
   128
  0
VERTEX
  5
100DD
  8
0
 10
423.60992593969991
 20
117.0230032280087
 30
0.0
  0
VERTEX
  5
100DE
  8
0
 10
423.61624822299768
 20
117.01020871847859
 30
0.0
  0
VERTEX
  5
100DF
  8
0
 10
423.54385698493411
 20
117.1598592177033
 30
0.0
  0
VERTEX
  5
100E0
  8
0
 10
423.40442146453842
 20
117.4795785322785
 30
0.0
  0
VERTEX
  5
100E1
  8
0
 10
423.23061990830888
 20
117.98664874956
 30
0.0
  0
VERTEX
  5
100E2
  8
0
 10
423.15577114280148
 20
118.29844204336401
 30
0.0
  0
VERTEX
  5
100E3
  8
0
 10
423.103324410504
 20
118.64758649468411
 30
0.0
  0
VERTEX
  5
100E4
  8
0
 10
423.09792413655509
 20
119.29430853202931
 30
0.0
  0
VERTEX
  5
100E5
  8
0
 10
423.18787243496462
 20
119.8486070483922
 30
0.0
  0
VERTEX
  5
100E6
  8
0
 10
423.34019792545422
 20
120.3527319580316
 30
0.0
  0
VERTEX
  5
100E7
  8
0
 10
423.5107144741325
 20
120.7683923989534
 30
0.0
  0
VERTEX
  5
100E8
  8
0
 10
423.57316011842181
 20
120.90180435776701
 30
0.0
  0
VERTEX
  5
100E9
  8
0
 10
423.6122300317495
 20
120.9817113690077
 30
0.0
  0
VERTEX
  5
100EA
  8
0
 10
423.62134302314212
 20
121.00000021606679
 30
0.0
  0
SEQEND
  5
100EB
  8
0
  0
ARC
  5
CAC0
  8
0
 10
411.45070191818962
 20
119.1902863154973
 30
0.0
 40
4.7103844057817899
 50
332.51305708280893
 51
357.68478554815408
  0
POLYLINE
  5
CAC1
  8
0
 66
     1
 10
0.0
 20
0.0
 30
0.0
 70
   128
  0
VERTEX
  5
100EC
  8
0
 10
415.63420281093408
 20
120.9741471670567
 30
0.0
  0
VERTEX
  5
100ED
  8
0
 10
415.63153410609652
 20
120.97953952476369
 30
0.0
  0
VERTEX
  5
100EE
  8
0
 10
415.71434032451202
 20
120.8068397231399
 30
0.0
  0
VERTEX
  5
100EF
  8
0
 10
415.86106344405403
 20
120.462771911174
 30
0.0
  0
VERTEX
  5
100F0
  8
0
 10
416.03458443935801
 20
119.9299659915268
 30
0.0
  0
VERTEX
  5
100F1
  8
0
 10
416.10357332322582
 20
119.61212981119741
 30
0.0
  0
VERTEX
  5
100F2
  8
0
 10
416.14755014236852
 20
119.2592977881431
 30
0.0
  0
VERTEX
  5
100F3
  8
0
 10
416.15724125224932
 20
119.00000035390249
 30
0.0
  0
SEQEND
  5
100F4
  8
0
  0
LINE
  5
CAC2
  8
0
 10
436.1213427437454
 20
130.93212520331139
 30
0.0
 11
403.12134292255928
 21
130.93212520331139
 31
0.0
  0
LINE
  5
CAC4
  8
0
 10
431.77241184096619
 20
139.1060128211974
 30
0.0
 11
430.31828388850982
 21
139.7492223754524
 31
0.0
  0
POLYLINE
  5
CAC5
  8
0
 66
     1
 10
0.0
 20
0.0
 30
0.0
 70
   128
  0
VERTEX
  5
100F5
  8
0
 10
430.49480676930239
 20
140.29517763853059
 30
0.0
  0
VERTEX
  5
100F6
  8
0
 10
431.13587335031332
 20
139.7421731948852
 30
0.0
  0
VERTEX
  5
100F7
  8
0
 10
431.77241184096619
 20
139.1060128211974
 30
0.0
  0
SEQEND
  5
100F8
  8
0
  0
LINE
  5
CAC6
  8
0
 10
423.36537669692029
 20
140.29517763853059
 30
0.0
 11
430.49480676930239
 21
140.29517763853059
 31
0.0
  0
POLYLINE
  5
CAC7
  8
0
 66
     1
 10
0.0
 20
0.0
 30
0.0
 70
   128
  0
VERTEX
  5
100F9
  8
0
 10
428.01311150472452
 20
139.1060128211974
 30
0.0
  0
VERTEX
  5
100FA
  8
0
 10
425.70023102965041
 20
139.74146259576071
 30
0.0
  0
VERTEX
  5
100FB
  8
0
 10
423.36537669692029
 20
140.29517763853059
 30
0.0
  0
SEQEND
  5
100FC
  8
0
  0
LINE
  5
CAC8
  8
0
 10
427.00886218156501
 20
139.7492223754524
 30
0.0
 11
428.01311150472452
 21
139.1060128211974
 31
0.0
  0
LINE
  5
CAC9
  8
0
 10
430.31828388850982
 20
139.7492223754524
 30
0.0
 11
427.00886218156501
 21
139.7492223754524
 31
0.0
  0
ARC
  5
CACA
  8
0
 10
421.20605460396058
 20
139.40842207720701
 30
0.0
 40
0.8382889355129467
 50
15.471511425106
 51
73.13002245017158
  0
ARC
  5
CACB
  8
0
 10
420.83992656678612
 20
138.28675738414969
 30
0.0
 40
2.0180874830150839
 50
72.42408704456183
 51
91.087217618475336
  0
ARC
  5
CACC
  8
0
 10
420.73913992745219
 20
138.84688242049259
 30
0.0
 40
1.4589382469405181
 50
87.544943104336525
 51
110.7767912907097
  0
POLYLINE
  5
CACD
  8
0
 66
     1
 10
0.0
 20
0.0
 30
0.0
 70
   128
  0
VERTEX
  5
100FD
  8
0
 10
419.97981244278913
 20
139.6326245144009
 30
0.0
  0
VERTEX
  5
100FE
  8
0
 10
419.95915998634717
 20
139.91927722096429
 30
0.0
  0
VERTEX
  5
100FF
  8
0
 10
420.02673774189151
 20
140.0676769539713
 30
0.0
  0
VERTEX
  5
10100
  8
0
 10
420.22161329444339
 20
140.2109450995921
 30
0.0
  0
SEQEND
  5
10101
  8
0
  0
ARC
  5
CACE
  8
0
 10
420.74065035419812
 20
139.84237286682961
 30
0.0
 40
0.7892203106761516
 50
195.41250578396341
 51
255.37201794874329
  0
ARC
  5
CACF
  8
0
 10
421.12912034588339
 20
141.11716891541039
 30
0.0
 40
2.1214858243099348
 50
253.91511939620989
 51
271.12826630084038
  0
ARC
  5
CAD0
  8
0
 10
421.2474156714037
 20
140.6524645658628
 30
0.0
 40
1.658136814223419
 50
267.35490199080408
 51
288.33619600258868
  0
POLYLINE
  5
CAD1
  8
0
 66
     1
 10
0.0
 20
0.0
 30
0.0
 70
   128
  0
VERTEX
  5
10102
  8
0
 10
422.0139666395246
 20
139.63204336911431
 30
0.0
  0
VERTEX
  5
10103
  8
0
 10
422.03299262840142
 20
139.35285800695411
 30
0.0
  0
VERTEX
  5
10104
  8
0
 10
421.96481562498792
 20
139.21117404103271
 30
0.0
  0
VERTEX
  5
10105
  8
0
 10
421.76905255112632
 20
139.07851645350451
 30
0.0
  0
SEQEND
  5
10106
  8
0
  0
LINE
  5
CAD8
  8
0
 10
429.37134303431799
 20
140.93212497979391
 30
0.0
 11
409.87134263198658
 21
140.93212497979391
 31
0.0
  0
LINE
  5
CAD9
  8
0
 10
432.85316232871111
 20
139.55484045296899
 30
0.0
 11
432.50317596178348
 21
139.68388264626259
 31
0.0
  0
LINE
  5
CADA
  8
0
 10
433.04147668462087
 20
139.55641811341039
 30
0.0
 11
432.85316232871111
 21
139.55484045296899
 31
0.0
  0
LINE
  5
CADB
  8
0
 10
434.21647329162653
 20
139.12310352176419
 30
0.0
 11
433.04147668462087
 21
139.55641811341039
 31
0.0
  0
LINE
  5
CADC
  8
0
 10
433.96695334743561
 20
139.1144962385296
 30
0.0
 11
434.21647329162653
 21
139.12310352176419
 31
0.0
  0
LINE
  5
CADD
  8
0
 10
434.31716323178108
 20
138.9855713918804
 30
0.0
 11
433.96695334743561
 21
139.1144962385296
 31
0.0
  0
LINE
  5
CADE
  8
0
 10
434.63989258091738
 20
138.98603053390971
 30
0.0
 11
434.31716323178108
 21
138.9855713918804
 31
0.0
  0
LINE
  5
CADF
  8
0
 10
431.09435219596918
 20
140.2909391894936
 30
0.0
 11
434.63989258091738
 21
138.98603053390971
 31
0.0
  0
LINE
  5
CAE0
  8
0
 10
431.02114279102381
 20
140.3013485819101
 30
0.0
 11
431.09435219596918
 21
140.2909391894936
 31
0.0
  0
LINE
  5
CAE1
  8
0
 10
432.69148938637068
 20
139.6854919716715
 30
0.0
 11
431.02114279102381
 21
140.3013485819101
 31
0.0
  0
LINE
  5
CAE2
  8
0
 10
432.50317596178348
 20
139.68388264626259
 30
0.0
 11
432.69148938637068
 21
139.6854919716715
 31
0.0
  0
LINE
  5
CAE3
  8
0
 10
418.53118563815792
 20
138.99348297715181
 30
0.0
 11
417.85460342001011
 21
139.9715979918837
 31
0.0
  0
LINE
  5
CAE4
  8
0
 10
419.0601312257333
 20
138.98419955372799
 30
0.0
 11
418.53118563815792
 21
138.99348297715181
 31
0.0
  0
LINE
  5
CAE5
  8
0
 10
419.42939009098171
 20
140.2888800352811
 30
0.0
 11
419.0601312257333
 21
138.98419955372799
 31
0.0
  0
LINE
  5
CAE6
  8
0
 10
418.99160165851771
 20
140.2996591627597
 30
0.0
 11
419.42939009098171
 21
140.2888800352811
 31
0.0
  0
LINE
  5
CAE7
  8
0
 10
418.7148627643457
 20
139.32086428254831
 30
0.0
 11
418.99160165851771
 21
140.2996591627597
 31
0.0
  0
LINE
  5
CAE8
  8
0
 10
418.6970057017154
 20
139.32103750854719
 30
0.0
 11
418.7148627643457
 21
139.32086428254831
 31
0.0
  0
LINE
  5
CAE9
  8
0
 10
418.02084380108698
 20
140.30178630352009
 30
0.0
 11
418.6970057017154
 21
139.32103750854719
 31
0.0
  0
LINE
  5
CAEA
  8
0
 10
417.50760333891799
 20
140.29052195698009
 30
0.0
 11
418.02084380108698
 21
140.30178630352009
 31
0.0
  0
LINE
  5
CAEB
  8
0
 10
417.13834441546192
 20
138.98546522110689
 30
0.0
 11
417.50760333891799
 21
140.29052195698009
 31
0.0
  0
LINE
  5
CAEC
  8
0
 10
417.57613284792592
 20
138.99308064579961
 30
0.0
 11
417.13834441546192
 21
138.98546522110689
 31
0.0
  0
LINE
  5
CAED
  8
0
 10
417.85259141400292
 20
139.9716445580124
 30
0.0
 11
417.57613284792592
 21
138.99308064579961
 31
0.0
  0
LINE
  5
CAEE
  8
0
 10
417.85460342001011
 20
139.9715979918837
 30
0.0
 11
417.85259141400292
 21
139.9716445580124
 31
0.0
  0
ARC
  5
CB01
  8
0
 10
421.15380891018378
 20
140.0812808361743
 30
0.0
 40
0.9580014240277099
 50
268.88968409716472
 51
290.2084220981946
  0
ARC
  5
CB04
  8
0
 10
421.13719241019282
 20
140.29831151660079
 30
0.0
 40
1.1748538431402531
 50
251.80101935383129
 51
269.9050414870519
  0
ARC
  5
CB05
  8
0
 10
420.98193025385848
 20
139.73015255497211
 30
0.0
 40
0.5873884673083692
 50
188.65140533871229
 51
248.8782624974192
  0
POLYLINE
  5
CB06
  8
0
 66
     1
 10
0.0
 20
0.0
 30
0.0
 70
   128
  0
VERTEX
  5
10107
  8
0
 10
420.50673938868408
 20
140.11397206783289
 30
0.0
  0
VERTEX
  5
10108
  8
0
 10
420.41370492009281
 20
140.04307699948541
 30
0.0
  0
VERTEX
  5
10109
  8
0
 10
420.3693677373214
 20
139.92833805829281
 30
0.0
  0
VERTEX
  5
1010A
  8
0
 10
420.36787872714763
 20
139.80909989774219
 30
0.0
  0
VERTEX
  5
1010B
  8
0
 10
420.40122519759302
 20
139.64179617911569
 30
0.0
  0
SEQEND
  5
1010C
  8
0
  0
ARC
  5
CB07
  8
0
 10
420.8243387204468
 20
139.33834929991531
 30
0.0
 40
0.8381288765149253
 50
89.086320949297502
 51
112.2679487964177
  0
ARC
  5
CB08
  8
0
 10
420.84204075439197
 20
138.99345301252691
 30
0.0
 40
1.182926550341292
 50
71.304606291787437
 51
90.210075638191995
  0
ARC
  5
CB09
  8
0
 10
420.9874980533433
 20
139.54807724736679
 30
0.0
 40
0.6122497907768365
 50
8.7919147013548145
 51
67.559103246660385
  0
POLYLINE
  5
CB0A
  8
0
 66
     1
 10
0.0
 20
0.0
 30
0.0
 70
   128
  0
VERTEX
  5
1010D
  8
0
 10
421.48473723139449
 20
139.18225181847799
 30
0.0
  0
VERTEX
  5
1010E
  8
0
 10
421.57916565704932
 20
139.25180019438261
 30
0.0
  0
VERTEX
  5
1010F
  8
0
 10
421.62657067458912
 20
139.38858540356151
 30
0.0
  0
VERTEX
  5
10110
  8
0
 10
421.62070916313519
 20
139.51450300961719
 30
0.0
  0
VERTEX
  5
10111
  8
0
 10
421.5925538847207
 20
139.6416574120521
 30
0.0
  0
SEQEND
  5
10112
  8
0
  0
LINE
  5
CB19
  8
0
 10
421.87134273629471
 20
130.91274065524331
 30
0.0
 11
421.87134273629471
 21
130.53212541714299
 31
0.0
  0
LINE
  5
CB1A
  8
0
 10
417.3713429300098
 20
130.53212541714299
 30
0.0
 11
417.3713429300098
 21
130.91274065524331
 31
0.0
  0
LINE
  5
CB1C
  8
0
 10
421.87134273629471
 20
130.53212541714299
 30
0.0
 11
421.87134273629471
 21
125.93212525686241
 31
0.0
  0
LINE
  5
CB1D
  8
0
 10
428.12134329508842
 20
125.43212523311369
 30
0.0
 11
422.37134281825109
 21
125.43212523311369
 31
0.0
  0
LINE
  5
CB1E
  8
0
 10
421.87134273629471
 20
125.93212525686241
 30
0.0
 11
422.37134281825109
 21
125.43212523311369
 31
0.0
  0
LINE
  5
CB20
  8
0
 10
417.3713429300098
 20
125.93212525686241
 30
0.0
 11
417.3713429300098
 21
130.53212541714299
 31
0.0
  0
LINE
  5
CB21
  8
0
 10
416.87134284805342
 20
125.43212523311369
 30
0.0
 11
417.3713429300098
 21
125.93212525686241
 31
0.0
  0
LINE
  5
CB22
  8
0
 10
416.87134284805342
 20
125.43212523311369
 30
0.0
 11
411.12134237121631
 21
125.43212523311369
 31
0.0
  0
LINE
  5
CB31
  8
0
 10
403.2793231708913
 20
138.53282568603751
 30
0.0
 11
435.96336249541338
 21
138.53282568603751
 31
0.0
  0
LINE
  5
CBBC
  8
1
 10
131.0000027716159
 20
237.9321239814162
 30
0.0
 11
131.0000027716159
 21
193.9321239814162
 31
0.0
  0
LINE
  5
CBBD
  8
1
 10
109.000002771616
 20
215.93212398141611
 30
0.0
 11
153.0000027716159
 21
215.93212398141611
 31
0.0
  0
ARC
  5
CBBF
  8
0
 10
339.186405819573
 20
214.81129522414699
 30
0.0
 40
0.5000000000000091
 50
183.90141330046251
 51
249.99999999999631
  0
ARC
  5
CBC0
  8
0
 10
339.186405819573
 20
217.05295273868529
 30
0.0
 40
0.5000000000000084
 50
110.00000000000369
 51
176.09858669953741
  0
ARC
  5
CBC1
  8
0
 10
372.05627615124382
 20
217.05295273868529
 30
0.0
 40
0.499999999999989
 50
3.9014133004625768
 51
70.000000000003539
  0
ARC
  5
CBC2
  8
0
 10
372.05627615124382
 20
214.81129522414699
 30
0.0
 40
0.499999999999989
 50
289.99999999999648
 51
356.09858669953741
  0
ARC
  5
CBC3
  8
0
 10
355.62134098540838
 20
215.9321239814162
 30
0.0
 40
16.973109937359531
 50
176.09858669953741
 51
183.90141330046251
  0
LINE
  5
CBC4
  8
0
 10
339.0153956813723
 20
214.34144888911391
 30
0.0
 11
343.44139352720077
 21
212.73051753081381
 31
0.0
  0
LINE
  5
CBC5
  8
0
 10
343.44139352720077
 20
219.13373043201861
 30
0.0
 11
339.0153956813723
 21
217.5227990737184
 31
0.0
  0
ARC
  5
CBC6
  8
0
 10
341.7220957530082
 20
223.85746195336409
 30
0.0
 40
5.0268900626404882
 50
289.99999999999682
 51
330.3082477634884
  0
ARC
  5
CBC7
  8
0
 10
341.7220957530082
 20
208.00678600946819
 30
0.0
 40
5.0268900626404749
 50
29.691752236513508
 51
70.000000000003155
  0
ARC
  5
CBC8
  8
0
 10
355.62134098540838
 20
215.9321239814162
 30
0.0
 40
10.97310993735954
 50
209.69175223651351
 51
330.3082477634884
  0
ARC
  5
CBC9
  8
0
 10
355.62134098540838
 20
215.9321239814162
 30
0.0
 40
10.97310993735954
 50
29.691752236513508
 51
150.30824776348649
  0
ARC
  5
CBCA
  8
0
 10
369.52058621780861
 20
208.00678600946819
 30
0.0
 40
5.026890062640474
 50
109.9999999999964
 51
150.30824776348649
  0
ARC
  5
CBCB
  8
0
 10
369.52058621780873
 20
223.85746195336409
 30
0.0
 40
5.026890062640506
 50
209.69175223651351
 51
250.0000000000035
  0
ARC
  5
CBCC
  8
0
 10
355.62134098540838
 20
215.9321239814162
 30
0.0
 40
16.97310993735951
 50
356.09858669953741
 51
0.0
  0
ARC
  5
CBCD
  8
0
 10
355.62134098540838
 20
215.9321239814162
 30
0.0
 40
16.97310993735951
 50
0.0
 51
3.9014133004658409
  0
LINE
  5
CBCE
  8
0
 10
372.22728628944458
 20
217.5227990737184
 30
0.0
 11
367.8012884436161
 21
219.13373043201861
 31
0.0
  0
LINE
  5
CBCF
  8
0
 10
367.8012884436161
 20
212.73051753081381
 30
0.0
 11
372.22728628944458
 21
214.34144888911391
 31
0.0
  0
LINE
  5
CBD0
  8
0
 10
355.62134098540849
 20
214.7774234544485
 30
0.0
 11
356.62134103290589
 21
215.35477371793229
 31
0.0
  0
LINE
  5
CBD1
  8
0
 10
356.62134103290589
 20
215.35477371793229
 30
0.0
 11
356.62134103290589
 21
216.50947424489999
 31
0.0
  0
LINE
  5
CBD2
  8
0
 10
356.62134103290589
 20
216.50947424489999
 30
0.0
 11
355.62134098540849
 21
217.08682450838381
 31
0.0
  0
LINE
  5
CBD3
  8
0
 10
355.62134098540849
 20
217.08682450838381
 30
0.0
 11
354.62134093791099
 21
216.50947424489999
 31
0.0
  0
LINE
  5
CBD4
  8
0
 10
354.62134093791099
 20
216.50947424489999
 30
0.0
 11
354.62134093791099
 21
215.35477371793229
 31
0.0
  0
LINE
  5
CBD5
  8
0
 10
354.62134093791099
 20
215.35477371793229
 30
0.0
 11
355.62134098540849
 21
214.7774234544485
 31
0.0
  0
CIRCLE
  5
CBD6
  8
0
 10
355.62134098540849
 20
215.93212398141611
 30
0.0
 40
3.0
  0
CIRCLE
  5
CBD7
  8
0
 10
355.62134098540849
 20
215.9321239814162
 30
0.0
 40
8.082846581308587
  0
CIRCLE
  5
CBD8
  8
0
 10
355.62134098540849
 20
215.93212398141611
 30
0.0
 40
3.301421356237312
  0
CIRCLE
  5
CC0A
  8
0
 10
355.62134098540838
 20
215.9321239814162
 30
0.0
 40
16.999999999999972
  0
LINE
  5
CC0B
  8
1
 10
333.62134098540838
 20
215.93212398141611
 30
0.0
 11
377.62134098540838
 21
215.93212398141611
 31
0.0
  0
LINE
  5
CC0C
  8
1
 10
355.62134098540849
 20
193.93212398141611
 30
0.0
 11
355.62134098540849
 21
237.9321239814162
 31
0.0
  0
CIRCLE
  5
CCF3
  8
0
 10
131.00000277161601
 20
67.0
 30
0.0
 40
4.0
  0
LINE
  5
CD3A
  8
1
 10
131.00000277161601
 20
89.0
 30
0.0
 11
131.00000277161601
 21
45.0
 31
0.0
  0
LINE
  5
CD3B
  8
1
 10
153.00000277161601
 20
67.0
 30
0.0
 11
109.000002771616
 21
67.0
 31
0.0
  0
CIRCLE
  5
CD3D
  8
1
 10
131.00000277161601
 20
67.0
 30
0.0
 40
14.000000000000011
  0
LINE
  5
CD3E
  8
1
 10
135.6250027716159
 20
75.010734985006081
 30
0.0
 11
140.37500277161581
 21
83.237976320958353
 31
0.0
  0
LINE
  5
CD3F
  8
1
 10
135.6250027716159
 20
58.989265014993968
 30
0.0
 11
140.37500277161601
 21
50.762023679041761
 31
0.0
  0
LINE
  5
CDC8
  8
0
 10
357.62134108040328
 20
60.300000205636017
 30
0.0
 11
357.62134108040328
 21
63.535898419097059
 31
0.0
  0
LINE
  5
CDC9
  8
0
 10
357.62134108040328
 20
70.464101580902934
 30
0.0
 11
357.62134108040328
 21
73.699999794363976
 31
0.0
  0
LINE
  5
CDCA
  8
0
 10
353.62134089041348
 20
73.699999794363976
 30
0.0
 11
353.62134089041348
 21
70.464101580902934
 31
0.0
  0
LINE
  5
CDCB
  8
0
 10
353.62134089041348
 20
63.535898419097059
 30
0.0
 11
353.62134089041348
 21
60.300000205636017
 31
0.0
  0
LINE
  5
CDCC
  8
0
 10
353.62134089041348
 20
60.300000205636017
 30
0.0
 11
353.92134096287037
 21
59.999999783933163
 31
0.0
  0
LINE
  5
CDCD
  8
0
 10
357.3213410079465
 20
59.999999783933163
 30
0.0
 11
357.62134108040328
 21
60.300000205636017
 31
0.0
  0
LINE
  5
CDCE
  8
0
 10
357.62134108040328
 20
73.699999794363976
 30
0.0
 11
357.3213410079465
 21
74.000000216066823
 31
0.0
  0
LINE
  5
CDCF
  8
0
 10
353.92134096287037
 20
74.000000216066823
 30
0.0
 11
353.62134089041348
 21
73.699999794363976
 31
0.0
  0
CIRCLE
  5
CDD0
  8
0
 10
355.62134098540838
 20
67.0
 30
0.0
 40
1.5
  0
LINE
  5
CDD1
  8
0
 10
355.62134098540838
 20
67.866025395225734
 30
0.0
 11
354.87134097888912
 21
67.433012697612867
 31
0.0
  0
LINE
  5
CDD2
  8
0
 10
354.87134097888912
 20
67.433012697612867
 30
0.0
 11
354.87134097888912
 21
66.566987302387133
 31
0.0
  0
LINE
  5
CDD3
  8
0
 10
354.87134097888912
 20
66.566987302387133
 30
0.0
 11
355.62134098540838
 21
66.133974604774266
 31
0.0
  0
LINE
  5
CDD4
  8
0
 10
355.62134098540838
 20
66.133974604774266
 30
0.0
 11
356.3713409919277
 21
66.566987302387133
 31
0.0
  0
LINE
  5
CDD5
  8
0
 10
356.3713409919277
 20
66.566987302387133
 30
0.0
 11
356.3713409919277
 21
67.433012697612867
 31
0.0
  0
LINE
  5
CDD6
  8
0
 10
356.3713409919277
 20
67.433012697612867
 30
0.0
 11
355.62134098540838
 21
67.866025395225734
 31
0.0
  0
LINE
  5
CDD7
  8
0
 10
340.37134081404503
 20
67.721687858458608
 30
0.0
 11
340.37134081404503
 21
66.278312141541392
 31
0.0
  0
LINE
  5
CDD8
  8
0
 10
341.62134055327471
 20
65.556624283082783
 30
0.0
 11
340.37134081404503
 21
66.278312141541392
 31
0.0
  0
LINE
  5
CDD9
  8
0
 10
341.62134055327471
 20
65.556624283082783
 30
0.0
 11
342.87134122382702
 21
66.278312141541392
 31
0.0
  0
LINE
  5
CDDA
  8
0
 10
342.87134122382702
 20
66.278312141541392
 30
0.0
 11
342.87134122382702
 21
67.721687858458608
 31
0.0
  0
LINE
  5
CDDB
  8
0
 10
341.62134055327471
 20
68.443375716917217
 30
0.0
 11
342.87134122382702
 21
67.721687858458608
 31
0.0
  0
LINE
  5
CDDC
  8
0
 10
341.62134055327471
 20
68.443375716917217
 30
0.0
 11
340.37134081404503
 21
67.721687858458608
 31
0.0
  0
CIRCLE
  5
CDDD
  8
0
 10
341.62134098540838
 20
67.0
 30
0.0
 40
2.750000000000056
  0
LINE
  5
CDDE
  8
0
 10
363.8713409407049
 20
79.846043333411217
 30
0.0
 11
362.62134120147522
 21
80.567731715738773
 31
0.0
  0
LINE
  5
CDDF
  8
0
 10
361.37134099658431
 20
79.846043333411217
 30
0.0
 11
362.62134120147522
 21
80.567731715738773
 31
0.0
  0
LINE
  5
CDE0
  8
0
 10
361.37134099658431
 20
79.846043333411217
 30
0.0
 11
361.37134099658431
 21
78.402667500078664
 31
0.0
  0
LINE
  5
CDE1
  8
0
 10
361.37134099658431
 20
78.402667500078664
 30
0.0
 11
362.62134120147522
 21
77.680980049073696
 31
0.0
  0
LINE
  5
CDE2
  8
0
 10
363.8713409407049
 20
78.402667500078664
 30
0.0
 11
362.62134120147522
 21
77.680980049073696
 31
0.0
  0
LINE
  5
CDE3
  8
0
 10
363.8713409407049
 20
78.402667500078664
 30
0.0
 11
363.8713409407049
 21
79.846043333411217
 31
0.0
  0
CIRCLE
  5
CDE4
  8
0
 10
362.62134098540832
 20
79.124355652982203
 30
0.0
 40
2.75000000000004
  0
LINE
  5
CDE5
  8
0
 10
362.62134120147522
 20
53.43226828426122
 30
0.0
 11
363.8713409407049
 21
54.153956666588783
 31
0.0
  0
LINE
  5
CDE6
  8
0
 10
363.8713409407049
 20
55.597332499921322
 30
0.0
 11
363.8713409407049
 21
54.153956666588783
 31
0.0
  0
LINE
  5
CDE7
  8
0
 10
363.8713409407049
 20
55.597332499921322
 30
0.0
 11
362.62134120147522
 21
56.319019950926297
 31
0.0
  0
LINE
  5
CDE8
  8
0
 10
362.62134120147522
 20
56.319019950926297
 30
0.0
 11
361.37134099658431
 21
55.597332499921322
 31
0.0
  0
LINE
  5
CDE9
  8
0
 10
361.37134099658431
 20
54.153956666588783
 30
0.0
 11
361.37134099658431
 21
55.597332499921322
 31
0.0
  0
LINE
  5
CDEA
  8
0
 10
361.37134099658431
 20
54.153956666588783
 30
0.0
 11
362.62134120147522
 21
53.43226828426122
 31
0.0
  0
CIRCLE
  5
CDEB
  8
0
 10
362.62134098540838
 20
54.875644347017897
 30
0.0
 40
2.7500000000000369
  0
LINE
  5
CDEC
  8
0
 10
357.62134108040328
 20
73.699999794363976
 30
0.0
 11
353.62134089041348
 21
73.699999794363976
 31
0.0
  0
LINE
  5
CDED
  8
0
 10
353.62134089041348
 20
60.300000205636017
 30
0.0
 11
357.62134108040328
 21
60.300000205636017
 31
0.0
  0
LINE
  5
CDEE
  8
0
 10
357.3213410079465
 20
59.999999783933163
 30
0.0
 11
353.92134096287037
 21
59.999999783933163
 31
0.0
  0
LINE
  5
CDEF
  8
0
 10
353.92134096287037
 20
74.000000216066823
 30
0.0
 11
357.3213410079465
 21
74.000000216066823
 31
0.0
  0
CIRCLE
  5
CDF0
  8
0
 10
355.62134098540838
 20
67.0
 30
0.0
 40
2.556624327025943
  0
ARC
  5
CDF1
  8
0
 10
355.62134098540838
 20
67.0
 30
0.0
 40
9.0000000000000071
 50
194.4775121859299
 51
345.52248781407172
  0
LINE
  5
CDF2
  8
0
 10
346.62134137283681
 20
64.750000096857534
 30
0.0
 11
352.31415189150567
 21
64.750000096857534
 31
0.0
  0
LINE
  5
CDF3
  8
0
 10
358.92853007931109
 20
64.750000096857534
 30
0.0
 11
364.62134059797819
 21
64.750000096857534
 31
0.0
  0
LINE
  5
CDF4
  8
0
 10
352.31415189150567
 20
69.249999903142452
 30
0.0
 11
346.62134137283857
 21
69.249999903142452
 31
0.0
  0
LINE
  5
CDF5
  8
0
 10
364.62134059797933
 20
69.249999903142452
 30
0.0
 11
358.92853007931109
 21
69.249999903142452
 31
0.0
  0
ARC
  5
CDF6
  8
0
 10
355.62134098540838
 20
67.0
 30
0.0
 40
9.0000000000000089
 50
14.477512185929941
 51
165.5224878140701
  0
POLYLINE
  5
CDF7
  8
0
 66
     1
 10
0.0
 20
0.0
 30
0.0
 70
   128
  0
VERTEX
  5
10113
  8
0
 10
364.74898021947439
 20
64.753623407334089
 30
0.0
  0
VERTEX
  5
10114
  8
0
 10
364.74336061905922
 20
64.753310948610306
 30
0.0
  0
VERTEX
  5
10115
  8
0
 10
364.62134059797819
 20
64.750000096857534
 30
0.0
  0
SEQEND
  5
10116
  8
0
  0
LINE
  5
CDF8
  8
0
 10
346.62134137283857
 20
64.750000096857534
 30
0.0
 11
346.49370175134243
 21
64.753623407334089
 31
0.0
  0
LINE
  5
CDF9
  8
0
 10
364.62134059797819
 20
69.249999903142452
 30
0.0
 11
364.74898021947439
 21
69.246376592665911
 31
0.0
  0
POLYLINE
  5
CDFA
  8
0
 66
     1
 10
0.0
 20
0.0
 30
0.0
 70
   128
  0
VERTEX
  5
10117
  8
0
 10
346.49370175134243
 20
69.246376592665911
 30
0.0
  0
VERTEX
  5
10118
  8
0
 10
346.4993213517576
 20
69.246689051389694
 30
0.0
  0
VERTEX
  5
10119
  8
0
 10
346.62134137283857
 20
69.249999903142452
 30
0.0
  0
SEQEND
  5
1011A
  8
0
  0
CIRCLE
  5
CDFB
  8
0
 10
355.62134098540838
 20
67.0
 30
0.0
 40
17.0
  0
ARC
  5
CDFC
  8
0
 10
364.62134098540838
 20
67.0
 30
0.0
 40
2.2500000000000031
 50
273.25204344797811
 51
86.747956552021805
  0
ARC
  5
CDFD
  8
0
 10
346.62134098540838
 20
67.0
 30
0.0
 40
2.2500000000000031
 50
93.252043447978195
 51
266.74795655202178
  0
CIRCLE
  5
CDFE
  8
0
 10
355.62134098540838
 20
67.0
 30
0.0
 40
4.0
  0
LINE
  5
CDFF
  8
1
 10
355.62134098540838
 20
89.0
 30
0.0
 11
355.62134098540838
 21
45.0
 31
0.0
  0
LINE
  5
CE00
  8
1
 10
377.62134098540838
 20
67.0
 30
0.0
 11
333.62134098540838
 21
67.0
 31
0.0
  0
CIRCLE
  5
CE01
  8
1
 10
355.62134098540838
 20
67.0
 30
0.0
 40
14.000000000000011
  0
LINE
  5
CE02
  8
1
 10
360.24634098540832
 20
75.010734985006081
 30
0.0
 11
364.99634098540821
 21
83.237976320958353
 31
0.0
  0
LINE
  5
CE03
  8
1
 10
360.24634098540838
 20
58.989265014993968
 30
0.0
 11
364.99634098540838
 21
50.762023679041761
 31
0.0
  0
LINE
  5
CE47
  8
1
 10
131.00000277161601
 20
173.9321239814162
 30
0.0
 11
131.00000277161601
 21
120.43212523311369
 31
0.0
  0
LINE
  5
CE53
  8
3
 10
118.22950233948229
 20
129.9321252591908
 30
0.0
 11
118.22950233948229
 21
130.93212520331139
 31
0.0
  0
LINE
  5
CE54
  8
3
 10
115.77050233948231
 20
129.9321252591908
 30
0.0
 11
115.77050233948231
 21
130.93212520331139
 31
0.0
  0
LINE
  5
CE6D
  8
3
 10
118.22950233948301
 20
129.93212525919071
 30
0.0
 11
118.50000233948229
 21
129.4636055157446
 31
0.0
  0
LINE
  5
CE6E
  8
3
 10
115.7705023394815
 20
129.93212525919071
 30
0.0
 11
115.50000233948229
 21
129.4636055157446
 31
0.0
  0
LINE
  5
CE70
  8
0
 10
115.50000233948229
 20
129.93212525919071
 30
0.0
 11
118.50000233948229
 21
129.93212525919071
 31
0.0
  0
LINE
  5
CE7E
  8
1
 10
117.00000233948229
 20
132.93212520331139
 30
0.0
 11
117.00000233948229
 21
123.43212523311369
 31
0.0
  0
LINE
  5
CE81
  8
3
 10
139.22950298768279
 20
129.9321252591908
 30
0.0
 11
139.22950298768279
 21
130.93212520331139
 31
0.0
  0
LINE
  5
CE82
  8
3
 10
136.77050298768279
 20
129.9321252591908
 30
0.0
 11
136.77050298768279
 21
130.93212520331139
 31
0.0
  0
LINE
  5
CE83
  8
3
 10
139.2295029876835
 20
129.93212525919071
 30
0.0
 11
139.50000298768279
 21
129.4636055157446
 31
0.0
  0
LINE
  5
CE84
  8
3
 10
136.77050298768199
 20
129.93212525919071
 30
0.0
 11
136.50000298768279
 21
129.4636055157446
 31
0.0
  0
LINE
  5
CE85
  8
0
 10
136.50000298768279
 20
129.93212525919071
 30
0.0
 11
139.50000298768279
 21
129.93212525919071
 31
0.0
  0
LINE
  5
CE86
  8
1
 10
138.00000298768279
 20
132.93212520331139
 30
0.0
 11
138.00000298768279
 21
123.43212523311369
 31
0.0
  0
LINE
  5
CF0D
  8
1
 10
67.000000923872022
 20
173.93212398141631
 30
0.0
 11
67.000000923872022
 21
120.43212523311369
 31
0.0
  0
LINE
  5
CF0E
  8
3
 10
80.353856806278202
 20
129.9321252591908
 30
0.0
 11
80.353856806278202
 21
130.93212520331139
 31
0.0
  0
LINE
  5
CF0F
  8
3
 10
77.894856806278185
 20
129.9321252591908
 30
0.0
 11
77.894856806278185
 21
130.93212520331139
 31
0.0
  0
LINE
  5
CF10
  8
3
 10
80.353856806278955
 20
129.93212525919071
 30
0.0
 11
80.624356806278186
 21
129.4636055157446
 31
0.0
  0
LINE
  5
CF11
  8
3
 10
77.89485680627746
 20
129.93212525919071
 30
0.0
 11
77.6243568062782
 21
129.4636055157446
 31
0.0
  0
LINE
  5
CF12
  8
0
 10
77.6243568062782
 20
129.93212525919071
 30
0.0
 11
80.624356806278172
 21
129.93212525919071
 31
0.0
  0
LINE
  5
CF13
  8
1
 10
79.1243568062782
 20
132.93212520331139
 30
0.0
 11
79.1243568062782
 21
123.43212523311369
 31
0.0
  0
LINE
  5
CF14
  8
3
 10
68.229500923872024
 20
129.9321252591908
 30
0.0
 11
68.229500923872024
 21
130.93212520331139
 31
0.0
  0
LINE
  5
CF15
  8
3
 10
65.770500923872021
 20
129.9321252591908
 30
0.0
 11
65.770500923872021
 21
130.93212520331139
 31
0.0
  0
LINE
  5
CF16
  8
3
 10
68.229500923872763
 20
129.93212525919071
 30
0.0
 11
68.500000923872022
 21
129.4636055157446
 31
0.0
  0
LINE
  5
CF17
  8
3
 10
65.770500923871282
 20
129.93212525919071
 30
0.0
 11
65.500000923872022
 21
129.4636055157446
 31
0.0
  0
LINE
  5
CF18
  8
0
 10
65.500000923872022
 20
129.93212525919071
 30
0.0
 11
68.500000923871994
 21
129.93212525919071
 31
0.0
  0
LINE
  5
CF1A
  8
3
 10
56.105145041465718
 20
129.9321252591908
 30
0.0
 11
56.105145041465718
 21
130.93212520331139
 31
0.0
  0
LINE
  5
CF1B
  8
3
 10
53.646145041465722
 20
129.9321252591908
 30
0.0
 11
53.646145041465722
 21
130.93212520331139
 31
0.0
  0
LINE
  5
CF1C
  8
3
 10
56.105145041466457
 20
129.93212525919071
 30
0.0
 11
56.375645041465717
 21
129.4636055157446
 31
0.0
  0
LINE
  5
CF1D
  8
3
 10
53.646145041464983
 20
129.93212525919071
 30
0.0
 11
53.375645041465717
 21
129.4636055157446
 31
0.0
  0
LINE
  5
CF1E
  8
0
 10
53.375645041465717
 20
129.93212525919071
 30
0.0
 11
56.375645041465702
 21
129.93212525919071
 31
0.0
  0
LINE
  5
CF1F
  8
1
 10
54.875645041465717
 20
132.93212520331139
 30
0.0
 11
54.875645041465717
 21
123.43212523311369
 31
0.0
  0
LINE
  5
CF20
  8
0
 10
210.10296199470761
 20
166.34686192125079
 30
0.0
 11
203.08285120066861
 21
168.9019715435067
 31
0.0
  0
LINE
  5
CF21
  8
0
 10
186.91715843975541
 20
168.9019714817405
 30
0.0
 11
179.8970472440123
 21
166.34686192125079
 31
0.0
  0
ARC
  5
CF22
  8
0
 10
202.91184112900569
 20
168.43212523311371
 30
0.0
 40
0.500000000000012
 50
70.000000000001435
 51
90.0
  0
ARC
  5
CF23
  8
0
 10
187.08816810971419
 20
168.43212523311371
 30
0.0
 40
0.500000000000012
 50
90.0
 51
109.99999999999849
  0
ARC
  5
CF24
  8
0
 10
178.5268946820004
 20
153.93212523311371
 30
0.0
 40
0.5000000000000031
 50
176.99999999999761
 51
270.0
  0
ARC
  5
CF25
  8
0
 10
211.47311455671951
 20
153.93212523311371
 30
0.0
 40
0.5
 50
270.0
 51
3.0000000000023381
  0
LINE
  5
CF26
  8
0
 10
178.58382932841781
 20
164.57214852422479
 30
0.0
 11
178.02758015692231
 21
153.9582935497165
 31
0.0
  0
LINE
  5
CF27
  8
0
 10
211.9724290817976
 20
153.9582935497165
 30
0.0
 11
211.41617991030219
 21
164.57214852422479
 31
0.0
  0
ARC
  5
CF28
  8
0
 10
209.4189217569851
 20
164.46747491384519
 30
0.0
 40
1.999999999999998
 50
2.9999999999990772
 51
69.999999999999915
  0
ARC
  5
CF29
  8
0
 10
180.58108748173481
 20
164.46747491384519
 30
0.0
 40
2.0000000000000022
 50
109.9999999999999
 51
177.00000000000091
  0
ARC
  5
CF2A
  8
0
 10
185.9397743423707
 20
153.90515028326561
 30
0.0
 40
0.4745313187614214
 50
173.56989565747179
 51
265.43231681500339
  0
ARC
  5
CF2B
  8
0
 10
204.0602348963493
 20
153.90515028326561
 30
0.0
 40
0.4745313187614202
 50
274.5676831849965
 51
6.430104342528165
  0
LINE
  5
CF2C
  8
0
 10
186.09793730080131
 20
167.78990154713389
 30
0.0
 11
185.46822819858789
 21
153.9582935497165
 31
0.0
  0
LINE
  5
CF2D
  8
0
 10
203.90207193791869
 20
167.78990154713389
 30
0.0
 11
186.09793730080131
 21
167.78990154713389
 31
0.0
  0
LINE
  5
CF2E
  8
0
 10
204.5317810401321
 20
153.9582935497165
 30
0.0
 11
203.90207193791869
 21
167.78990154713389
 31
0.0
  0
LINE
  5
CF2F
  8
0
 10
187.08816789090631
 20
168.93212398141631
 30
0.0
 11
202.91184134781361
 21
168.93212398141631
 31
0.0
  0
POLYLINE
  5
CF30
  8
0
 66
     1
 10
0.0
 20
0.0
 30
0.0
 70
   128
  0
VERTEX
  5
1011B
  8
0
 10
182.9910675436258
 20
153.43212609738109
 30
0.0
  0
VERTEX
  5
1011C
  8
0
 10
182.95660767704251
 20
153.44238182157281
 30
0.0
  0
VERTEX
  5
1011D
  8
0
 10
182.9235615581274
 20
153.4727298989892
 30
0.0
  0
VERTEX
  5
1011E
  8
0
 10
182.8932851925492
 20
153.52192422002551
 30
0.0
  0
VERTEX
  5
1011F
  8
0
 10
182.8670209646225
 20
153.58794753998521
 30
0.0
  0
VERTEX
  5
10120
  8
0
 10
182.84584455192089
 20
153.66809157282111
 30
0.0
  0
VERTEX
  5
10121
  8
0
 10
182.8306267410517
 20
153.75906688719991
 30
0.0
  0
VERTEX
  5
10122
  8
0
 10
182.82199058681729
 20
153.85714260488751
 30
0.0
  0
VERTEX
  5
10123
  8
0
 10
182.82029185444119
 20
153.9582935497165
 30
0.0
  0
SEQEND
  5
10124
  8
0
  0
POLYLINE
  5
CF31
  8
0
 66
     1
 10
0.0
 20
0.0
 30
0.0
 70
   128
  0
VERTEX
  5
10125
  8
0
 10
207.00894169509411
 20
153.43212609738109
 30
0.0
  0
VERTEX
  5
10126
  8
0
 10
207.04340156167751
 20
153.44238182157281
 30
0.0
  0
VERTEX
  5
10127
  8
0
 10
207.07644768059251
 20
153.4727298989892
 30
0.0
  0
VERTEX
  5
10128
  8
0
 10
207.10672404617071
 20
153.52192422002551
 30
0.0
  0
VERTEX
  5
10129
  8
0
 10
207.13298827409741
 20
153.58794753998521
 30
0.0
  0
VERTEX
  5
1012A
  8
0
 10
207.15416468679911
 20
153.66809157282111
 30
0.0
  0
VERTEX
  5
1012B
  8
0
 10
207.16938249766829
 20
153.75906688719991
 30
0.0
  0
VERTEX
  5
1012C
  8
0
 10
207.1780186519027
 20
153.85714260488751
 30
0.0
  0
VERTEX
  5
1012D
  8
0
 10
207.1797173842788
 20
153.9582935497165
 30
0.0
  0
SEQEND
  5
1012E
  8
0
  0
LINE
  5
CF32
  8
0
 10
182.82029185444119
 20
153.9582935497165
 30
0.0
 11
183.05379025638101
 21
166.98506002873179
 31
0.0
  0
ARC
  5
CF33
  8
0
 10
187.27771101645999
 20
157.1683008679374
 30
0.0
 40
10.686920370643239
 50
96.33803829545289
 51
113.2810735479903
  0
ARC
  5
CF34
  8
0
 10
202.6963447376649
 20
157.07013716537489
 30
0.0
 40
10.78735956950827
 50
66.798374932801664
 51
83.582513223756308
  0
LINE
  5
CF35
  8
0
 10
206.94621898233891
 20
166.98506002873179
 30
0.0
 11
207.1797173842788
 21
153.9582935497165
 31
0.0
  0
POLYLINE
  5
CF36
  8
0
 66
     1
 10
0.0
 20
0.0
 30
0.0
 70
   128
  0
VERTEX
  5
1012F
  8
0
 10
178.3942940086126
 20
153.9582935497165
 30
0.0
  0
VERTEX
  5
10130
  8
0
 10
178.3959927409887
 20
153.85714260488751
 30
0.0
  0
VERTEX
  5
10131
  8
0
 10
178.40462982654569
 20
153.75906688719991
 30
0.0
  0
VERTEX
  5
10132
  8
0
 10
178.4198476374149
 20
153.66809157282111
 30
0.0
  0
VERTEX
  5
10133
  8
0
 10
178.44102405011651
 20
153.58794753998521
 30
0.0
  0
VERTEX
  5
10134
  8
0
 10
178.4672873467207
 20
153.52192422002551
 30
0.0
  0
VERTEX
  5
10135
  8
0
 10
178.49756464362139
 20
153.4727298989892
 30
0.0
  0
VERTEX
  5
10136
  8
0
 10
178.53060983121389
 20
153.44238182157281
 30
0.0
  0
VERTEX
  5
10137
  8
0
 10
178.5650687664747
 20
153.43212609738109
 30
0.0
  0
SEQEND
  5
10138
  8
0
  0
POLYLINE
  5
CF37
  8
0
 66
     1
 10
0.0
 20
0.0
 30
0.0
 70
   128
  0
VERTEX
  5
10139
  8
0
 10
211.43494047224519
 20
153.43212609738109
 30
0.0
  0
VERTEX
  5
1013A
  8
0
 10
211.46939940750599
 20
153.44238182157281
 30
0.0
  0
VERTEX
  5
1013B
  8
0
 10
211.5024445950985
 20
153.4727298989892
 30
0.0
  0
VERTEX
  5
1013C
  8
0
 10
211.53272189199919
 20
153.52192422002551
 30
0.0
  0
VERTEX
  5
1013D
  8
0
 10
211.5589851886034
 20
153.58794753998521
 30
0.0
  0
VERTEX
  5
1013E
  8
0
 10
211.58016160130501
 20
153.66809157282111
 30
0.0
  0
VERTEX
  5
1013F
  8
0
 10
211.5953794121742
 20
153.75906688719991
 30
0.0
  0
VERTEX
  5
10140
  8
0
 10
211.60401649773121
 20
153.85714260488751
 30
0.0
  0
VERTEX
  5
10141
  8
0
 10
211.60571523010731
 20
153.9582935497165
 30
0.0
  0
SEQEND
  5
10142
  8
0
  0
LINE
  5
CF38
  8
0
 10
178.92881542444229
 20
164.57214852422479
 30
0.0
 11
178.3942940086126
 21
153.9582935497165
 31
0.0
  0
ARC
  5
CF39
  8
0
 10
180.4232627463708
 20
164.48944958186851
 30
0.0
 40
1.4967337482285661
 50
109.17041142999
 51
176.8326266396148
  0
LINE
  5
CF3A
  8
0
 10
183.05379025638101
 20
166.98506002873179
 30
0.0
 11
179.93176694959399
 21
165.9031835719943
 31
0.0
  0
LINE
  5
CF3B
  8
0
 10
210.06824228912589
 20
165.9031835719943
 30
0.0
 11
206.94621898233891
 21
166.98506002873179
 31
0.0
  0
ARC
  5
CF3C
  8
0
 10
209.57923617127301
 20
164.4913255860188
 30
0.0
 40
1.494145225826597
 50
3.1008194434686511
 51
70.896142486925797
  0
LINE
  5
CF3D
  8
0
 10
211.60571523010731
 20
153.9582935497165
 30
0.0
 11
211.07119381427771
 21
164.57214852422479
 31
0.0
  0
LINE
  5
CF3E
  8
0
 10
211.47311455671951
 20
153.43212523311371
 30
0.0
 11
178.52689385414121
 21
153.43212609738109
 31
0.0
  0
LINE
  5
CF3F
  8
1
 10
195.00000461936
 20
173.9321239814162
 30
0.0
 11
195.00000461936
 21
120.43212523311369
 31
0.0
  0
LINE
  5
CFCA
  8
3
 10
184.10514873695371
 20
129.9321252591908
 30
0.0
 11
184.10514873695371
 21
130.93212520331139
 31
0.0
  0
LINE
  5
CFCB
  8
3
 10
181.64614873695371
 20
129.9321252591908
 30
0.0
 11
181.64614873695371
 21
130.93212520331139
 31
0.0
  0
LINE
  5
CFCC
  8
3
 10
184.10514873695439
 20
129.93212525919071
 30
0.0
 11
184.37564873695371
 21
129.4636055157446
 31
0.0
  0
LINE
  5
CFCD
  8
3
 10
181.64614873695299
 20
129.93212525919071
 30
0.0
 11
181.37564873695371
 21
129.4636055157446
 31
0.0
  0
LINE
  5
CFCE
  8
0
 10
181.37564873695371
 20
129.93212525919071
 30
0.0
 11
184.37564873695371
 21
129.93212525919071
 31
0.0
  0
LINE
  5
CFCF
  8
1
 10
182.87564873695371
 20
132.93212520331139
 30
0.0
 11
182.87564873695371
 21
123.43212523311369
 31
0.0
  0
LINE
  5
CFD0
  8
3
 10
208.35386050176621
 20
129.9321252591908
 30
0.0
 11
208.35386050176621
 21
130.93212520331139
 31
0.0
  0
LINE
  5
CFD1
  8
3
 10
205.8948605017662
 20
129.9321252591908
 30
0.0
 11
205.8948605017662
 21
130.93212520331139
 31
0.0
  0
LINE
  5
CFD2
  8
3
 10
208.353860501767
 20
129.93212525919071
 30
0.0
 11
208.6243605017662
 21
129.4636055157446
 31
0.0
  0
LINE
  5
CFD3
  8
3
 10
205.89486050176549
 20
129.93212525919071
 30
0.0
 11
205.6243605017662
 21
129.4636055157446
 31
0.0
  0
LINE
  5
CFD4
  8
0
 10
205.6243605017662
 20
129.93212525919071
 30
0.0
 11
208.6243605017662
 21
129.93212525919071
 31
0.0
  0
LINE
  5
CFD5
  8
1
 10
207.1243605017662
 20
132.93212520331139
 30
0.0
 11
207.1243605017662
 21
123.43212523311369
 31
0.0
  0
LINE
  5
D05C
  8
1
 10
291.62133913766439
 20
162.4999987483024
 30
0.0
 11
291.62133913766439
 21
108.9999999999999
 31
0.0
  0
LINE
  5
D05D
  8
1
 10
355.62134098540838
 20
162.4999987483024
 30
0.0
 11
355.62134098540838
 21
108.9999999999999
 31
0.0
  0
LINE
  5
D05E
  8
1
 10
419.62134283315231
 20
162.4999987483024
 30
0.0
 11
419.62134283315231
 21
108.9999999999999
 31
0.0
  0
LINE
  5
D05F
  8
0
 10
370.72429836075588
 20
154.91473692125069
 30
0.0
 11
363.70418756671688
 21
157.46984654350661
 31
0.0
  0
LINE
  5
D060
  8
0
 10
347.53849480580379
 20
157.4698464817404
 30
0.0
 11
340.51838361006071
 21
154.91473692125069
 31
0.0
  0
ARC
  5
D061
  8
0
 10
363.53317749505408
 20
157.00000023311361
 30
0.0
 40
0.500000000000012
 50
70.00000000000145
 51
90.0
  0
ARC
  5
D062
  8
0
 10
347.70950447576263
 20
157.00000023311361
 30
0.0
 40
0.500000000000012
 50
90.0
 51
109.99999999999849
  0
ARC
  5
D063
  8
0
 10
339.14823104804879
 20
142.50000023311361
 30
0.0
 40
0.5000000000000031
 50
176.99999999999761
 51
270.0
  0
ARC
  5
D064
  8
0
 10
372.09445092276781
 20
142.50000023311361
 30
0.0
 40
0.5
 50
270.0
 51
3.0000000000023381
  0
LINE
  5
D065
  8
0
 10
339.20516569446607
 20
153.14002352422469
 30
0.0
 11
338.64891652297069
 21
142.52616854971629
 31
0.0
  0
LINE
  5
D066
  8
0
 10
372.5937654478459
 20
142.52616854971629
 30
0.0
 11
372.03751627635052
 21
153.14002352422469
 31
0.0
  0
ARC
  5
D067
  8
0
 10
370.04025812303348
 20
153.0353499138451
 30
0.0
 40
1.999999999999998
 50
2.9999999999990772
 51
69.999999999999915
  0
ARC
  5
D068
  8
0
 10
341.20242384778311
 20
153.0353499138451
 30
0.0
 40
2.0000000000000022
 50
110.0
 51
177.00000000000091
  0
ARC
  5
D069
  8
0
 10
346.56111070841899
 20
142.47302528326551
 30
0.0
 40
0.4745313187614214
 50
173.56989565747179
 51
265.43231681500339
  0
ARC
  5
D06A
  8
0
 10
364.6815712623976
 20
142.47302528326551
 30
0.0
 40
0.4745313187614202
 50
274.5676831849965
 51
6.4301043425281659
  0
LINE
  5
D06B
  8
0
 10
346.71927366684969
 20
156.35777654713391
 30
0.0
 11
346.08956456463631
 21
142.52616854971629
 31
0.0
  0
LINE
  5
D06C
  8
0
 10
364.52340830396702
 20
156.35777654713391
 30
0.0
 11
346.71927366684969
 21
156.35777654713391
 31
0.0
  0
LINE
  5
D06D
  8
0
 10
365.15311740618051
 20
142.52616854971629
 30
0.0
 11
364.52340830396702
 21
156.35777654713391
 31
0.0
  0
LINE
  5
D06E
  8
0
 10
347.70950425695469
 20
157.49999898141621
 30
0.0
 11
363.5331777138619
 21
157.49999898141621
 31
0.0
  0
POLYLINE
  5
D06F
  8
0
 66
     1
 10
0.0
 20
0.0
 30
0.0
 70
   128
  0
VERTEX
  5
10143
  8
0
 10
343.61240390967419
 20
142.00000109738099
 30
0.0
  0
VERTEX
  5
10144
  8
0
 10
343.57794404309078
 20
142.01025682157271
 30
0.0
  0
VERTEX
  5
10145
  8
0
 10
343.5448979241757
 20
142.0406048989891
 30
0.0
  0
VERTEX
  5
10146
  8
0
 10
343.51462155859758
 20
142.08979922002541
 30
0.0
  0
VERTEX
  5
10147
  8
0
 10
343.48835733067079
 20
142.15582253998511
 30
0.0
  0
VERTEX
  5
10148
  8
0
 10
343.46718091796919
 20
142.23596657282101
 30
0.0
  0
VERTEX
  5
10149
  8
0
 10
343.45196310710003
 20
142.32694188719981
 30
0.0
  0
VERTEX
  5
1014A
  8
0
 10
343.44332695286562
 20
142.42501760488739
 30
0.0
  0
VERTEX
  5
1014B
  8
0
 10
343.44162822048952
 20
142.52616854971629
 30
0.0
  0
SEQEND
  5
1014C
  8
0
  0
POLYLINE
  5
D070
  8
0
 66
     1
 10
0.0
 20
0.0
 30
0.0
 70
   128
  0
VERTEX
  5
1014D
  8
0
 10
367.63027806114252
 20
142.00000109738099
 30
0.0
  0
VERTEX
  5
1014E
  8
0
 10
367.66473792772581
 20
142.01025682157271
 30
0.0
  0
VERTEX
  5
1014F
  8
0
 10
367.69778404664089
 20
142.0406048989891
 30
0.0
  0
VERTEX
  5
10150
  8
0
 10
367.72806041221912
 20
142.08979922002541
 30
0.0
  0
VERTEX
  5
10151
  8
0
 10
367.7543246401458
 20
142.15582253998511
 30
0.0
  0
VERTEX
  5
10152
  8
0
 10
367.7755010528474
 20
142.23596657282101
 30
0.0
  0
VERTEX
  5
10153
  8
0
 10
367.79071886371662
 20
142.32694188719981
 30
0.0
  0
VERTEX
  5
10154
  8
0
 10
367.79935501795097
 20
142.42501760488739
 30
0.0
  0
VERTEX
  5
10155
  8
0
 10
367.80105375032713
 20
142.52616854971629
 30
0.0
  0
SEQEND
  5
10156
  8
0
  0
LINE
  5
D071
  8
0
 10
343.44162822048952
 20
142.52616854971629
 30
0.0
 11
343.67512662242939
 21
155.55293502873181
 31
0.0
  0
ARC
  5
D072
  8
0
 10
347.8990473825084
 20
145.73617586793731
 30
0.0
 40
10.686920370643239
 50
96.33803829545289
 51
113.2810735479905
  0
ARC
  5
D073
  8
0
 10
363.31768110371331
 20
145.63801216537479
 30
0.0
 40
10.78735956950827
 50
66.798374932801664
 51
83.582513223756308
  0
LINE
  5
D074
  8
0
 10
367.5675553483872
 20
155.55293502873181
 30
0.0
 11
367.80105375032713
 21
142.52616854971629
 31
0.0
  0
POLYLINE
  5
D075
  8
0
 66
     1
 10
0.0
 20
0.0
 30
0.0
 70
   128
  0
VERTEX
  5
10157
  8
0
 10
339.01563037466099
 20
142.52616854971629
 30
0.0
  0
VERTEX
  5
10158
  8
0
 10
339.01732910703709
 20
142.42501760488739
 30
0.0
  0
VERTEX
  5
10159
  8
0
 10
339.02596619259413
 20
142.32694188719981
 30
0.0
  0
VERTEX
  5
1015A
  8
0
 10
339.04118400346329
 20
142.23596657282101
 30
0.0
  0
VERTEX
  5
1015B
  8
0
 10
339.06236041616489
 20
142.15582253998511
 30
0.0
  0
VERTEX
  5
1015C
  8
0
 10
339.08862371276899
 20
142.08979922002541
 30
0.0
  0
VERTEX
  5
1015D
  8
0
 10
339.1189010096698
 20
142.0406048989891
 30
0.0
  0
VERTEX
  5
1015E
  8
0
 10
339.1519461972623
 20
142.01025682157271
 30
0.0
  0
VERTEX
  5
1015F
  8
0
 10
339.18640513252308
 20
142.00000109738099
 30
0.0
  0
SEQEND
  5
10160
  8
0
  0
POLYLINE
  5
D076
  8
0
 66
     1
 10
0.0
 20
0.0
 30
0.0
 70
   128
  0
VERTEX
  5
10161
  8
0
 10
372.05627683829363
 20
142.00000109738099
 30
0.0
  0
VERTEX
  5
10162
  8
0
 10
372.09073577355429
 20
142.01025682157271
 30
0.0
  0
VERTEX
  5
10163
  8
0
 10
372.12378096114679
 20
142.0406048989891
 30
0.0
  0
VERTEX
  5
10164
  8
0
 10
372.1540582580476
 20
142.08979922002541
 30
0.0
  0
VERTEX
  5
10165
  8
0
 10
372.1803215546517
 20
142.15582253998511
 30
0.0
  0
VERTEX
  5
10166
  8
0
 10
372.20149796735342
 20
142.23596657282101
 30
0.0
  0
VERTEX
  5
10167
  8
0
 10
372.21671577822258
 20
142.32694188719981
 30
0.0
  0
VERTEX
  5
10168
  8
0
 10
372.22535286377962
 20
142.42501760488739
 30
0.0
  0
VERTEX
  5
10169
  8
0
 10
372.22705159615572
 20
142.52616854971629
 30
0.0
  0
SEQEND
  5
1016A
  8
0
  0
LINE
  5
D077
  8
0
 10
339.55015179049059
 20
153.14002352422469
 30
0.0
 11
339.01563037466099
 21
142.52616854971629
 31
0.0
  0
ARC
  5
D078
  8
0
 10
341.04459911241918
 20
153.05732458186839
 30
0.0
 40
1.4967337482285661
 50
109.17041142999
 51
176.8326266396148
  0
LINE
  5
D079
  8
0
 10
343.67512662242939
 20
155.55293502873181
 30
0.0
 11
340.55310331564237
 21
154.47105857199421
 31
0.0
  0
LINE
  5
D07A
  8
0
 10
370.68957865517427
 20
154.47105857199421
 30
0.0
 11
367.5675553483872
 21
155.55293502873181
 31
0.0
  0
ARC
  5
D07B
  8
0
 10
370.20057253732131
 20
153.0592005860187
 30
0.0
 40
1.494145225826597
 50
3.1008194434686511
 51
70.896142486925797
  0
LINE
  5
D07C
  8
0
 10
372.22705159615572
 20
142.52616854971629
 30
0.0
 11
371.692530180326
 21
153.14002352422469
 31
0.0
  0
LINE
  5
D07D
  8
0
 10
372.09445092276781
 20
142.00000023311361
 30
0.0
 11
339.14823022018959
 21
142.00000109738099
 31
0.0
  0
LINE
  5
D0C1
  8
3
 10
342.85084055327468
 20
129.9321252591908
 30
0.0
 11
342.85084055327468
 21
130.93212520331139
 31
0.0
  0
LINE
  5
D0C2
  8
3
 10
340.39184055327468
 20
129.9321252591908
 30
0.0
 11
340.39184055327468
 21
130.93212520331139
 31
0.0
  0
LINE
  5
D0C3
  8
3
 10
342.85084055327542
 20
129.93212525919071
 30
0.0
 11
343.12134055327471
 21
129.4636055157446
 31
0.0
  0
LINE
  5
D0C4
  8
3
 10
340.39184055327399
 20
129.93212525919071
 30
0.0
 11
340.12134055327471
 21
129.4636055157446
 31
0.0
  0
LINE
  5
D0C5
  8
0
 10
340.12134055327471
 20
129.93212525919071
 30
0.0
 11
343.12134055327471
 21
129.93212525919071
 31
0.0
  0
LINE
  5
D0C6
  8
1
 10
341.62134055327471
 20
132.93212520331139
 30
0.0
 11
341.62134055327471
 21
123.43212523311369
 31
0.0
  0
LINE
  5
D0C7
  8
3
 10
363.85084120147519
 20
129.9321252591908
 30
0.0
 11
363.85084120147519
 21
130.93212520331139
 31
0.0
  0
LINE
  5
D0C8
  8
3
 10
361.39184120147519
 20
129.9321252591908
 30
0.0
 11
361.39184120147519
 21
130.93212520331139
 31
0.0
  0
LINE
  5
D0C9
  8
3
 10
363.85084120147587
 20
129.93212525919071
 30
0.0
 11
364.12134120147522
 21
129.4636055157446
 31
0.0
  0
LINE
  5
D0CA
  8
3
 10
361.39184120147451
 20
129.93212525919071
 30
0.0
 11
361.12134120147522
 21
129.4636055157446
 31
0.0
  0
LINE
  5
D0CB
  8
0
 10
361.12134120147522
 20
129.93212525919071
 30
0.0
 11
364.12134120147522
 21
129.93212525919071
 31
0.0
  0
LINE
  5
D0CC
  8
1
 10
362.62134120147522
 20
132.93212520331139
 30
0.0
 11
362.62134120147522
 21
123.43212523311369
 31
0.0
  0
LINE
  5
D0CD
  8
0
 10
301.5405755517989
 20
156.80145489639031
 30
0.0
 11
299.70418531726892
 21
157.4698464817404
 31
0.0
  0
LINE
  5
D0CE
  8
0
 10
283.53849295805981
 20
157.4698464817404
 30
0.0
 11
281.70210272352989
 21
156.80145489639031
 31
0.0
  0
ARC
  5
D0CF
  8
0
 10
302.09444907502387
 20
142.50000023311361
 30
0.0
 40
0.5
 50
270.0
 51
2.9999999999990772
  0
ARC
  5
D0D0
  8
0
 10
281.14822920030491
 20
142.50000023311361
 30
0.0
 40
0.5
 50
177.00000000000091
 51
270.0
  0
LINE
  5
D0D1
  8
0
 10
302.59376354794802
 20
142.52616854971629
 30
0.0
 11
301.8688797978669
 21
156.3577765471338
 31
0.0
  0
LINE
  5
D0D2
  8
0
 10
281.37379847746189
 20
156.3577765471338
 30
0.0
 11
280.64891472738083
 21
142.52616854971629
 31
0.0
  0
ARC
  5
D0D3
  8
0
 10
301.36956516996122
 20
156.33160910835039
 30
0.0
 40
0.500000000000012
 50
2.9999999999958149
 51
70.000000000001435
  0
ARC
  5
D0D4
  8
0
 10
281.87311310536762
 20
156.33160910835039
 30
0.0
 40
0.5000000000000071
 50
109.99999999999849
 51
177.00000000000421
  0
ARC
  5
D0D5
  8
0
 10
299.5331756473102
 20
157.00000023311361
 30
0.0
 40
0.500000000000012
 50
70.000000000001435
 51
90.0
  0
ARC
  5
D0D6
  8
0
 10
283.70950262801858
 20
157.00000023311361
 30
0.0
 40
0.500000000000012
 50
90.0
 51
109.99999999999849
  0
LINE
  5
D0D7
  8
0
 10
292.36746507510389
 20
153.1400235242246
 30
0.0
 11
290.87521320022489
 21
153.1400235242246
 31
0.0
  0
ARC
  5
D0D8
  8
0
 10
292.72551261137249
 20
142.48713928449229
 30
0.0
 40
0.4874228276584579
 50
271.95818724531011
 51
4.5927449424257443
  0
ARC
  5
D0D9
  8
0
 10
290.51716566395629
 20
142.48713928449229
 30
0.0
 40
0.4874228276584437
 50
175.40725505757101
 51
268.04181275469148
  0
ARC
  5
D0DA
  8
0
 10
292.59071916155358
 20
148.6744558358856
 30
0.0
 40
4.4711449502620848
 50
87.137905753298156
 51
92.862094246701844
  0
LINE
  5
D0DB
  8
0
 10
292.81397324800338
 20
153.1400235242246
 30
0.0
 11
293.21137033682157
 21
142.52616854971629
 31
0.0
  0
LINE
  5
D0DC
  8
0
 10
290.0313079385071
 20
142.52616854971629
 30
0.0
 11
290.42870502732541
 21
153.1400235242246
 31
0.0
  0
ARC
  5
D0DD
  8
0
 10
290.65195911377509
 20
148.6744558358856
 30
0.0
 40
4.4711449502620848
 50
87.137905753298156
 51
92.862094246701844
  0
ARC
  5
D0DE
  8
0
 10
288.90623418924082
 20
142.48713928449229
 30
0.0
 40
0.4874228276584437
 50
175.40725505757101
 51
268.04181275469148
  0
ARC
  5
D0DF
  8
0
 10
294.33644408608802
 20
142.48713928449229
 30
0.0
 40
0.4874228276584579
 50
271.95818724531011
 51
4.5927449424257443
  0
ARC
  5
D0E0
  8
0
 10
294.77706159085511
 20
153.40840494349271
 30
0.0
 40
1.981349143399217
 50
147.5659612698492
 51
187.78486609319589
  0
LINE
  5
D0E1
  8
0
 10
294.18077003490021
 20
155.5529350287317
 30
0.0
 11
293.10478419344719
 21
154.47105857199421
 31
0.0
  0
LINE
  5
D0E2
  8
0
 10
294.8223018115371
 20
142.52616854971629
 30
0.0
 11
294.18077003490021
 21
155.5529350287317
 31
0.0
  0
LINE
  5
D0E3
  8
0
 10
289.06190824042852
 20
155.5529350287317
 30
0.0
 11
288.42037646379168
 21
142.52616854971629
 31
0.0
  0
LINE
  5
D0E4
  8
0
 10
290.1378940818816
 20
154.47105857199421
 30
0.0
 11
289.06190824042852
 21
155.5529350287317
 31
0.0
  0
ARC
  5
D0E5
  8
0
 10
288.2880866855146
 20
153.3696173346101
 30
0.0
 40
2.1528957715281898
 50
353.8780967498202
 51
30.771075887135648
  0
POLYLINE
  5
D0E6
  8
0
 66
     1
 10
0.0
 20
0.0
 30
0.0
 70
   128
  0
VERTEX
  5
1016B
  8
0
 10
297.05635002162148
 20
142.52616854971629
 30
0.0
  0
VERTEX
  5
1016C
  8
0
 10
297.05388853605677
 20
142.4250176048873
 30
0.0
  0
VERTEX
  5
1016D
  8
0
 10
297.04138133954098
 20
142.32694188719969
 30
0.0
  0
VERTEX
  5
1016E
  8
0
 10
297.01934205647399
 20
142.23596657282101
 30
0.0
  0
VERTEX
  5
1016F
  8
0
 10
296.9886736040919
 20
142.155822539985
 30
0.0
  0
VERTEX
  5
10170
  8
0
 10
296.95063559617688
 20
142.08979922002541
 30
0.0
  0
VERTEX
  5
10171
  8
0
 10
296.90678753238018
 20
142.04060489898899
 30
0.0
  0
VERTEX
  5
10172
  8
0
 10
296.85892872791578
 20
142.0102568215726
 30
0.0
  0
VERTEX
  5
10173
  8
0
 10
296.80902241077121
 20
142.0000010973809
 30
0.0
  0
SEQEND
  5
10174
  8
0
  0
POLYLINE
  5
D0E7
  8
0
 66
     1
 10
0.0
 20
0.0
 30
0.0
 70
   128
  0
VERTEX
  5
10175
  8
0
 10
286.43365586455758
 20
142.0000010973809
 30
0.0
  0
VERTEX
  5
10176
  8
0
 10
286.38374954741289
 20
142.0102568215726
 30
0.0
  0
VERTEX
  5
10177
  8
0
 10
286.33589074294861
 20
142.04060489898899
 30
0.0
  0
VERTEX
  5
10178
  8
0
 10
286.29204267915179
 20
142.08979922002541
 30
0.0
  0
VERTEX
  5
10179
  8
0
 10
286.25400467123683
 20
142.155822539985
 30
0.0
  0
VERTEX
  5
1017A
  8
0
 10
286.22333621885468
 20
142.23596657282101
 30
0.0
  0
VERTEX
  5
1017B
  8
0
 10
286.2012969357877
 20
142.32694188719969
 30
0.0
  0
VERTEX
  5
1017C
  8
0
 10
286.1887897392719
 20
142.4250176048873
 30
0.0
  0
VERTEX
  5
1017D
  8
0
 10
286.18632825370719
 20
142.52616854971629
 30
0.0
  0
SEQEND
  5
1017E
  8
0
  0
ARC
  5
D0E8
  8
0
 10
296.43910877561399
 20
152.82838243890029
 30
0.0
 40
3.5388247600814449
 50
85.816156305268734
 51
129.6548008053804
  0
LINE
  5
D0E9
  8
0
 10
296.69729071017201
 20
156.3577765471338
 30
0.0
 11
297.05635002162148
 21
142.52616854971629
 31
0.0
  0
LINE
  5
D0EA
  8
0
 10
286.18632825370719
 20
142.52616854971629
 30
0.0
 11
286.54538756515677
 21
156.3577765471338
 31
0.0
  0
ARC
  5
D0EB
  8
0
 10
286.81295090659211
 20
152.85771554837621
 30
0.0
 40
3.5102730857732221
 50
50.15755001163938
 51
94.371492877711304
  0
LINE
  5
D0EC
  8
0
 10
302.09444891940649
 20
142.0000010973809
 30
0.0
 11
281.14822920030491
 21
142.00000023311361
 31
0.0
  0
LINE
  5
D0ED
  8
0
 10
283.7095024092107
 20
157.4999989814161
 30
0.0
 11
299.53317586611797
 21
157.4999989814161
 31
0.0
  0
LINE
  5
D0EE
  8
0
 10
301.8688797978669
 20
156.3577765471338
 30
0.0
 11
296.69729071017201
 21
156.3577765471338
 31
0.0
  0
LINE
  5
D0EF
  8
0
 10
286.54538756515677
 20
156.3577765471338
 30
0.0
 11
281.37379847746189
 21
156.3577765471338
 31
0.0
  0
LINE
  5
D0F0
  8
0
 10
429.54057924728693
 20
156.80145489639031
 30
0.0
 11
427.7041890127569
 21
157.4698464817404
 31
0.0
  0
LINE
  5
D0F1
  8
0
 10
411.53849665354778
 20
157.4698464817404
 30
0.0
 11
409.70210641901781
 21
156.80145489639031
 31
0.0
  0
ARC
  5
D0F2
  8
0
 10
430.09445277051191
 20
142.50000023311361
 30
0.0
 40
0.5
 50
270.0
 51
2.9999999999990772
  0
ARC
  5
D0F3
  8
0
 10
409.14823289579277
 20
142.50000023311361
 30
0.0
 40
0.5
 50
177.00000000000091
 51
270.0
  0
LINE
  5
D0F4
  8
0
 10
430.59376724343588
 20
142.52616854971629
 30
0.0
 11
429.86888349335487
 21
156.3577765471338
 31
0.0
  0
LINE
  5
D0F5
  8
0
 10
409.37380217294981
 20
156.3577765471338
 30
0.0
 11
408.64891842286869
 21
142.52616854971629
 31
0.0
  0
ARC
  5
D0F6
  8
0
 10
429.36956886544908
 20
156.33160910835039
 30
0.0
 40
0.500000000000012
 50
2.9999999999958149
 51
70.000000000000099
  0
ARC
  5
D0F7
  8
0
 10
409.8731168008556
 20
156.33160910835039
 30
0.0
 40
0.5000000000000071
 50
109.9999999999966
 51
177.00000000000421
  0
ARC
  5
D0F8
  8
0
 10
427.53317934279812
 20
157.00000023311361
 30
0.0
 40
0.500000000000012
 50
70.000000000000099
 51
90.0
  0
ARC
  5
D0F9
  8
0
 10
411.70950632350662
 20
157.00000023311361
 30
0.0
 40
0.500000000000012
 50
90.0
 51
109.9999999999999
  0
LINE
  5
D0FA
  8
0
 10
420.36746877059181
 20
153.1400235242246
 30
0.0
 11
418.87521689571281
 21
153.1400235242246
 31
0.0
  0
ARC
  5
D0FB
  8
0
 10
420.7255163068603
 20
142.48713928449229
 30
0.0
 40
0.4874228276584579
 50
271.95818724530852
 51
4.5927449424257443
  0
ARC
  5
D0FC
  8
0
 10
418.51716935944421
 20
142.48713928449229
 30
0.0
 40
0.4874228276584437
 50
175.40725505757101
 51
268.04181275469148
  0
ARC
  5
D0FD
  8
0
 10
420.5907228570415
 20
148.6744558358856
 30
0.0
 40
4.4711449502620848
 50
87.137905753298156
 51
92.862094246701844
  0
LINE
  5
D0FE
  8
0
 10
420.8139769434913
 20
153.1400235242246
 30
0.0
 11
421.21137403230949
 21
142.52616854971629
 31
0.0
  0
LINE
  5
D0FF
  8
0
 10
418.03131163399502
 20
142.52616854971629
 30
0.0
 11
418.42870872281333
 21
153.1400235242246
 31
0.0
  0
ARC
  5
D100
  8
0
 10
418.65196280926301
 20
148.6744558358856
 30
0.0
 40
4.4711449502620848
 50
87.137905753298156
 51
92.862094246701844
  0
ARC
  5
D101
  8
0
 10
416.9062378847288
 20
142.48713928449229
 30
0.0
 40
0.4874228276584437
 50
175.40725505757101
 51
268.04181275469148
  0
ARC
  5
D102
  8
0
 10
422.33644778157583
 20
142.48713928449229
 30
0.0
 40
0.4874228276584579
 50
271.95818724530852
 51
4.5927449424257443
  0
ARC
  5
D103
  8
0
 10
422.77706528634309
 20
153.40840494349271
 30
0.0
 40
1.981349143399217
 50
147.5659612698492
 51
187.78486609319589
  0
LINE
  5
D104
  8
0
 10
422.18077373038818
 20
155.5529350287317
 30
0.0
 11
421.10478788893511
 21
154.47105857199421
 31
0.0
  0
LINE
  5
D105
  8
0
 10
422.82230550702502
 20
142.52616854971629
 30
0.0
 11
422.18077373038818
 21
155.5529350287317
 31
0.0
  0
LINE
  5
D106
  8
0
 10
417.06191193591638
 20
155.5529350287317
 30
0.0
 11
416.4203801592796
 21
142.52616854971629
 31
0.0
  0
LINE
  5
D107
  8
0
 10
418.13789777736952
 20
154.47105857199421
 30
0.0
 11
417.06191193591638
 21
155.5529350287317
 31
0.0
  0
ARC
  5
D108
  8
0
 10
416.28809038100258
 20
153.3696173346101
 30
0.0
 40
2.1528957715281898
 50
353.8780967498202
 51
30.771075887135648
  0
POLYLINE
  5
D109
  8
0
 66
     1
 10
0.0
 20
0.0
 30
0.0
 70
   128
  0
VERTEX
  5
1017F
  8
0
 10
425.0563537171094
 20
142.52616854971629
 30
0.0
  0
VERTEX
  5
10180
  8
0
 10
425.05389223154469
 20
142.4250176048873
 30
0.0
  0
VERTEX
  5
10181
  8
0
 10
425.0413850350289
 20
142.32694188719969
 30
0.0
  0
VERTEX
  5
10182
  8
0
 10
425.01934575196191
 20
142.23596657282101
 30
0.0
  0
VERTEX
  5
10183
  8
0
 10
424.98867729957982
 20
142.155822539985
 30
0.0
  0
VERTEX
  5
10184
  8
0
 10
424.9506392916648
 20
142.08979922002541
 30
0.0
  0
VERTEX
  5
10185
  8
0
 10
424.9067912278681
 20
142.04060489898899
 30
0.0
  0
VERTEX
  5
10186
  8
0
 10
424.8589324234037
 20
142.0102568215726
 30
0.0
  0
VERTEX
  5
10187
  8
0
 10
424.80902610625913
 20
142.0000010973809
 30
0.0
  0
SEQEND
  5
10188
  8
0
  0
POLYLINE
  5
D10A
  8
0
 66
     1
 10
0.0
 20
0.0
 30
0.0
 70
   128
  0
VERTEX
  5
10189
  8
0
 10
414.4336595600455
 20
142.0000010973809
 30
0.0
  0
VERTEX
  5
1018A
  8
0
 10
414.38375324290081
 20
142.0102568215726
 30
0.0
  0
VERTEX
  5
1018B
  8
0
 10
414.33589443843653
 20
142.04060489898899
 30
0.0
  0
VERTEX
  5
1018C
  8
0
 10
414.29204637463971
 20
142.08979922002541
 30
0.0
  0
VERTEX
  5
1018D
  8
0
 10
414.25400836672469
 20
142.155822539985
 30
0.0
  0
VERTEX
  5
1018E
  8
0
 10
414.2233399143426
 20
142.23596657282101
 30
0.0
  0
VERTEX
  5
1018F
  8
0
 10
414.20130063127561
 20
142.32694188719969
 30
0.0
  0
VERTEX
  5
10190
  8
0
 10
414.18879343475982
 20
142.4250176048873
 30
0.0
  0
VERTEX
  5
10191
  8
0
 10
414.18633194919511
 20
142.52616854971629
 30
0.0
  0
SEQEND
  5
10192
  8
0
  0
ARC
  5
D10B
  8
0
 10
424.43911247110191
 20
152.82838243890029
 30
0.0
 40
3.5388247600814449
 50
85.816156305268734
 51
129.6548008053804
  0
LINE
  5
D10C
  8
0
 10
424.69729440565987
 20
156.3577765471338
 30
0.0
 11
425.0563537171094
 21
142.52616854971629
 31
0.0
  0
LINE
  5
D10D
  8
0
 10
414.18633194919511
 20
142.52616854971629
 30
0.0
 11
414.54539126064469
 21
156.3577765471338
 31
0.0
  0
ARC
  5
D10E
  8
0
 10
414.81295460208008
 20
152.85771554837621
 30
0.0
 40
3.5102730857732221
 50
50.15755001163938
 51
94.371492877711304
  0
LINE
  5
D10F
  8
0
 10
430.09445261489452
 20
142.0000010973809
 30
0.0
 11
409.14823289579277
 21
142.00000023311361
 31
0.0
  0
LINE
  5
D110
  8
0
 10
411.70950610469862
 20
157.4999989814161
 30
0.0
 11
427.533179561606
 21
157.4999989814161
 31
0.0
  0
LINE
  5
D111
  8
0
 10
429.86888349335487
 20
156.3577765471338
 30
0.0
 11
424.69729440565987
 21
156.3577765471338
 31
0.0
  0
LINE
  5
D112
  8
0
 10
414.54539126064469
 20
156.3577765471338
 30
0.0
 11
409.37380217294981
 21
156.3577765471338
 31
0.0
  0
LINE
  5
D199
  8
3
 10
304.97519502007071
 20
129.9321252591908
 30
0.0
 11
304.97519502007071
 21
130.93212520331139
 31
0.0
  0
LINE
  5
D19A
  8
3
 10
302.5161950200706
 20
129.9321252591908
 30
0.0
 11
302.5161950200706
 21
130.93212520331139
 31
0.0
  0
LINE
  5
D19B
  8
3
 10
304.97519502007128
 20
129.93212525919071
 30
0.0
 11
305.24569502007063
 21
129.4636055157446
 31
0.0
  0
LINE
  5
D19C
  8
3
 10
302.51619502006992
 20
129.93212525919071
 30
0.0
 11
302.24569502007063
 21
129.4636055157446
 31
0.0
  0
LINE
  5
D19D
  8
0
 10
302.24569502007063
 20
129.93212525919071
 30
0.0
 11
305.24569502007063
 21
129.93212525919071
 31
0.0
  0
LINE
  5
D19E
  8
1
 10
303.74569502007063
 20
132.93212520331139
 30
0.0
 11
303.74569502007063
 21
123.43212523311369
 31
0.0
  0
LINE
  5
D19F
  8
3
 10
292.85083913766448
 20
129.9321252591908
 30
0.0
 11
292.85083913766448
 21
130.93212520331139
 31
0.0
  0
LINE
  5
D1A0
  8
3
 10
290.39183913766442
 20
129.9321252591908
 30
0.0
 11
290.39183913766442
 21
130.93212520331139
 31
0.0
  0
LINE
  5
D1A1
  8
3
 10
292.85083913766522
 20
129.93212525919071
 30
0.0
 11
293.12133913766439
 21
129.4636055157446
 31
0.0
  0
LINE
  5
D1A2
  8
3
 10
290.39183913766368
 20
129.93212525919071
 30
0.0
 11
290.12133913766451
 21
129.4636055157446
 31
0.0
  0
LINE
  5
D1A3
  8
0
 10
290.12133913766451
 20
129.93212525919071
 30
0.0
 11
293.12133913766439
 21
129.93212525919071
 31
0.0
  0
LINE
  5
D1A5
  8
3
 10
280.72648325525819
 20
129.9321252591908
 30
0.0
 11
280.72648325525819
 21
130.93212520331139
 31
0.0
  0
LINE
  5
D1A6
  8
3
 10
278.26748325525813
 20
129.9321252591908
 30
0.0
 11
278.26748325525813
 21
130.93212520331139
 31
0.0
  0
LINE
  5
D1A7
  8
3
 10
280.72648325525881
 20
129.93212525919071
 30
0.0
 11
280.99698325525821
 21
129.4636055157446
 31
0.0
  0
LINE
  5
D1A8
  8
3
 10
278.26748325525739
 20
129.93212525919071
 30
0.0
 11
277.9969832552581
 21
129.4636055157446
 31
0.0
  0
LINE
  5
D1A9
  8
0
 10
277.9969832552581
 20
129.93212525919071
 30
0.0
 11
280.99698325525821
 21
129.93212525919071
 31
0.0
  0
LINE
  5
D1AA
  8
1
 10
279.49698325525821
 20
132.93212520331139
 30
0.0
 11
279.49698325525821
 21
123.43212523311369
 31
0.0
  0
ARC
  5
D231
  8
0
 10
195.00000461936
 20
130.432125121072
 30
0.0
 40
1.7000001389533279
 50
162.8953633644947
 51
17.10463663550528
  0
ARC
  5
D232
  8
0
 10
195.00000461936
 20
130.43212535390259
 30
0.0
 40
1.9999998621642581
 50
165.522491250126
 51
14.47750874987395
  0
ARC
  5
D233
  8
0
 10
67.000000923872051
 20
130.432125121072
 30
0.0
 40
1.7000001389533279
 50
162.8953633644947
 51
208.07249478303521
  0
ARC
  5
D234
  8
0
 10
67.000000923872051
 20
130.43212535390259
 30
0.0
 40
1.9999998621642581
 50
165.522491250126
 51
221.4096170671435
  0
ARC
  5
D235
  8
0
 10
67.000000923872051
 20
130.43212535390259
 30
0.0
 40
1.9999998621642581
 50
318.59038293285568
 51
14.477508749873939
  0
ARC
  5
D236
  8
0
 10
67.000000923872051
 20
130.432125121072
 30
0.0
 40
1.7000001389533279
 50
331.92750521696291
 51
17.104636635505269
  0
LINE
  5
D27A
  8
3
 10
408.72648695074599
 20
129.9321252591908
 30
0.0
 11
408.72648695074599
 21
130.93212520331139
 31
0.0
  0
LINE
  5
D27B
  8
3
 10
406.26748695074599
 20
129.9321252591908
 30
0.0
 11
406.26748695074599
 21
130.93212520331139
 31
0.0
  0
LINE
  5
D27C
  8
3
 10
408.72648695074679
 20
129.93212525919071
 30
0.0
 11
408.99698695074602
 21
129.4636055157446
 31
0.0
  0
LINE
  5
D27D
  8
3
 10
406.26748695074531
 20
129.93212525919071
 30
0.0
 11
405.99698695074602
 21
129.4636055157446
 31
0.0
  0
LINE
  5
D27E
  8
0
 10
405.99698695074602
 20
129.93212525919071
 30
0.0
 11
408.99698695074602
 21
129.93212525919071
 31
0.0
  0
LINE
  5
D27F
  8
1
 10
407.49698695074602
 20
132.93212520331139
 30
0.0
 11
407.49698695074602
 21
123.43212523311369
 31
0.0
  0
LINE
  5
D280
  8
3
 10
432.97519871555858
 20
129.9321252591908
 30
0.0
 11
432.97519871555858
 21
130.93212520331139
 31
0.0
  0
LINE
  5
D281
  8
3
 10
430.51619871555852
 20
129.9321252591908
 30
0.0
 11
430.51619871555852
 21
130.93212520331139
 31
0.0
  0
LINE
  5
D282
  8
3
 10
432.97519871555932
 20
129.93212525919071
 30
0.0
 11
433.2456987155586
 21
129.4636055157446
 31
0.0
  0
LINE
  5
D283
  8
3
 10
430.51619871555778
 20
129.93212525919071
 30
0.0
 11
430.24569871555849
 21
129.4636055157446
 31
0.0
  0
LINE
  5
D284
  8
0
 10
430.24569871555849
 20
129.93212525919071
 30
0.0
 11
433.2456987155586
 21
129.93212525919071
 31
0.0
  0
LINE
  5
D285
  8
1
 10
431.7456987155586
 20
132.93212520331139
 30
0.0
 11
431.7456987155586
 21
123.43212523311369
 31
0.0
  0
LINE
  5
D2CA
  8
0
 10
64.250000938773184
 20
125.93212525686241
 30
0.0
 11
58.000001311302178
 21
125.93212525686241
 31
0.0
  0
LINE
  5
D2CB
  8
0
 10
69.750000908970861
 20
125.93212525686241
 30
0.0
 11
76.000000536441803
 21
125.93212525686241
 31
0.0
  0
LINE
  5
D2CC
  8
0
 10
122.2857906669378
 20
125.93212525686241
 30
0.0
 11
135.25000300258401
 21
125.93212525686241
 31
0.0
  0
LINE
  5
D2CD
  8
0
 10
186.0000050067901
 20
125.93212525686241
 30
0.0
 11
192.75000471621749
 21
125.93212525686241
 31
0.0
  0
LINE
  5
D2CE
  8
0
 10
197.25000452250231
 20
125.93212525686241
 30
0.0
 11
204.00000423192981
 21
125.93212525686241
 31
0.0
  0
LINE
  5
D2CF
  8
0
 10
282.62133952509458
 20
125.93212525686241
 30
0.0
 11
288.87133915256561
 21
125.93212525686241
 31
0.0
  0
LINE
  5
D2D0
  8
0
 10
294.37133912276329
 20
125.93212525686241
 30
0.0
 11
300.6213387502342
 21
125.93212525686241
 31
0.0
  0
LINE
  5
D2D1
  8
0
 10
346.90712888073023
 20
125.93212525686241
 30
0.0
 11
359.87134121637638
 21
125.93212525686241
 31
0.0
  0
LINE
  5
D2D2
  8
0
 10
410.6213432205825
 20
125.93212525686241
 30
0.0
 11
417.3713429300098
 21
125.93212525686241
 31
0.0
  0
LINE
  5
D2D3
  8
0
 10
421.87134273629471
 20
125.93212525686241
 30
0.0
 11
428.62134244572218
 21
125.93212525686241
 31
0.0
  0
LINE
  5
D3B1
  8
1
 10
282.6213389215975
 20
119.0000002331136
 30
0.0
 11
300.62133935373117
 21
119.0000002331136
 31
0.0
  0
LINE
  5
D3B7
  8
1
 10
351.62134098540838
 20
119.0000002331136
 30
0.0
 11
359.62134098540838
 21
119.0000002331136
 31
0.0
  0
LINE
  5
D3B8
  8
1
 10
410.62134261708547
 20
119.0000002331136
 30
0.0
 11
428.62134304921921
 21
119.0000002331136
 31
0.0
  0
LINE
  5
D3B9
  8
1
 10
199.0000044815242
 20
130.43212535390259
 30
0.0
 11
191.00000475719571
 21
130.43212535390259
 31
0.0
  0
LINE
  5
D3BD
  8
1
 10
71.00000078603631
 20
130.43212535390259
 30
0.0
 11
63.000001061707778
 21
130.43212535390259
 31
0.0
  0
LINE
  5
D4CC
  8
0
 10
301.24999955296511
 20
-108.87327041584059
 30
0.0
 11
301.24999955296511
 21
-105.8732703897636
 31
0.0
  0
LINE
  5
D4CD
  8
0
 10
295.74999958276737
 20
-105.8732703897636
 30
0.0
 11
295.74999958276737
 21
-108.87327041584059
 31
0.0
  0
LINE
  5
D4CE
  8
0
 10
299.99999981373543
 20
-105.8732703897636
 30
0.0
 11
299.99999981373543
 21
-103.373270445643
 31
0.0
  0
LINE
  5
D4CF
  8
0
 10
297.00000025331968
 20
-103.373270445643
 30
0.0
 11
297.00000025331968
 21
-105.8732703897636
 31
0.0
  0
LINE
  5
D4D4
  8
0
 10
322.41923641413439
 20
-66.071815752563936
 30
0.0
 11
320.58284617960442
 21
-65.403424167213899
 31
0.0
  0
LINE
  5
D4D5
  8
0
 10
304.41715382039541
 20
-65.403424167213899
 30
0.0
 11
302.58076358586538
 21
-66.071815752563936
 31
0.0
  0
ARC
  5
D4D6
  8
0
 10
322.97310993735942
 20
-80.373270415840665
 30
0.0
 40
0.5
 50
270.0
 51
2.9999999999990772
  0
ARC
  5
D4D7
  8
0
 10
302.02689006264029
 20
-80.373270415840665
 30
0.0
 40
0.5
 50
177.00000000000091
 51
270.0
  0
LINE
  5
D4D8
  8
0
 10
323.47242441028351
 20
-80.347102099237958
 30
0.0
 11
322.74754066020239
 21
-66.515494101820451
 31
0.0
  0
LINE
  5
D4D9
  8
0
 10
302.25245933979738
 20
-66.515494101820451
 30
0.0
 11
301.52757558971632
 21
-80.347102099237958
 31
0.0
  0
ARC
  5
D4DA
  8
0
 10
322.24822603229671
 20
-66.541661540603883
 30
0.0
 40
0.500000000000012
 50
2.9999999999958149
 51
70.000000000000199
  0
ARC
  5
D4DB
  8
0
 10
302.75177396770312
 20
-66.541661540603883
 30
0.0
 40
0.5000000000000071
 50
109.9999999999964
 51
177.00000000000421
  0
ARC
  5
D4DC
  8
0
 10
320.41183650964558
 20
-65.873270415840665
 30
0.0
 40
0.500000000000012
 50
70.000000000000199
 51
90.0
  0
ARC
  5
D4DD
  8
0
 10
304.58816349035408
 20
-65.873270415840665
 30
0.0
 40
0.500000000000012
 50
90.0
 51
109.9999999999998
  0
LINE
  5
D4DE
  8
0
 10
295.49999907612789
 20
-102.8732703636866
 30
0.0
 11
296.00000008940691
 21
-103.373270445643
 31
0.0
  0
LINE
  5
D4DF
  8
0
 10
328.99999991059292
 20
-103.373270445643
 30
0.0
 11
329.50000092387188
 21
-102.8732703636866
 31
0.0
  0
LINE
  5
D4E0
  8
0
 10
329.50000092387188
 20
-102.8732703636866
 30
0.0
 11
329.50000092387188
 21
-96.712262333510438
 31
0.0
  0
LINE
  5
D4E1
  8
0
 10
295.49999907612789
 20
-96.712262333510438
 30
0.0
 11
295.49999907612789
 21
-102.8732703636866
 31
0.0
  0
ARC
  5
D4E2
  8
0
 10
296.49999999999989
 20
-96.712262152480349
 30
0.0
 40
1.00000000000001
 50
109.9999999999998
 51
180.0
  0
ARC
  5
D4E3
  8
0
 10
328.49999999999989
 20
-96.712262152480349
 30
0.0
 40
1.00000000000001
 50
0.0
 51
70.000000000000199
  0
LINE
  5
D4E4
  8
0
 10
328.8420196622609
 20
-95.77256996291689
 30
0.0
 11
322.25000020116562
 21
-93.373270669160405
 31
0.0
  0
LINE
  5
D4E5
  8
0
 10
302.74999979883421
 20
-93.373270669160405
 30
0.0
 11
296.15798033773888
 21
-95.77256996291689
 31
0.0
  0
ARC
  5
D4E6
  8
0
 10
304.09999999999991
 20
-92.973270415840631
 30
0.0
 40
0.4000000000000199
 50
270.0
 51
0.0
  0
ARC
  5
D4E7
  8
0
 10
320.89999999999992
 20
-92.973270415840631
 30
0.0
 40
0.4000000000000057
 50
180.0
 51
270.0
  0
LINE
  5
D4E8
  8
0
 10
320.5000003799795
 20
-92.973269486008206
 30
0.0
 11
320.5000003799795
 21
-80.873269551573316
 31
0.0
  0
LINE
  5
D4E9
  8
0
 10
304.49999962002028
 20
-80.873269551573316
 30
0.0
 11
304.49999962002028
 21
-92.973269486008206
 31
0.0
  0
LINE
  5
D4EA
  8
0
 10
301.24999955296511
 20
-108.87327041584059
 30
0.0
 11
295.74999958276737
 21
-108.87327041584059
 31
0.0
  0
LINE
  5
D4EB
  8
0
 10
301.24999955296511
 20
-105.8732703897636
 30
0.0
 11
295.74999958276737
 21
-105.8732703897636
 31
0.0
  0
LINE
  5
D4EE
  8
0
 10
313.24612593743939
 20
-69.733247124729616
 30
0.0
 11
311.75387406256039
 21
-69.733247124729616
 31
0.0
  0
ARC
  5
D4EF
  8
0
 10
313.60417347370799
 20
-80.386131364461988
 30
0.0
 40
0.4874228276584579
 50
271.95818724531011
 51
4.5927449424257443
  0
ARC
  5
D4F0
  8
0
 10
311.39582652629178
 20
-80.386131364461988
 30
0.0
 40
0.4874228276584437
 50
175.40725505757101
 51
268.04181275469148
  0
ARC
  5
D4F1
  8
0
 10
313.46938002388907
 20
-74.198814813068651
 30
0.0
 40
4.4711449502620848
 50
87.137905753296508
 51
92.862094246703464
  0
LINE
  5
D4F2
  8
0
 10
313.69263411033887
 20
-69.733247124729616
 30
0.0
 11
314.09003119915712
 21
-80.347102099237958
 31
0.0
  0
LINE
  5
D4F3
  8
0
 10
310.90996880084271
 20
-80.347102099237958
 30
0.0
 11
311.3073658896609
 21
-69.733247124729616
 31
0.0
  0
ARC
  5
D4F4
  8
0
 10
311.5306199761107
 20
-74.198814813068651
 30
0.0
 40
4.4711449502620848
 50
87.137905753296508
 51
92.862094246703464
  0
ARC
  5
D4F5
  8
0
 10
309.78489505157631
 20
-80.386131364461988
 30
0.0
 40
0.4874228276584437
 50
175.40725505757101
 51
268.04181275469148
  0
ARC
  5
D4F6
  8
0
 10
315.21510494842352
 20
-80.386131364461988
 30
0.0
 40
0.4874228276584579
 50
271.95818724531011
 51
4.5927449424257443
  0
ARC
  5
D4F7
  8
0
 10
315.65572245319061
 20
-69.464865705461563
 30
0.0
 40
1.981349143399217
 50
147.5659612698492
 51
187.78486609319751
  0
LINE
  5
D4F8
  8
0
 10
315.05943089723581
 20
-67.320335620222551
 30
0.0
 11
313.98344505578268
 21
-68.402212076960069
 31
0.0
  0
LINE
  5
D4F9
  8
0
 10
315.7009626738726
 20
-80.347102099237958
 30
0.0
 11
315.05943089723581
 21
-67.320335620222551
 31
0.0
  0
LINE
  5
D4FA
  8
0
 10
309.94056910276402
 20
-67.320335620222551
 30
0.0
 11
309.29903732612718
 21
-80.347102099237958
 31
0.0
  0
LINE
  5
D4FB
  8
0
 10
311.01655494421709
 20
-68.402212076960069
 30
0.0
 11
309.94056910276402
 21
-67.320335620222551
 31
0.0
  0
ARC
  5
D4FC
  8
0
 10
309.16674754785021
 20
-69.50365331434412
 30
0.0
 40
2.1528957715281898
 50
353.87809674982179
 51
30.771075887135378
  0
POLYLINE
  5
D4FD
  8
0
 66
     1
 10
0.0
 20
0.0
 30
0.0
 70
   128
  0
VERTEX
  5
10193
  8
0
 10
317.93501088395709
 20
-80.347102099237958
 30
0.0
  0
VERTEX
  5
10194
  8
0
 10
317.93254939839233
 20
-80.448253044066945
 30
0.0
  0
VERTEX
  5
10195
  8
0
 10
317.92004220187653
 20
-80.546328761754552
 30
0.0
  0
VERTEX
  5
10196
  8
0
 10
317.8980029188096
 20
-80.63730407613329
 30
0.0
  0
VERTEX
  5
10197
  8
0
 10
317.86733446642751
 20
-80.717448108969251
 30
0.0
  0
VERTEX
  5
10198
  8
0
 10
317.82929645851249
 20
-80.783471428928891
 30
0.0
  0
VERTEX
  5
10199
  8
0
 10
317.78544839471567
 20
-80.83266574996523
 30
0.0
  0
VERTEX
  5
1019A
  8
0
 10
317.73758959025139
 20
-80.86301382738165
 30
0.0
  0
VERTEX
  5
1019B
  8
0
 10
317.6876832731067
 20
-80.873269551573316
 30
0.0
  0
SEQEND
  5
1019C
  8
0
  0
POLYLINE
  5
D4FE
  8
0
 66
     1
 10
0.0
 20
0.0
 30
0.0
 70
   128
  0
VERTEX
  5
1019D
  8
0
 10
307.31231672689307
 20
-80.873269551573316
 30
0.0
  0
VERTEX
  5
1019E
  8
0
 10
307.2624104097485
 20
-80.86301382738165
 30
0.0
  0
VERTEX
  5
1019F
  8
0
 10
307.2145516052841
 20
-80.83266574996523
 30
0.0
  0
VERTEX
  5
101A0
  8
0
 10
307.1707035414874
 20
-80.783471428928891
 30
0.0
  0
VERTEX
  5
101A1
  8
0
 10
307.13266553357232
 20
-80.717448108969251
 30
0.0
  0
VERTEX
  5
101A2
  8
0
 10
307.10199708119029
 20
-80.63730407613329
 30
0.0
  0
VERTEX
  5
101A3
  8
0
 10
307.0799577981233
 20
-80.546328761754552
 30
0.0
  0
VERTEX
  5
101A4
  8
0
 10
307.0674506016075
 20
-80.448253044066945
 30
0.0
  0
VERTEX
  5
101A5
  8
0
 10
307.0649891160428
 20
-80.347102099237958
 30
0.0
  0
SEQEND
  5
101A6
  8
0
  0
ARC
  5
D4FF
  8
0
 10
317.31776963794948
 20
-70.044888210053983
 30
0.0
 40
3.5388247600814449
 50
85.81615630527034
 51
129.65480080538109
  0
LINE
  5
D500
  8
0
 10
317.57595157250751
 20
-66.515494101820451
 30
0.0
 11
317.93501088395709
 21
-80.347102099237958
 31
0.0
  0
LINE
  5
D501
  8
0
 10
307.0649891160428
 20
-80.347102099237958
 30
0.0
 11
307.42404842749232
 21
-66.515494101820451
 31
0.0
  0
ARC
  5
D502
  8
0
 10
307.69161176892771
 20
-70.015555100578041
 30
0.0
 40
3.5102730857732221
 50
50.157550011640069
 51
94.371492877711304
  0
LINE
  5
D503
  8
0
 10
322.97310978174198
 20
-80.873269551573316
 30
0.0
 11
302.02689006264029
 21
-80.873270415840665
 31
0.0
  0
LINE
  5
D504
  8
0
 10
304.58816327154631
 20
-65.373271667538148
 30
0.0
 11
320.41183672845352
 21
-65.373271667538148
 31
0.0
  0
LINE
  5
D505
  8
0
 10
328.99999991059281
 20
-103.373270445643
 30
0.0
 11
296.00000008940691
 21
-103.373270445643
 31
0.0
  0
LINE
  5
D506
  8
0
 10
322.25000020116562
 20
-93.373270669160405
 30
0.0
 11
302.74999979883421
 21
-93.373270669160405
 31
0.0
  0
ARC
  5
D513
  8
0
 10
321.61701414095592
 20
-103.77811649219809
 30
0.0
 40
0.4028311887991901
 50
106.8867136330052
 51
179.31068652888089
  0
ARC
  5
D514
  8
0
 10
303.38557948593262
 20
-103.7761690500288
 30
0.0
 40
0.4002189077153576
 50
0.4150016366471264
 51
73.387598201467284
  0
LINE
  5
D515
  8
0
 10
303.78578789532179
 20
-108.3732703920919
 30
0.0
 11
304.45714574307192
 21
-108.87327041584059
 31
0.0
  0
LINE
  5
D516
  8
0
 10
320.54285425692768
 20
-108.87327041584059
 30
0.0
 11
304.45714574307192
 21
-108.87327041584059
 31
0.0
  0
LINE
  5
D517
  8
0
 10
321.2142121046781
 20
-108.3732703920919
 30
0.0
 11
321.2142121046781
 21
-103.7732702318113
 31
0.0
  0
LINE
  5
D518
  8
0
 10
303.78578789532179
 20
-103.7732702318113
 30
0.0
 11
303.78578789532179
 21
-108.3732703920919
 31
0.0
  0
LINE
  5
D519
  8
0
 10
322.74754066020239
 20
-66.515494101820451
 30
0.0
 11
317.57595157250751
 21
-66.515494101820451
 31
0.0
  0
LINE
  5
D51A
  8
0
 10
307.42404842749232
 20
-66.515494101820451
 30
0.0
 11
302.25245933979738
 21
-66.515494101820451
 31
0.0
  0
LINE
  5
D51B
  8
0
 10
296.15798033773888
 20
-95.77256996291689
 30
0.0
 11
328.8420196622609
 21
-95.77256996291689
 31
0.0
  0
LINE
  5
D51C
  8
1
 10
312.49999999999989
 20
-60.373271667538148
 30
0.0
 11
312.49999999999989
 21
-114.373270445643
 31
0.0
  0
LINE
  5
D51D
  8
3
 10
299.72949956786618
 20
-104.3732703897636
 30
0.0
 11
299.72949956786618
 21
-103.373270445643
 31
0.0
  0
LINE
  5
D51E
  8
3
 10
297.27049956786618
 20
-104.3732703897636
 30
0.0
 11
297.27049956786618
 21
-103.373270445643
 31
0.0
  0
LINE
  5
D51F
  8
3
 10
299.72949956786692
 20
-104.3732703897636
 30
0.0
 11
299.99999956786621
 21
-104.8417901332097
 31
0.0
  0
LINE
  5
D520
  8
3
 10
297.2704995678655
 20
-104.3732703897636
 30
0.0
 11
296.99999956786621
 21
-104.8417901332097
 31
0.0
  0
LINE
  5
D521
  8
0
 10
296.99999956786621
 20
-104.3732703897636
 30
0.0
 11
299.99999956786621
 21
-104.3732703897636
 31
0.0
  0
LINE
  5
D529
  8
0
 10
303.78578789532179
 20
-108.3732703920919
 30
0.0
 11
321.21421210467793
 21
-108.3732703920919
 31
0.0
  0
LINE
  5
D52A
  8
0
 10
146.24999955296491
 20
-100.87327041584059
 30
0.0
 11
146.24999955296491
 21
-97.873270389763647
 31
0.0
  0
LINE
  5
D52B
  8
0
 10
140.7499995827672
 20
-97.873270389763647
 30
0.0
 11
140.7499995827672
 21
-100.87327041584059
 31
0.0
  0
LINE
  5
D52C
  8
0
 10
144.9999998137352
 20
-97.873270389763647
 30
0.0
 11
144.9999998137352
 21
-95.373270445642973
 31
0.0
  0
LINE
  5
D52D
  8
0
 10
142.00000025331951
 20
-95.373270445642973
 30
0.0
 11
142.00000025331951
 21
-97.873270389763647
 31
0.0
  0
LINE
  5
D532
  8
0
 10
167.41923641413419
 20
-58.071815752563928
 30
0.0
 11
165.5828461796043
 21
-57.403424167213892
 31
0.0
  0
LINE
  5
D533
  8
0
 10
149.41715382039521
 20
-57.403424167213892
 30
0.0
 11
147.58076358586521
 21
-58.071815752563928
 31
0.0
  0
ARC
  5
D534
  8
0
 10
167.97310993735931
 20
-72.373270415840665
 30
0.0
 40
0.5
 50
270.0000000000008
 51
2.9999999999990772
  0
ARC
  5
D535
  8
0
 10
147.02689006264021
 20
-72.373270415840665
 30
0.0
 40
0.5
 50
177.00000000000091
 51
270.0000000000008
  0
LINE
  5
D536
  8
0
 10
168.47242441028331
 20
-72.347102099237958
 30
0.0
 11
167.74754066020219
 21
-58.515494101820451
 31
0.0
  0
LINE
  5
D537
  8
0
 10
147.25245933979721
 20
-58.515494101820451
 30
0.0
 11
146.52757558971621
 21
-72.347102099237958
 31
0.0
  0
ARC
  5
D538
  8
0
 10
167.24822603229649
 20
-58.541661540603883
 30
0.0
 40
0.500000000000012
 50
2.9999999999958149
 51
70.00000000000054
  0
ARC
  5
D539
  8
0
 10
147.751773967703
 20
-58.541661540603883
 30
0.0
 40
0.5000000000000071
 50
109.9999999999972
 51
177.00000000000421
  0
ARC
  5
D53A
  8
0
 10
165.4118365096455
 20
-57.873270415840672
 30
0.0
 40
0.500000000000012
 50
70.00000000000054
 51
90.0
  0
ARC
  5
D53B
  8
0
 10
149.58816349035399
 20
-57.873270415840672
 30
0.0
 40
0.500000000000012
 50
90.0
 51
109.9999999999992
  0
LINE
  5
D53C
  8
0
 10
140.49999907612781
 20
-94.873270363686586
 30
0.0
 11
141.00000008940671
 21
-95.373270445642973
 31
0.0
  0
LINE
  5
D53D
  8
0
 10
173.99999991059281
 20
-95.373270445642973
 30
0.0
 11
174.50000092387171
 21
-94.873270363686586
 31
0.0
  0
LINE
  5
D53E
  8
0
 10
174.50000092387171
 20
-94.873270363686586
 30
0.0
 11
174.50000092387171
 21
-88.712262333510424
 31
0.0
  0
LINE
  5
D53F
  8
0
 10
140.49999907612781
 20
-88.712262333510424
 30
0.0
 11
140.49999907612781
 21
-94.873270363686586
 31
0.0
  0
ARC
  5
D540
  8
0
 10
141.4999999999998
 20
-88.712262152480335
 30
0.0
 40
1.00000000000001
 50
110.0000000000001
 51
180.0
  0
ARC
  5
D541
  8
0
 10
173.49999999999969
 20
-88.712262152480335
 30
0.0
 40
1.00000000000001
 50
0.0
 51
69.999999999999886
  0
LINE
  5
D542
  8
0
 10
173.84201966226081
 20
-87.772569962916876
 30
0.0
 11
167.25000020116539
 21
-85.373270669160405
 31
0.0
  0
LINE
  5
D543
  8
0
 10
147.7499997988341
 20
-85.373270669160405
 30
0.0
 11
141.15798033773871
 21
-87.772569962916876
 31
0.0
  0
ARC
  5
D544
  8
0
 10
149.09999999999971
 20
-84.973270415840616
 30
0.0
 40
0.4000000000000199
 50
270.0000000000008
 51
0.0
  0
ARC
  5
D545
  8
0
 10
165.89999999999969
 20
-84.973270415840616
 30
0.0
 40
0.4000000000000057
 50
180.0
 51
270.0000000000008
  0
LINE
  5
D546
  8
0
 10
165.50000037997941
 20
-84.973269486008206
 30
0.0
 11
165.50000037997941
 21
-72.873269551573316
 31
0.0
  0
LINE
  5
D547
  8
0
 10
149.49999962002011
 20
-72.873269551573316
 30
0.0
 11
149.49999962002011
 21
-84.973269486008206
 31
0.0
  0
LINE
  5
D548
  8
0
 10
146.24999955296491
 20
-100.87327041584059
 30
0.0
 11
140.7499995827672
 21
-100.87327041584059
 31
0.0
  0
LINE
  5
D54C
  8
0
 10
158.24612593743919
 20
-61.733247124729608
 30
0.0
 11
156.75387406256019
 21
-61.733247124729608
 31
0.0
  0
ARC
  5
D54D
  8
0
 10
158.60417347370779
 20
-72.386131364461988
 30
0.0
 40
0.4874228276584579
 50
271.95818724531011
 51
4.5927449424257443
  0
ARC
  5
D54E
  8
0
 10
156.39582652629159
 20
-72.386131364461988
 30
0.0
 40
0.4874228276584437
 50
175.40725505757101
 51
268.04181275469148
  0
ARC
  5
D54F
  8
0
 10
158.46938002388899
 20
-66.198814813068651
 30
0.0
 40
4.4711449502620848
 50
87.137905753297332
 51
92.862094246702654
  0
LINE
  5
D550
  8
0
 10
158.6926341103387
 20
-61.733247124729608
 30
0.0
 11
159.09003119915701
 21
-72.347102099237958
 31
0.0
  0
LINE
  5
D551
  8
0
 10
155.90996880084251
 20
-72.347102099237958
 30
0.0
 11
156.30736588966079
 21
-61.733247124729608
 31
0.0
  0
ARC
  5
D552
  8
0
 10
156.5306199761105
 20
-66.198814813068651
 30
0.0
 40
4.4711449502620848
 50
87.137905753297332
 51
92.862094246702654
  0
ARC
  5
D553
  8
0
 10
154.7848950515762
 20
-72.386131364461988
 30
0.0
 40
0.4874228276584437
 50
175.40725505757101
 51
268.04181275469148
  0
ARC
  5
D554
  8
0
 10
160.21510494842329
 20
-72.386131364461988
 30
0.0
 40
0.4874228276584579
 50
271.95818724531011
 51
4.5927449424257443
  0
ARC
  5
D555
  8
0
 10
160.65572245319049
 20
-61.464865705461563
 30
0.0
 40
1.981349143399217
 50
147.5659612698492
 51
187.78486609319589
  0
LINE
  5
D556
  8
0
 10
160.05943089723559
 20
-59.320335620222551
 30
0.0
 11
158.98344505578251
 21
-60.402212076960062
 31
0.0
  0
LINE
  5
D557
  8
0
 10
160.70096267387251
 20
-72.347102099237958
 30
0.0
 11
160.05943089723559
 21
-59.320335620222551
 31
0.0
  0
LINE
  5
D558
  8
0
 10
154.9405691027639
 20
-59.320335620222551
 30
0.0
 11
154.29903732612701
 21
-72.347102099237958
 31
0.0
  0
LINE
  5
D559
  8
0
 10
156.01655494421701
 20
-60.402212076960062
 30
0.0
 11
154.9405691027639
 21
-59.320335620222551
 31
0.0
  0
ARC
  5
D55A
  8
0
 10
154.16674754785001
 20
-61.50365331434412
 30
0.0
 40
2.1528957715281898
 50
353.8780967498202
 51
30.771075887135421
  0
POLYLINE
  5
D55B
  8
0
 66
     1
 10
0.0
 20
0.0
 30
0.0
 70
   128
  0
VERTEX
  5
101A7
  8
0
 10
162.93501088395689
 20
-72.347102099237958
 30
0.0
  0
VERTEX
  5
101A8
  8
0
 10
162.93254939839221
 20
-72.448253044066945
 30
0.0
  0
VERTEX
  5
101A9
  8
0
 10
162.92004220187641
 20
-72.546328761754552
 30
0.0
  0
VERTEX
  5
101AA
  8
0
 10
162.8980029188094
 20
-72.63730407613329
 30
0.0
  0
VERTEX
  5
101AB
  8
0
 10
162.86733446642731
 20
-72.717448108969251
 30
0.0
  0
VERTEX
  5
101AC
  8
0
 10
162.82929645851229
 20
-72.783471428928891
 30
0.0
  0
VERTEX
  5
101AD
  8
0
 10
162.7854483947155
 20
-72.83266574996523
 30
0.0
  0
VERTEX
  5
101AE
  8
0
 10
162.73758959025119
 20
-72.86301382738165
 30
0.0
  0
VERTEX
  5
101AF
  8
0
 10
162.68768327310659
 20
-72.873269551573316
 30
0.0
  0
SEQEND
  5
101B0
  8
0
  0
POLYLINE
  5
D55C
  8
0
 66
     1
 10
0.0
 20
0.0
 30
0.0
 70
   128
  0
VERTEX
  5
101B1
  8
0
 10
152.3123167268929
 20
-72.873269551573316
 30
0.0
  0
VERTEX
  5
101B2
  8
0
 10
152.2624104097483
 20
-72.86301382738165
 30
0.0
  0
VERTEX
  5
101B3
  8
0
 10
152.21455160528399
 20
-72.83266574996523
 30
0.0
  0
VERTEX
  5
101B4
  8
0
 10
152.1707035414872
 20
-72.783471428928891
 30
0.0
  0
VERTEX
  5
101B5
  8
0
 10
152.13266553357221
 20
-72.717448108969251
 30
0.0
  0
VERTEX
  5
101B6
  8
0
 10
152.10199708119009
 20
-72.63730407613329
 30
0.0
  0
VERTEX
  5
101B7
  8
0
 10
152.0799577981231
 20
-72.546328761754552
 30
0.0
  0
VERTEX
  5
101B8
  8
0
 10
152.06745060160731
 20
-72.448253044066945
 30
0.0
  0
VERTEX
  5
101B9
  8
0
 10
152.0649891160426
 20
-72.347102099237958
 30
0.0
  0
SEQEND
  5
101BA
  8
0
  0
ARC
  5
D55D
  8
0
 10
162.31776963794931
 20
-62.044888210053983
 30
0.0
 40
3.5388247600814449
 50
85.816156305269516
 51
129.65480080538089
  0
LINE
  5
D55E
  8
0
 10
162.57595157250739
 20
-58.515494101820451
 30
0.0
 11
162.93501088395689
 21
-72.347102099237958
 31
0.0
  0
LINE
  5
D55F
  8
0
 10
152.0649891160426
 20
-72.347102099237958
 30
0.0
 11
152.4240484274921
 21
-58.515494101820451
 31
0.0
  0
ARC
  5
D560
  8
0
 10
152.69161176892749
 20
-62.015555100578041
 30
0.0
 40
3.5102730857732221
 50
50.157550011639891
 51
94.371492877711304
  0
LINE
  5
D561
  8
0
 10
167.97310978174181
 20
-72.873269551573316
 30
0.0
 11
147.02689006264021
 21
-72.873270415840665
 31
0.0
  0
LINE
  5
D562
  8
0
 10
149.58816327154611
 20
-57.373271667538141
 30
0.0
 11
165.41183672845341
 21
-57.373271667538141
 31
0.0
  0
LINE
  5
D563
  8
0
 10
173.99999991059269
 20
-95.373270445642973
 30
0.0
 11
141.00000008940671
 21
-95.373270445642973
 31
0.0
  0
LINE
  5
D564
  8
0
 10
167.25000020116539
 20
-85.373270669160405
 30
0.0
 11
147.7499997988341
 21
-85.373270669160405
 31
0.0
  0
ARC
  5
D571
  8
0
 10
166.6170141409558
 20
-95.778116492198095
 30
0.0
 40
0.4028311887991901
 50
106.8867136330056
 51
179.31068652888089
  0
ARC
  5
D572
  8
0
 10
148.3855794859324
 20
-95.776169050028869
 30
0.0
 40
0.4002189077153576
 50
0.4150016366471264
 51
73.387598201466915
  0
LINE
  5
D573
  8
0
 10
148.78578789532159
 20
-100.3732703920919
 30
0.0
 11
149.45714574307181
 21
-100.87327041584059
 31
0.0
  0
LINE
  5
D574
  8
0
 10
165.54285425692771
 20
-100.87327041584059
 30
0.0
 11
149.45714574307181
 21
-100.87327041584059
 31
0.0
  0
LINE
  5
D576
  8
0
 10
148.78578789532159
 20
-95.773270231811324
 30
0.0
 11
148.78578789532159
 21
-100.3732703920919
 31
0.0
  0
LINE
  5
D577
  8
0
 10
167.74754066020219
 20
-58.515494101820451
 30
0.0
 11
162.57595157250739
 21
-58.515494101820451
 31
0.0
  0
LINE
  5
D578
  8
0
 10
152.4240484274921
 20
-58.515494101820451
 30
0.0
 11
147.25245933979721
 21
-58.515494101820451
 31
0.0
  0
LINE
  5
D579
  8
0
 10
141.15798033773871
 20
-87.772569962916876
 30
0.0
 11
173.84201966226081
 21
-87.772569962916876
 31
0.0
  0
LINE
  5
D57A
  8
1
 10
157.49999999999969
 20
-52.373271667538141
 30
0.0
 11
157.49999999999969
 21
-106.373270445643
 31
0.0
  0
LINE
  5
D57B
  8
3
 10
144.7294995678661
 20
-96.37327038976359
 30
0.0
 11
144.7294995678661
 21
-95.373270445642973
 31
0.0
  0
LINE
  5
D57C
  8
3
 10
142.2704995678661
 20
-96.37327038976359
 30
0.0
 11
142.2704995678661
 21
-95.373270445642973
 31
0.0
  0
LINE
  5
D57D
  8
3
 10
144.72949956786681
 20
-96.373270389763647
 30
0.0
 11
144.9999995678661
 21
-96.841790133209741
 31
0.0
  0
LINE
  5
D57E
  8
3
 10
142.2704995678653
 20
-96.373270389763647
 30
0.0
 11
141.9999995678661
 21
-96.841790133209741
 31
0.0
  0
LINE
  5
D57F
  8
0
 10
141.9999995678661
 20
-96.373270389763647
 30
0.0
 11
144.99999956786601
 21
-96.373270389763647
 31
0.0
  0
LINE
  5
D580
  8
1
 10
143.4999995678661
 20
-93.373270445642987
 30
0.0
 11
143.4999995678661
 21
-103.373270445643
 31
0.0
  0
LINE
  5
D587
  8
0
 10
148.78578789532159
 20
-100.3732703920919
 30
0.0
 11
166.2142121046779
 21
-100.3732703920919
 31
0.0
  0
LINE
  5
D589
  8
1
 10
227.5
 20
-106.373270445643
 30
0.0
 11
227.50000000000011
 21
-90.373270445642973
 31
0.0
  0
LINE
  5
D58C
  8
1
 10
246.5
 20
-52.094764855300582
 30
0.0
 11
208.5
 21
-52.094764855300582
 31
0.0
  0
LINE
  5
D58D
  8
0
 10
250.0
 20
-95.373270445642973
 30
0.0
 11
205.0
 21
-95.373270445642973
 31
0.0
  0
LINE
  5
D58E
  8
0
 10
250.0
 20
-101.3732704456431
 30
0.0
 11
205.0
 21
-101.373270445643
 31
0.0
  0
CIRCLE
  5
D591
  8
0
 10
227.5
 20
-52.094764855300582
 30
0.0
 40
9.0
  0
LINE
  5
D592
  8
0
 10
218.5
 20
-96.373270445642987
 30
0.0
 11
218.5
 21
-100.873270445643
 31
0.0
  0
LINE
  5
D593
  8
0
 10
236.5
 20
-96.373270445642987
 30
0.0
 11
236.5
 21
-100.873270445643
 31
0.0
  0
LINE
  5
D596
  8
0
 10
217.5
 20
-95.373270445642973
 30
0.0
 11
218.5
 21
-96.373270445642987
 31
0.0
  0
LINE
  5
D597
  8
0
 10
237.5
 20
-95.373270445642973
 30
0.0
 11
236.5
 21
-96.373270445642987
 31
0.0
  0
LINE
  5
D598
  8
0
 10
218.5
 20
-96.373270445642987
 30
0.0
 11
236.5
 21
-96.373270445642987
 31
0.0
  0
LINE
  5
D599
  8
0
 10
218.0
 20
-101.373270445643
 30
0.0
 11
218.5
 21
-100.873270445643
 31
0.0
  0
LINE
  5
D59B
  8
0
 10
237.0
 20
-101.373270445643
 30
0.0
 11
236.5
 21
-100.873270445643
 31
0.0
  0
LINE
  5
D59C
  8
0
 10
218.5
 20
-100.873270445643
 30
0.0
 11
236.5
 21
-100.873270445643
 31
0.0
  0
CIRCLE
  5
D59F
  8
1
 10
227.5
 20
-52.094764855300582
 30
0.0
 40
14.0
  0
LINE
  5
D5A2
  8
1
 10
227.5
 20
-71.094764855300582
 30
0.0
 11
227.5
 21
-33.094764855300582
 31
0.0
  0
LINE
  5
D5A3
  8
1
 10
213.5
 20
-103.373270445643
 30
0.0
 11
213.5
 21
-93.373270445642987
 31
0.0
  0
CIRCLE
  5
D5A4
  8
0
 10
213.5
 20
-52.094764855300582
 30
0.0
 40
1.7
  0
CIRCLE
  5
D5A5
  8
2
 10
213.5
 20
-52.094764855300582
 30
0.0
 40
3.25
  0
LINE
  5
D5AA
  8
0
 10
210.25
 20
-97.873270445643001
 30
0.0
 11
210.25
 21
-100.873270445643
 31
0.0
  0
LINE
  5
D5AB
  8
0
 10
211.80000000000001
 20
-97.873270445643001
 30
0.0
 11
211.80000000000001
 21
-95.873270445642987
 31
0.0
  0
LINE
  5
D5AC
  8
0
 10
215.19999999999999
 20
-97.873270445643001
 30
0.0
 11
215.19999999999999
 21
-95.873270445642945
 31
0.0
  0
LINE
  5
D5AD
  8
0
 10
216.75
 20
-97.873270445643001
 30
0.0
 11
216.75
 21
-100.873270445643
 31
0.0
  0
LINE
  5
D5AE
  8
0
 10
216.75
 20
-97.873270445643001
 30
0.0
 11
210.25
 21
-97.873270445643016
 31
0.0
  0
LINE
  5
D5B1
  8
0
 10
211.80000000000001
 20
-95.873270445642987
 30
0.0
 11
211.30000000000001
 21
-95.373270445642973
 31
0.0
  0
LINE
  5
D5B3
  8
0
 10
210.25
 20
-100.873270445643
 30
0.0
 11
209.75
 21
-101.373270445643
 31
0.0
  0
LINE
  5
D5B5
  8
0
 10
215.19999999999999
 20
-95.873270445642987
 30
0.0
 11
215.69999999999999
 21
-95.373270445642973
 31
0.0
  0
LINE
  5
D5B6
  8
0
 10
216.75
 20
-100.873270445643
 30
0.0
 11
217.25
 21
-101.373270445643
 31
0.0
  0
LINE
  5
D5B7
  8
0
 10
211.80000000000001
 20
-95.873270445642987
 30
0.0
 11
215.19999999999999
 21
-95.873270445642987
 31
0.0
  0
LINE
  5
D5B8
  8
0
 10
210.25
 20
-100.873270445643
 30
0.0
 11
216.75
 21
-100.873270445643
 31
0.0
  0
LINE
  5
D5BA
  8
1
 10
231.875
 20
-59.67248713841439
 30
0.0
 11
237.125
 21
-68.765753878151003
 31
0.0
  0
CIRCLE
  5
D5BB
  8
0
 10
234.5
 20
-64.219120508282685
 30
0.0
 40
1.6999999999999991
  0
CIRCLE
  5
D5BC
  8
2
 10
234.5
 20
-64.219120508282685
 30
0.0
 40
3.2499999999999991
  0
LINE
  5
D601
  8
1
 10
231.875
 20
-44.51704257218676
 30
0.0
 11
237.125
 21
-35.423775832450161
 31
0.0
  0
CIRCLE
  5
D602
  8
0
 10
234.5
 20
-39.970409202318478
 30
0.0
 40
1.6999999999999991
  0
CIRCLE
  5
D603
  8
2
 10
234.5
 20
-39.970409202318478
 30
0.0
 40
3.2499999999999991
  0
LINE
  5
D68A
  8
0
 10
166.2142121046779
 20
-100.3732703920919
 30
0.0
 11
165.54285425692771
 21
-100.87327041584059
 31
0.0
  0
LINE
  5
D68B
  8
0
 10
166.2142121046779
 20
-95.773270231811324
 30
0.0
 11
166.2142121046779
 21
-100.3732703920919
 31
0.0
  0
LINE
  5
D6D0
  8
0
 10
179.99999999999969
 20
-95.373270445642973
 30
0.0
 11
173.99999991059269
 21
-95.373270445642973
 31
0.0
  0
LINE
  5
D6D1
  8
0
 10
141.7999999999997
 20
-95.873270445642987
 30
0.0
 11
141.2999999999997
 21
-95.373270445642973
 31
0.0
  0
LINE
  5
D6D2
  8
0
 10
146.74999999999969
 20
-97.873270445643001
 30
0.0
 11
140.24999999999969
 21
-97.873270445643016
 31
0.0
  0
LINE
  5
D6D3
  8
0
 10
179.99999999999969
 20
-101.3732704456431
 30
0.0
 11
134.99999999999969
 21
-101.373270445643
 31
0.0
  0
LINE
  5
D6D4
  8
0
 10
140.24999999999969
 20
-100.873270445643
 30
0.0
 11
139.74999999999969
 21
-101.373270445643
 31
0.0
  0
LINE
  5
D6D5
  8
0
 10
148.49999999999969
 20
-96.373270445642987
 30
0.0
 11
148.49999999999969
 21
-100.873270445643
 31
0.0
  0
LINE
  5
D6D6
  8
0
 10
166.49999999999969
 20
-96.373270445642987
 30
0.0
 11
166.49999999999969
 21
-100.873270445643
 31
0.0
  0
LINE
  5
D6D7
  8
0
 10
147.49999999999969
 20
-95.373270445642973
 30
0.0
 11
148.49999999999969
 21
-96.373270445642987
 31
0.0
  0
LINE
  5
D6D8
  8
0
 10
167.49999999999969
 20
-95.373270445642973
 30
0.0
 11
166.49999999999969
 21
-96.373270445642987
 31
0.0
  0
LINE
  5
D6D9
  8
0
 10
148.49999999999969
 20
-96.373270445642987
 30
0.0
 11
148.78578789532159
 21
-96.373270445642987
 31
0.0
  0
LINE
  5
D6DA
  8
0
 10
147.99999999999969
 20
-101.373270445643
 30
0.0
 11
148.49999999999969
 21
-100.873270445643
 31
0.0
  0
LINE
  5
D6DB
  8
0
 10
166.99999999999969
 20
-101.373270445643
 30
0.0
 11
166.49999999999969
 21
-100.873270445643
 31
0.0
  0
LINE
  5
D6DC
  8
0
 10
148.49999999999969
 20
-100.873270445643
 30
0.0
 11
149.45714574307181
 21
-100.873270445643
 31
0.0
  0
LINE
  5
D6DE
  8
0
 10
140.24999999999969
 20
-97.873270445643001
 30
0.0
 11
140.24999999999969
 21
-100.873270445643
 31
0.0
  0
LINE
  5
D6DF
  8
0
 10
141.7999999999997
 20
-97.873270445643001
 30
0.0
 11
141.7999999999997
 21
-95.873270445642987
 31
0.0
  0
LINE
  5
D6E0
  8
0
 10
145.1999999999997
 20
-97.873270445643001
 30
0.0
 11
145.1999999999997
 21
-95.873270445642945
 31
0.0
  0
LINE
  5
D6E1
  8
0
 10
146.74999999999969
 20
-97.873270445643001
 30
0.0
 11
146.74999999999969
 21
-100.873270445643
 31
0.0
  0
LINE
  5
D6E2
  8
0
 10
145.1999999999997
 20
-95.873270445642987
 30
0.0
 11
145.6999999999997
 21
-95.373270445642973
 31
0.0
  0
LINE
  5
D6E3
  8
0
 10
146.74999999999969
 20
-100.873270445643
 30
0.0
 11
147.24999999999969
 21
-101.373270445643
 31
0.0
  0
LINE
  5
D6E4
  8
0
 10
141.7999999999997
 20
-95.873270445642987
 30
0.0
 11
142.00000025331951
 21
-95.873270445643016
 31
0.0
  0
LINE
  5
D6E5
  8
0
 10
140.24999999999969
 20
-100.873270445643
 30
0.0
 11
140.7499995827672
 21
-100.873270445643
 31
0.0
  0
LINE
  5
D6E6
  8
0
 10
141.00000008940671
 20
-95.373270445642973
 30
0.0
 11
134.99999999999969
 21
-95.373270445642973
 31
0.0
  0
LINE
  5
D6EA
  8
0
 10
165.54285421691171
 20
-100.873270445643
 30
0.0
 11
166.49999999999969
 21
-100.873270445643
 31
0.0
  0
LINE
  5
D6EB
  8
0
 10
166.2142121046779
 20
-96.373270445642987
 30
0.0
 11
166.49999999999969
 21
-96.373270445642987
 31
0.0
  0
LINE
  5
D731
  8
0
 10
146.24999955296491
 20
-100.873270445643
 30
0.0
 11
146.74999999999969
 21
-100.873270445643
 31
0.0
  0
LINE
  5
D732
  8
0
 10
144.9999998137352
 20
-95.873270445643016
 30
0.0
 11
145.1999999999997
 21
-95.873270445642987
 31
0.0
  0
LINE
  5
D776
  8
1
 10
382.49999999999989
 20
-114.373270445643
 30
0.0
 11
382.49999999999989
 21
-90.373270445643044
 31
0.0
  0
LINE
  5
D777
  8
1
 10
382.5
 20
-74.594764855300554
 30
0.0
 11
382.5
 21
-29.594764855300561
 31
0.0
  0
LINE
  5
D778
  8
1
 10
405.0
 20
-52.094764855300546
 30
0.0
 11
360.0
 21
-52.094764855300546
 31
0.0
  0
LINE
  5
D779
  8
0
 10
399.99999999999989
 20
-103.373270445643
 30
0.0
 11
364.99999999999989
 21
-103.3732704456429
 31
0.0
  0
LINE
  5
D77A
  8
0
 10
366.80000000000001
 20
-103.8732704456429
 30
0.0
 11
366.30000000000001
 21
-103.3732704456429
 31
0.0
  0
LINE
  5
D77B
  8
0
 10
371.75
 20
-105.8732704456429
 30
0.0
 11
365.25
 21
-105.873270445643
 31
0.0
  0
LINE
  5
D77C
  8
0
 10
404.99999999999989
 20
-109.3732704456431
 30
0.0
 11
360.0
 21
-109.373270445643
 31
0.0
  0
LINE
  5
D77D
  8
0
 10
365.25
 20
-108.873270445643
 30
0.0
 11
364.75
 21
-109.373270445643
 31
0.0
  0
CIRCLE
  5
D77E
  8
0
 10
382.5
 20
-52.094764855300546
 30
0.0
 40
9.0
  0
LINE
  5
D77F
  8
0
 10
373.5
 20
-104.3732704456429
 30
0.0
 11
373.5
 21
-108.8732704456429
 31
0.0
  0
LINE
  5
D780
  8
0
 10
391.5
 20
-104.3732704456429
 30
0.0
 11
391.5
 21
-108.8732704456429
 31
0.0
  0
LINE
  5
D781
  8
0
 10
372.5
 20
-103.3732704456429
 30
0.0
 11
373.5
 21
-104.3732704456429
 31
0.0
  0
LINE
  5
D782
  8
0
 10
392.5
 20
-103.3732704456429
 30
0.0
 11
391.5
 21
-104.3732704456429
 31
0.0
  0
LINE
  5
D783
  8
0
 10
373.5
 20
-104.3732704456429
 30
0.0
 11
391.5
 21
-104.3732704456429
 31
0.0
  0
LINE
  5
D784
  8
0
 10
373.0
 20
-109.3732704456429
 30
0.0
 11
373.5
 21
-108.8732704456429
 31
0.0
  0
LINE
  5
D785
  8
0
 10
392.0
 20
-109.3732704456429
 30
0.0
 11
391.5
 21
-108.8732704456429
 31
0.0
  0
LINE
  5
D786
  8
0
 10
373.5
 20
-108.8732704456429
 30
0.0
 11
391.5
 21
-108.8732704456429
 31
0.0
  0
CIRCLE
  5
D787
  8
1
 10
382.5
 20
-52.094764855300546
 30
0.0
 40
14.0
  0
LINE
  5
D788
  8
1
 10
368.5
 20
-111.3732704456429
 30
0.0
 11
368.5
 21
-101.3732704456429
 31
0.0
  0
CIRCLE
  5
D789
  8
0
 10
368.5
 20
-52.094764855300546
 30
0.0
 40
1.7
  0
CIRCLE
  5
D78A
  8
2
 10
368.5
 20
-52.094764855300546
 30
0.0
 40
3.25
  0
LINE
  5
D78B
  8
0
 10
365.25
 20
-105.8732704456429
 30
0.0
 11
365.25
 21
-108.873270445643
 31
0.0
  0
LINE
  5
D78C
  8
0
 10
366.80000000000001
 20
-105.8732704456429
 30
0.0
 11
366.80000000000001
 21
-103.8732704456429
 31
0.0
  0
LINE
  5
D78D
  8
0
 10
370.19999999999999
 20
-105.8732704456429
 30
0.0
 11
370.19999999999999
 21
-103.8732704456429
 31
0.0
  0
LINE
  5
D78E
  8
0
 10
371.75
 20
-105.8732704456429
 30
0.0
 11
371.75
 21
-108.8732704456429
 31
0.0
  0
LINE
  5
D78F
  8
0
 10
370.19999999999999
 20
-103.8732704456429
 30
0.0
 11
370.69999999999999
 21
-103.3732704456429
 31
0.0
  0
LINE
  5
D790
  8
0
 10
371.75
 20
-108.873270445643
 30
0.0
 11
372.25
 21
-109.373270445643
 31
0.0
  0
LINE
  5
D791
  8
0
 10
366.80000000000001
 20
-103.8732704456429
 30
0.0
 11
370.19999999999999
 21
-103.8732704456429
 31
0.0
  0
LINE
  5
D792
  8
0
 10
365.25
 20
-108.873270445643
 30
0.0
 11
371.75
 21
-108.8732704456429
 31
0.0
  0
LINE
  5
D793
  8
1
 10
386.875
 20
-59.672487138414368
 30
0.0
 11
392.125
 21
-68.765753878150974
 31
0.0
  0
CIRCLE
  5
D794
  8
0
 10
389.5
 20
-64.219120508282657
 30
0.0
 40
1.6999999999999991
  0
CIRCLE
  5
D795
  8
2
 10
389.5
 20
-64.219120508282657
 30
0.0
 40
3.2499999999999991
  0
LINE
  5
D796
  8
1
 10
386.875
 20
-44.517042572186739
 30
0.0
 11
392.125
 21
-35.423775832450133
 31
0.0
  0
CIRCLE
  5
D797
  8
0
 10
389.5
 20
-39.97040920231845
 30
0.0
 40
1.6999999999999991
  0
CIRCLE
  5
D798
  8
2
 10
389.5
 20
-39.97040920231845
 30
0.0
 40
3.2499999999999991
  0
LINE
  5
D799
  8
0
 10
404.99999999999989
 20
-95.373270445643115
 30
0.0
 11
360.0
 21
-95.373270445642973
 31
0.0
  0
LINE
  5
D79B
  8
0
 10
399.99999999999989
 20
-103.373270445643
 30
0.0
 11
399.99999999999989
 21
-95.873270445643129
 31
0.0
  0
LINE
  5
D79C
  8
0
 10
364.99999999999989
 20
-103.373270445643
 30
0.0
 11
364.99999999999989
 21
-95.873270445642987
 31
0.0
  0
LINE
  5
D79D
  8
0
 10
364.5
 20
-95.373270445642973
 30
0.0
 11
364.99999999999989
 21
-95.873270445642987
 31
0.0
  0
LINE
  5
D79F
  8
0
 10
400.5
 20
-95.373270445642973
 30
0.0
 11
400.0
 21
-95.873270445642987
 31
0.0
  0
LINE
  5
D7A0
  8
0
 10
364.99999999999989
 20
-95.873270445642987
 30
0.0
 11
399.99999999999989
 21
-95.873270445643158
 31
0.0
  0
CIRCLE
  5
D7A1
  8
0
 10
382.5
 20
-52.094764855300546
 30
0.0
 40
17.5
  0
LINE
  5
D7EC
  8
0
 10
294.99999999999977
 20
-103.373270445643
 30
0.0
 11
294.99999999999977
 21
-95.873270445642987
 31
0.0
  0
LINE
  5
D7ED
  8
0
 10
294.49999999999977
 20
-95.373270445642973
 30
0.0
 11
294.99999999999977
 21
-95.873270445642987
 31
0.0
  0
LINE
  5
D7EE
  8
0
 10
329.99999999999977
 20
-103.373270445643
 30
0.0
 11
329.99999999999977
 21
-95.873270445643129
 31
0.0
  0
LINE
  5
D7EF
  8
0
 10
329.99999999999977
 20
-103.373270445643
 30
0.0
 11
328.99999991059292
 21
-103.373270445643
 31
0.0
  0
LINE
  5
D7F0
  8
0
 10
296.7999999999999
 20
-103.8732704456429
 30
0.0
 11
296.2999999999999
 21
-103.3732704456429
 31
0.0
  0
LINE
  5
D7F1
  8
0
 10
295.74999958276737
 20
-105.873270445643
 30
0.0
 11
295.24999999999989
 21
-105.873270445643
 31
0.0
  0
LINE
  5
D7F2
  8
0
 10
334.99999999999989
 20
-109.3732704456431
 30
0.0
 11
289.99999999999989
 21
-109.373270445643
 31
0.0
  0
LINE
  5
D7F3
  8
0
 10
334.99999999999989
 20
-95.373270445643115
 30
0.0
 11
327.74495344983609
 21
-95.373270445643101
 31
0.0
  0
LINE
  5
D7F4
  8
0
 10
295.24999999999989
 20
-108.873270445643
 30
0.0
 11
294.74999999999989
 21
-109.373270445643
 31
0.0
  0
LINE
  5
D7F5
  8
0
 10
303.49999999999989
 20
-104.3732704456429
 30
0.0
 11
303.49999999999989
 21
-108.8732704456429
 31
0.0
  0
LINE
  5
D7F6
  8
0
 10
321.49999999999989
 20
-104.3732704456429
 30
0.0
 11
321.49999999999989
 21
-108.8732704456429
 31
0.0
  0
LINE
  5
D7F7
  8
0
 10
302.49999999999989
 20
-103.3732704456429
 30
0.0
 11
303.49999999999989
 21
-104.3732704456429
 31
0.0
  0
LINE
  5
D7F8
  8
0
 10
322.49999999999989
 20
-103.3732704456429
 30
0.0
 11
321.49999999999989
 21
-104.3732704456429
 31
0.0
  0
LINE
  5
D7F9
  8
0
 10
303.49999999999989
 20
-104.3732704456429
 30
0.0
 11
303.78578789532179
 21
-104.373270445643
 31
0.0
  0
LINE
  5
D7FA
  8
0
 10
302.99999999999989
 20
-109.3732704456429
 30
0.0
 11
303.49999999999989
 21
-108.8732704456429
 31
0.0
  0
LINE
  5
D7FB
  8
0
 10
321.99999999999989
 20
-109.3732704456429
 30
0.0
 11
321.49999999999989
 21
-108.8732704456429
 31
0.0
  0
LINE
  5
D7FC
  8
0
 10
303.49999999999989
 20
-108.8732704456429
 30
0.0
 11
304.45714578308792
 21
-108.8732704456429
 31
0.0
  0
LINE
  5
D7FD
  8
1
 10
298.49999999999989
 20
-111.373270445643
 30
0.0
 11
298.49999999999989
 21
-101.3732704456429
 31
0.0
  0
LINE
  5
D7FE
  8
0
 10
295.24999999999989
 20
-105.8732704456429
 30
0.0
 11
295.24999999999989
 21
-108.873270445643
 31
0.0
  0
LINE
  5
D7FF
  8
0
 10
296.7999999999999
 20
-105.8732704456429
 30
0.0
 11
296.7999999999999
 21
-103.8732704456429
 31
0.0
  0
LINE
  5
D800
  8
0
 10
300.19999999999987
 20
-105.8732704456429
 30
0.0
 11
300.19999999999987
 21
-103.8732704456429
 31
0.0
  0
LINE
  5
D801
  8
0
 10
301.74999999999989
 20
-105.8732704456429
 30
0.0
 11
301.74999999999989
 21
-108.8732704456429
 31
0.0
  0
LINE
  5
D802
  8
0
 10
300.19999999999987
 20
-103.8732704456429
 30
0.0
 11
300.69999999999987
 21
-103.3732704456429
 31
0.0
  0
LINE
  5
D803
  8
0
 10
301.74999999999989
 20
-108.873270445643
 30
0.0
 11
302.24999999999989
 21
-109.373270445643
 31
0.0
  0
LINE
  5
D804
  8
0
 10
296.7999999999999
 20
-103.8732704456429
 30
0.0
 11
297.00000025331951
 21
-103.8732704456429
 31
0.0
  0
LINE
  5
D805
  8
0
 10
295.24999999999989
 20
-108.873270445643
 30
0.0
 11
295.74999958276737
 21
-108.87327041584059
 31
0.0
  0
LINE
  5
D806
  8
0
 10
330.5
 20
-95.373270445642973
 30
0.0
 11
329.99999999999989
 21
-95.873270445642987
 31
0.0
  0
LINE
  5
D807
  8
0
 10
294.99999999999977
 20
-95.873270445642987
 30
0.0
 11
295.95585579497867
 21
-95.873270445642987
 31
0.0
  0
LINE
  5
D808
  8
0
 10
297.25504655016402
 20
-95.373270445642959
 30
0.0
 11
289.99999999999989
 21
-95.373270445642959
 31
0.0
  0
LINE
  5
D809
  8
0
 10
329.04414420502133
 20
-95.873270445643129
 30
0.0
 11
329.99999999999977
 21
-95.873270445643158
 31
0.0
  0
LINE
  5
D80A
  8
0
 10
295.0
 20
-103.373270445643
 30
0.0
 11
296.00000008940691
 21
-103.373270445643
 31
0.0
  0
LINE
  5
D80B
  8
0
 10
299.99999981373543
 20
-103.8732704456429
 30
0.0
 11
300.19999999999987
 21
-103.8732704456429
 31
0.0
  0
LINE
  5
D80C
  8
0
 10
321.2142121046781
 20
-108.3732703920919
 30
0.0
 11
320.54285425692791
 21
-108.87327041584059
 31
0.0
  0
LINE
  5
D80D
  8
0
 10
321.49999999999989
 20
-108.8732704456429
 30
0.0
 11
320.54285421691179
 21
-108.8732704456429
 31
0.0
  0
LINE
  5
D80E
  8
0
 10
321.2142121046781
 20
-104.373270445643
 30
0.0
 11
321.49999999999989
 21
-104.3732704456429
 31
0.0
  0
LINE
  5
D80F
  8
0
 10
301.75000109868591
 20
-108.8732618444639
 30
0.0
 11
301.25000151592008
 21
-108.8732631379185
 31
0.0
  0
LINE
  5
D811
  8
0
 10
301.25000041723229
 20
-105.8732704456425
 30
0.0
 11
301.74999999999977
 21
-105.8732704456424
 31
0.0
  0
LINE
  5
EF54
  8
0
 10
122.957148514688
 20
64.250000014901161
 30
0.0
 11
122.2857906669378
 21
64.750000096857534
 31
0.0
  0
ARC
  5
EF55
  8
0
 10
131.00000277161601
 20
67.0
 30
0.0
 40
8.5000000000000107
 50
198.8765036305586
 51
341.12349636944128
  0
LINE
  5
EF56
  8
0
 10
139.71421487629411
 20
64.750000096857534
 30
0.0
 11
139.04285702854389
 21
64.250000014901161
 31
0.0
  0
LINE
  5
EF57
  8
0
 10
122.2857906669378
 20
69.249999903142452
 30
0.0
 11
122.957148514688
 21
69.749999985098839
 31
0.0
  0
LINE
  5
EF58
  8
0
 10
139.04285702854389
 20
69.749999985098839
 30
0.0
 11
139.71421487629411
 21
69.249999903142452
 31
0.0
  0
ARC
  5
EF59
  8
0
 10
131.00000277161601
 20
67.0
 30
0.0
 40
8.5000000000000107
 50
18.876503630558609
 51
161.1234963694414
  0
LINE
  5
EF5A
  8
0
 10
347.57848672848041
 20
64.250000014901161
 30
0.0
 11
346.90712888073023
 21
64.750000096857534
 31
0.0
  0
ARC
  5
EF5B
  8
0
 10
355.62134098540838
 20
67.0
 30
0.0
 40
8.5000000000000107
 50
198.8765036305584
 51
341.12349636944163
  0
LINE
  5
EF5C
  8
0
 10
364.33555309008659
 20
64.750000096857534
 30
0.0
 11
363.6641952423364
 21
64.250000014901161
 31
0.0
  0
LINE
  5
EF5D
  8
0
 10
346.90712888073023
 20
69.249999903142452
 30
0.0
 11
347.57848672848041
 21
69.749999985098839
 31
0.0
  0
LINE
  5
EF5E
  8
0
 10
363.6641952423364
 20
69.749999985098839
 30
0.0
 11
364.33555309008659
 21
69.249999903142452
 31
0.0
  0
ARC
  5
EF5F
  8
0
 10
355.62134098540838
 20
67.0
 30
0.0
 40
8.5000000000000107
 50
18.8765036305584
 51
161.1234963694416
  0
LINE
  5
FA32
  8
1
 10
227.50000000000011
 20
-186.9666006153557
 30
0.0
 11
227.50000000000011
 21
-224.9666006153557
 31
0.0
  0
LINE
  5
FA33
  8
1
 10
208.49999999999989
 20
-205.9666006153557
 30
0.0
 11
246.50000000000011
 21
-205.9666006153557
 31
0.0
  0
LINE
  5
FA34
  8
0
 10
204.99999999999989
 20
-249.24510620569811
 30
0.0
 11
250.0
 21
-249.24510620569811
 31
0.0
  0
LINE
  5
FA35
  8
0
 10
218.5
 20
-250.24510620569811
 30
0.0
 11
217.50000000000011
 21
-249.24510620569811
 31
0.0
  0
LINE
  5
FA36
  8
0
 10
204.99999999999989
 20
-252.24510620569811
 30
0.0
 11
250.0
 21
-252.24510620569811
 31
0.0
  0
LINE
  5
FA37
  8
0
 10
218.5
 20
-251.74510620569811
 30
0.0
 11
218.00000000000011
 21
-252.24510620569811
 31
0.0
  0
LINE
  5
FA38
  8
1
 10
227.50000000000011
 20
-244.24510620569811
 30
0.0
 11
227.50000000000011
 21
-257.24510620569811
 31
0.0
  0
CIRCLE
  5
FA39
  8
0
 10
227.50000000000011
 20
-205.9666006153557
 30
0.0
 40
9.0
  0
CIRCLE
  5
FA3A
  8
1
 10
227.50000000000011
 20
-205.9666006153557
 30
0.0
 40
14.0
  0
CIRCLE
  5
FA3B
  8
0
 10
213.50000000000011
 20
-205.9666006153557
 30
0.0
 40
1.7
  0
CIRCLE
  5
FA3C
  8
2
 10
213.50000000000011
 20
-205.9666006153557
 30
0.0
 40
3.5
  0
LINE
  5
FA3D
  8
1
 10
237.25
 20
-189.07910524155909
 30
0.0
 11
231.74999999999989
 21
-198.60538468318799
 31
0.0
  0
CIRCLE
  5
FA3E
  8
0
 10
234.49999999999989
 20
-193.84224496237351
 30
0.0
 40
1.7
  0
CIRCLE
  5
FA3F
  8
2
 10
234.49999999999989
 20
-193.84224496237351
 30
0.0
 40
3.5
  0
LINE
  5
FA40
  8
1
 10
237.25
 20
-222.8540959891522
 30
0.0
 11
231.74999999999989
 21
-213.3278165475235
 31
0.0
  0
CIRCLE
  5
FA41
  8
0
 10
234.50000000000011
 20
-218.09095626833781
 30
0.0
 40
1.6999999999999991
  0
CIRCLE
  5
FA42
  8
2
 10
234.50000000000011
 20
-218.09095626833781
 30
0.0
 40
3.5
  0
LINE
  5
FA43
  8
0
 10
218.5
 20
-250.24510620569811
 30
0.0
 11
218.5
 21
-251.74510620569811
 31
0.0
  0
LINE
  5
FA44
  8
1
 10
213.50000000000011
 20
-247.24510620569811
 30
0.0
 11
213.50000000000011
 21
-254.24510620569811
 31
0.0
  0
LINE
  5
FA45
  8
0
 10
236.50000000000011
 20
-250.24510620569811
 30
0.0
 11
237.5
 21
-249.24510620569811
 31
0.0
  0
LINE
  5
FA46
  8
0
 10
236.49999999999989
 20
-251.74510620569811
 30
0.0
 11
237.0
 21
-252.24510620569811
 31
0.0
  0
LINE
  5
FA47
  8
0
 10
236.50000000000011
 20
-250.24510620569811
 30
0.0
 11
236.49999999999989
 21
-251.74510620569811
 31
0.0
  0
LINE
  5
FA48
  8
0
 10
218.5
 20
-250.24510620569811
 30
0.0
 11
236.50000000000011
 21
-250.24510620569831
 31
0.0
  0
LINE
  5
FA49
  8
0
 10
236.49999999999989
 20
-251.74510620569811
 30
0.0
 11
218.5
 21
-251.74510620569819
 31
0.0
  0
LINE
  5
FA7C
  8
0
 10
211.80000000000001
 20
-249.24510620569811
 30
0.0
 11
211.80000000000001
 21
-250.4451062056981
 31
0.0
  0
LINE
  5
FA7D
  8
0
 10
215.2000000000001
 20
-249.24510620569811
 30
0.0
 11
215.2000000000001
 21
-250.4451062056981
 31
0.0
  0
LINE
  5
FA7E
  8
0
 10
211.80000000000001
 20
-250.4451062056981
 30
0.0
 11
210.0
 21
-252.24510620569811
 31
0.0
  0
LINE
  5
FA7F
  8
0
 10
215.2000000000001
 20
-250.4451062056981
 30
0.0
 11
217.00000000000011
 21
-252.24510620569811
 31
0.0
  0
LINE
  5
FA80
  8
0
 10
211.80000000000001
 20
-250.4451062056981
 30
0.0
 11
215.2000000000001
 21
-250.4451062056981
 31
0.0
  0
TEXT
  5
FA81
  8
0
 62
     3
 10
165.0866666666665
 20
-173.04136863427689
 30
0.0
 40
3.2000000000000002
  1
3mmのプレートに固定する場合
 72
     1
 11
192.49999999999989
 21
-173.46803530094351
 31
0.0
 73
     1
  0
TEXT
  5
FA82
  8
0
 62
     3
 10
133.77999999999989
 20
-180.04136863427689
 30
0.0
 40
3.2000000000000002
  1
For installation on plate of 3 mm thickness.
 72
     1
 11
192.49999999999989
 21
-180.4680353009436
 31
0.0
 73
     1
  0
TEXT
  5
FA83
  8
0
 62
     3
 10
305.68666666666661
 20
-173.04136863427689
 30
0.0
 40
3.2000000000000002
  1
3mmを超え6mm未満のプレートに固定する場合
 72
     1
 11
347.5
 21
-173.46803530094351
 31
0.0
 73
     1
  0
TEXT
  5
FA84
  8
0
 62
     3
 10
274.69999999999999
 20
-180.04136863427689
 30
0.0
 40
3.2000000000000002
  1
For installation on plate of over 3 to 6 mm thickness.
 72
     1
 11
347.5
 21
-180.4680353009436
 31
0.0
 73
     1
  0
TEXT
  5
FA87
  8
0
 62
     3
 10
148.43333333333331
 20
-268.545106205698
 30
0.0
 40
3.2000000000000002
  1
組付け状態
 72
     1
 11
157.49999999999989
 21
-268.545106205698
 31
0.0
  0
TEXT
  5
FA88
  8
0
 62
     3
 10
220.2466666666667
 20
-268.545106205698
 30
0.0
 40
3.2000000000000002
  1
取付け穴
 72
     1
 11
227.50000000000011
 21
-268.545106205698
 31
0.0
  0
TEXT
  5
FA89
  8
0
 62
     3
 10
303.43333333333328
 20
-268.545106205698
 30
0.0
 40
3.2000000000000002
  1
組付け状態
 72
     1
 11
312.5
 21
-268.545106205698
 31
0.0
  0
TEXT
  5
FA8A
  8
0
 62
     3
 10
375.24666666666673
 20
-268.545106205698
 30
0.0
 40
3.2000000000000002
  1
取付け穴
 72
     1
 11
382.50000000000011
 21
-268.545106205698
 31
0.0
  0
TEXT
  5
FA8B
  8
0
 62
     3
 10
132.53999999999991
 20
-275.54510620569812
 30
0.0
 40
3.2000000000000002
  1
Installed condition
 72
     1
 11
157.49999999999989
 21
-275.54510620569812
 31
0.0
  0
TEXT
  5
FA8C
  8
0
 62
     3
 10
205.47333333333339
 20
-275.54510620569812
 30
0.0
 40
3.2000000000000002
  1
Installation hole
 72
     1
 11
227.50000000000011
 21
-275.54510620569812
 31
0.0
  0
TEXT
  5
FA8D
  8
0
 62
     3
 10
287.53999999999991
 20
-275.54510620569812
 30
0.0
 40
3.2000000000000002
  1
Installed condition
 72
     1
 11
312.5
 21
-275.54510620569812
 31
0.0
  0
TEXT
  5
FA8E
  8
0
 62
     3
 10
360.47333333333341
 20
-275.54510620569812
 30
0.0
 40
3.2000000000000002
  1
Installation hole
 72
     1
 11
382.50000000000011
 21
-275.54510620569812
 31
0.0
  0
LINE
  5
FAFA
  8
1
 10
382.5
 20
-183.49993711230999
 30
0.0
 11
382.5
 21
-228.49993711230999
 31
0.0
  0
LINE
  5
FAFB
  8
1
 10
360.0
 20
-205.9666006153557
 30
0.0
 11
405.0
 21
-205.9666006153557
 31
0.0
  0
LINE
  5
FAFC
  8
0
 10
365.00000000000011
 20
-251.24510620569811
 30
0.0
 11
400.0
 21
-251.24510620569811
 31
0.0
  0
LINE
  5
FAFD
  8
0
 10
360.0
 20
-249.24510620569811
 30
0.0
 11
405.0
 21
-249.24510620569811
 31
0.0
  0
LINE
  5
FAFE
  8
0
 10
400.0
 20
-249.74510620569811
 30
0.0
 11
400.5
 21
-249.24510620569811
 31
0.0
  0
LINE
  5
FAFF
  8
0
 10
365.00000000000011
 20
-249.74510620569811
 30
0.0
 11
364.5
 21
-249.24510620569811
 31
0.0
  0
LINE
  5
FB00
  8
0
 10
373.50000000000011
 20
-252.24510620569811
 30
0.0
 11
372.5
 21
-251.24510620569811
 31
0.0
  0
LINE
  5
FB01
  8
0
 10
360.0
 20
-254.24510620569811
 30
0.0
 11
405.0
 21
-254.24510620569811
 31
0.0
  0
LINE
  5
FB02
  8
0
 10
373.50000000000011
 20
-253.74510620569811
 30
0.0
 11
373.0
 21
-254.24510620569811
 31
0.0
  0
LINE
  5
FB03
  8
1
 10
382.50000000000011
 20
-244.24510620569811
 30
0.0
 11
382.50000000000011
 21
-259.24510620569811
 31
0.0
  0
CIRCLE
  5
FB04
  8
0
 10
382.50000000000011
 20
-205.9666006153557
 30
0.0
 40
9.0
  0
CIRCLE
  5
FB05
  8
1
 10
382.50000000000011
 20
-205.9666006153557
 30
0.0
 40
14.0
  0
CIRCLE
  5
FB06
  8
0
 10
368.5
 20
-205.9666006153557
 30
0.0
 40
1.7
  0
CIRCLE
  5
FB07
  8
2
 10
368.5
 20
-205.9666006153557
 30
0.0
 40
3.5
  0
LINE
  5
FB08
  8
1
 10
392.25000000000011
 20
-189.07910524155909
 30
0.0
 11
386.75000000000011
 21
-198.60538468318799
 31
0.0
  0
CIRCLE
  5
FB09
  8
0
 10
389.5
 20
-193.84224496237351
 30
0.0
 40
1.7
  0
CIRCLE
  5
FB0A
  8
2
 10
389.5
 20
-193.84224496237351
 30
0.0
 40
3.5
  0
LINE
  5
FB0B
  8
1
 10
392.25000000000011
 20
-222.8540959891522
 30
0.0
 11
386.75000000000011
 21
-213.3278165475235
 31
0.0
  0
CIRCLE
  5
FB0C
  8
0
 10
389.5
 20
-218.09095626833781
 30
0.0
 40
1.6999999999999991
  0
CIRCLE
  5
FB0D
  8
2
 10
389.5
 20
-218.09095626833781
 30
0.0
 40
3.5
  0
LINE
  5
FB0E
  8
0
 10
373.50000000000011
 20
-252.24510620569811
 30
0.0
 11
373.50000000000011
 21
-253.74510620569811
 31
0.0
  0
LINE
  5
FB0F
  8
1
 10
368.5
 20
-249.24510620569811
 30
0.0
 11
368.5
 21
-256.24510620569811
 31
0.0
  0
LINE
  5
FB10
  8
0
 10
391.5
 20
-252.24510620569811
 30
0.0
 11
392.50000000000011
 21
-251.24510620569811
 31
0.0
  0
LINE
  5
FB11
  8
0
 10
391.5
 20
-253.74510620569811
 30
0.0
 11
392.00000000000011
 21
-254.24510620569811
 31
0.0
  0
LINE
  5
FB12
  8
0
 10
391.5
 20
-252.24510620569811
 30
0.0
 11
391.5
 21
-253.74510620569811
 31
0.0
  0
LINE
  5
FB13
  8
0
 10
373.50000000000011
 20
-252.24510620569811
 30
0.0
 11
391.5
 21
-252.24510620569831
 31
0.0
  0
LINE
  5
FB14
  8
0
 10
391.5
 20
-253.74510620569811
 30
0.0
 11
373.50000000000011
 21
-253.74510620569819
 31
0.0
  0
LINE
  5
FB15
  8
0
 10
366.80000000000013
 20
-251.24510620569811
 30
0.0
 11
366.80000000000013
 21
-252.44510620569801
 31
0.0
  0
LINE
  5
FB16
  8
0
 10
370.2000000000001
 20
-251.24510620569811
 30
0.0
 11
370.2000000000001
 21
-252.44510620569801
 31
0.0
  0
LINE
  5
FB17
  8
0
 10
366.80000000000013
 20
-252.44510620569801
 30
0.0
 11
365.00000000000011
 21
-254.24510620569811
 31
0.0
  0
LINE
  5
FB18
  8
0
 10
370.2000000000001
 20
-252.44510620569801
 30
0.0
 11
372.00000000000011
 21
-254.24510620569811
 31
0.0
  0
LINE
  5
FB19
  8
0
 10
366.80000000000013
 20
-252.44510620569801
 30
0.0
 11
370.2000000000001
 21
-252.44510620569801
 31
0.0
  0
CIRCLE
  5
FB1A
  8
0
 10
382.50000000000011
 20
-205.9666006153557
 30
0.0
 40
17.5
  0
LINE
  5
FB1B
  8
0
 10
400.0
 20
-251.24510620569811
 30
0.0
 11
400.0
 21
-249.74510620569811
 31
0.0
  0
LINE
  5
FB1C
  8
0
 10
365.00000000000011
 20
-251.24510620569811
 30
0.0
 11
365.00000000000011
 21
-249.74510620569811
 31
0.0
  0
LINE
  5
FB1D
  8
0
 10
365.00000000000011
 20
-249.74510620569811
 30
0.0
 11
400.0
 21
-249.74510620569811
 31
0.0
  0
LINE
  5
FD4E
  8
0
 10
134.9999999999998
 20
-249.24510620569811
 30
0.0
 11
179.9999999999998
 21
-249.24510620569811
 31
0.0
  0
LINE
  5
FD4F
  8
0
 10
148.49999999999989
 20
-250.24510620569811
 30
0.0
 11
147.49999999999989
 21
-249.24510620569811
 31
0.0
  0
LINE
  5
FD50
  8
0
 10
134.9999999999998
 20
-252.24510620569811
 30
0.0
 11
179.9999999999998
 21
-252.24510620569811
 31
0.0
  0
LINE
  5
FD51
  8
0
 10
148.49999999999989
 20
-251.74510620569811
 30
0.0
 11
147.99999999999989
 21
-252.24510620569811
 31
0.0
  0
LINE
  5
FD53
  8
0
 10
148.49999999999989
 20
-250.24510620569811
 30
0.0
 11
148.49999999999989
 21
-251.74510620569811
 31
0.0
  0
LINE
  5
FD55
  8
0
 10
166.49999999999989
 20
-250.24510620569811
 30
0.0
 11
167.49999999999989
 21
-249.24510620569811
 31
0.0
  0
LINE
  5
FD56
  8
0
 10
166.4999999999998
 20
-251.74510620569811
 30
0.0
 11
166.9999999999998
 21
-252.24510620569811
 31
0.0
  0
LINE
  5
FD57
  8
0
 10
166.49999999999989
 20
-250.24510620569811
 30
0.0
 11
166.4999999999998
 21
-251.74510620569811
 31
0.0
  0
LINE
  5
FD58
  8
0
 10
148.49999999999989
 20
-250.24510620569811
 30
0.0
 11
148.78578789532179
 21
-250.24510620569811
 31
0.0
  0
LINE
  5
FD59
  8
0
 10
166.4999999999998
 20
-251.74510620569811
 30
0.0
 11
148.49999999999989
 21
-251.74510620569819
 31
0.0
  0
LINE
  5
FD5A
  8
0
 10
141.7999999999999
 20
-249.24510620569811
 30
0.0
 11
141.7999999999999
 21
-250.4451062056981
 31
0.0
  0
LINE
  5
FD5B
  8
0
 10
145.19999999999999
 20
-249.24510620569811
 30
0.0
 11
145.19999999999999
 21
-250.4451062056981
 31
0.0
  0
LINE
  5
FD5C
  8
0
 10
141.7999999999999
 20
-250.4451062056981
 30
0.0
 11
139.99999999999989
 21
-252.24510620569811
 31
0.0
  0
LINE
  5
FD5D
  8
0
 10
145.19999999999999
 20
-250.4451062056981
 30
0.0
 11
146.99999999999989
 21
-252.24510620569811
 31
0.0
  0
LINE
  5
FD5E
  8
0
 10
141.7999999999999
 20
-250.4451062056981
 30
0.0
 11
141.99999999999989
 21
-250.4451062056981
 31
0.0
  0
LINE
  5
FD5F
  8
0
 10
294.99999999999989
 20
-251.24510620569811
 30
0.0
 11
329.99999999999989
 21
-251.24510620569811
 31
0.0
  0
LINE
  5
FD60
  8
0
 10
290.0
 20
-249.24510620569811
 30
0.0
 11
295.49999907612801
 21
-249.24510620569811
 31
0.0
  0
LINE
  5
FD61
  8
0
 10
329.99999999999989
 20
-249.74510620569811
 30
0.0
 11
330.5
 21
-249.24510620569811
 31
0.0
  0
LINE
  5
FD62
  8
0
 10
294.99999999999989
 20
-249.74510620569811
 30
0.0
 11
294.49999999999989
 21
-249.24510620569811
 31
0.0
  0
LINE
  5
FD63
  8
0
 10
303.5
 20
-252.24510620569811
 30
0.0
 11
302.49999999999989
 21
-251.24510620569811
 31
0.0
  0
LINE
  5
FD64
  8
0
 10
290.0
 20
-254.24510620569811
 30
0.0
 11
335.0
 21
-254.24510620569811
 31
0.0
  0
LINE
  5
FD65
  8
0
 10
303.5
 20
-253.74510620569811
 30
0.0
 11
302.99999999999989
 21
-254.24510620569811
 31
0.0
  0
LINE
  5
FD66
  8
1
 10
312.5
 20
-244.24510620569811
 30
0.0
 11
312.5
 21
-259.24510620569811
 31
0.0
  0
LINE
  5
FD67
  8
0
 10
303.5
 20
-252.24510620569811
 30
0.0
 11
303.5
 21
-253.74510620569811
 31
0.0
  0
LINE
  5
FD69
  8
0
 10
321.49999999999989
 20
-252.24510620569811
 30
0.0
 11
322.5
 21
-251.24510620569811
 31
0.0
  0
LINE
  5
FD6A
  8
0
 10
321.49999999999989
 20
-253.74510620569811
 30
0.0
 11
321.99999999999989
 21
-254.24510620569811
 31
0.0
  0
LINE
  5
FD6B
  8
0
 10
321.49999999999989
 20
-252.24510620569811
 30
0.0
 11
321.49999999999989
 21
-253.74510620569811
 31
0.0
  0
LINE
  5
FD6C
  8
0
 10
303.5
 20
-252.24510620569811
 30
0.0
 11
303.78578789532179
 21
-252.24510620569811
 31
0.0
  0
LINE
  5
FD6D
  8
0
 10
321.49999999999989
 20
-253.74510620569811
 30
0.0
 11
303.5
 21
-253.74510620569819
 31
0.0
  0
LINE
  5
FD6E
  8
0
 10
296.80000000000001
 20
-251.24510620569811
 30
0.0
 11
296.80000000000001
 21
-252.44510620569801
 31
0.0
  0
LINE
  5
FD6F
  8
0
 10
300.19999999999999
 20
-251.24510620569811
 30
0.0
 11
300.19999999999999
 21
-252.44510620569801
 31
0.0
  0
LINE
  5
FD70
  8
0
 10
296.80000000000001
 20
-252.44510620569801
 30
0.0
 11
294.99999999999989
 21
-254.24510620569811
 31
0.0
  0
LINE
  5
FD71
  8
0
 10
300.19999999999999
 20
-252.44510620569801
 30
0.0
 11
302.0
 21
-254.24510620569811
 31
0.0
  0
LINE
  5
FD72
  8
0
 10
296.80000000000001
 20
-252.44510620569801
 30
0.0
 11
296.99999999999989
 21
-252.44510620569801
 31
0.0
  0
LINE
  5
FD73
  8
0
 10
329.99999999999989
 20
-251.24510620569811
 30
0.0
 11
329.99999999999989
 21
-249.74510620569811
 31
0.0
  0
LINE
  5
FD74
  8
0
 10
294.99999999999989
 20
-251.24510620569811
 30
0.0
 11
294.99999999999989
 21
-249.74510620569811
 31
0.0
  0
LINE
  5
FD75
  8
0
 10
294.99999999999989
 20
-249.74510620569811
 30
0.0
 11
295.49999907612801
 21
-249.74510620569811
 31
0.0
  0
LINE
  5
FDE6
  8
0
 10
174.5000009238718
 20
-248.74510612374169
 30
0.0
 11
174.5000009238718
 21
-246.74510626157749
 31
0.0
  0
LINE
  5
FDE7
  8
0
 10
173.99999991059281
 20
-249.24510620569811
 30
0.0
 11
174.5000009238718
 21
-248.74510612374169
 31
0.0
  0
LINE
  5
FDE8
  8
0
 10
174.5000009238718
 20
-246.74510626157749
 30
0.0
 11
173.99999991059281
 21
-246.2451061796211
 31
0.0
  0
LINE
  5
FDEA
  8
0
 10
140.49999907612781
 20
-246.74510626157749
 30
0.0
 11
140.49999907612781
 21
-248.74510612374169
 31
0.0
  0
LINE
  5
FDEC
  8
0
 10
140.49999907612781
 20
-248.74510612374169
 30
0.0
 11
141.0000000894068
 21
-249.24510620569811
 31
0.0
  0
LINE
  5
FDEE
  8
0
 10
141.0000000894068
 20
-246.24510617962099
 30
0.0
 11
173.99999991059281
 21
-246.2451061796211
 31
0.0
  0
LINE
  5
FDEF
  8
0
 10
141.0000000894068
 20
-246.2451061796211
 30
0.0
 11
140.49999907612781
 21
-246.74510626157749
 31
0.0
  0
LINE
  5
FE2C
  8
0
 10
144.99999999999989
 20
-250.54510623177521
 30
0.0
 11
141.99999999999989
 21
-250.54510623177509
 31
0.0
  0
LINE
  5
FE2D
  8
0
 10
146.49999999999989
 20
-252.04510623177509
 30
0.0
 11
144.99999999999989
 21
-250.54510623177521
 31
0.0
  0
LINE
  5
FE2F
  8
0
 10
146.4999999999998
 20
-252.04510623177509
 30
0.0
 11
146.4999999999998
 21
-252.2451062317752
 31
0.0
  0
LINE
  5
FE30
  8
0
 10
140.4999999999998
 20
-252.04510623177509
 30
0.0
 11
146.4999999999998
 21
-252.04510623177509
 31
0.0
  0
LINE
  5
FE31
  8
0
 10
140.49999999999989
 20
-252.04510623177509
 30
0.0
 11
141.99999999999989
 21
-250.54510623177521
 31
0.0
  0
LINE
  5
FE32
  8
0
 10
140.49999999999989
 20
-252.2451062317752
 30
0.0
 11
140.49999999999989
 21
-252.04510623177509
 31
0.0
  0
LINE
  5
FE33
  8
0
 10
141.99999999999989
 20
-250.54510623177509
 30
0.0
 11
141.99999999999989
 21
-249.24510620569811
 31
0.0
  0
LINE
  5
FE37
  8
0
 10
144.99999999999989
 20
-249.24510620569811
 30
0.0
 11
144.99999999999989
 21
-250.54510623177521
 31
0.0
  0
LINE
  5
FE3B
  8
0
 10
141.99999999999989
 20
-250.0765864883291
 30
0.0
 11
144.9999999999998
 21
-250.0765864883291
 31
0.0
  0
LINE
  5
FE3C
  8
3
 10
142.27049999999909
 20
-250.0765864883291
 30
0.0
 11
142.27049999999909
 21
-249.24510620569811
 31
0.0
  0
LINE
  5
FE3E
  8
3
 10
142.27049999999909
 20
-250.0765864883291
 30
0.0
 11
141.99999999999989
 21
-250.54510623177521
 31
0.0
  0
LINE
  5
FE3F
  8
3
 10
144.7295000000006
 20
-250.0765864883291
 30
0.0
 11
144.99999999999989
 21
-250.54510623177521
 31
0.0
  0
LINE
  5
FE40
  8
3
 10
144.7295000000006
 20
-250.0765864883291
 30
0.0
 11
144.7295000000006
 21
-249.24510620569811
 31
0.0
  0
LINE
  5
FE42
  8
1
 10
143.4999999999998
 20
-244.24510617962099
 30
0.0
 11
143.4999999999998
 21
-254.24510620569811
 31
0.0
  0
LINE
  5
FE43
  8
0
 10
329.50000092387188
 20
-250.74510612374169
 30
0.0
 11
329.50000092387188
 21
-248.74510626157749
 31
0.0
  0
LINE
  5
FE44
  8
0
 10
328.99999991059298
 20
-251.24510620569811
 30
0.0
 11
329.50000092387188
 21
-250.74510612374169
 31
0.0
  0
LINE
  5
FE45
  8
0
 10
329.50000092387188
 20
-248.74510626157749
 30
0.0
 11
328.99999991059298
 21
-248.2451061796211
 31
0.0
  0
LINE
  5
FE47
  8
0
 10
295.49999907612801
 20
-248.74510626157749
 30
0.0
 11
295.49999907612801
 21
-250.74510612374169
 31
0.0
  0
LINE
  5
FE49
  8
0
 10
295.49999907612801
 20
-250.74510612374169
 30
0.0
 11
296.00000008940691
 21
-251.24510620569811
 31
0.0
  0
LINE
  5
FE4B
  8
0
 10
296.00000008940691
 20
-248.2451061796211
 30
0.0
 11
328.99999991059298
 21
-248.2451061796211
 31
0.0
  0
LINE
  5
FE4C
  8
0
 10
296.00000008940691
 20
-248.2451061796211
 30
0.0
 11
295.49999907612801
 21
-248.74510626157749
 31
0.0
  0
LINE
  5
FE4E
  8
1
 10
298.49999999999989
 20
-246.2451061796211
 30
0.0
 11
298.49999999999989
 21
-256.24510620569811
 31
0.0
  0
LINE
  5
FE4F
  8
0
 10
300.0
 20
-252.54510623177521
 30
0.0
 11
297.0
 21
-252.54510623177509
 31
0.0
  0
LINE
  5
FE50
  8
0
 10
301.5
 20
-254.04510623177509
 30
0.0
 11
300.0
 21
-252.54510623177521
 31
0.0
  0
LINE
  5
FE52
  8
0
 10
301.5
 20
-254.04510623177509
 30
0.0
 11
301.5
 21
-254.2451062317752
 31
0.0
  0
LINE
  5
FE53
  8
0
 10
295.5
 20
-254.04510623177509
 30
0.0
 11
301.5
 21
-254.04510623177509
 31
0.0
  0
LINE
  5
FE54
  8
0
 10
295.5
 20
-254.04510623177509
 30
0.0
 11
297.0
 21
-252.54510623177521
 31
0.0
  0
LINE
  5
FE55
  8
0
 10
295.5
 20
-254.2451062317752
 30
0.0
 11
295.5
 21
-254.04510623177509
 31
0.0
  0
LINE
  5
FE56
  8
0
 10
297.0
 20
-252.54510623177509
 30
0.0
 11
297.0
 21
-251.24510620569811
 31
0.0
  0
LINE
  5
FE5A
  8
0
 10
300.0
 20
-251.24510620569811
 30
0.0
 11
300.0
 21
-252.54510623177521
 31
0.0
  0
LINE
  5
FE5E
  8
0
 10
297.0
 20
-252.0765864883291
 30
0.0
 11
300.0
 21
-252.0765864883291
 31
0.0
  0
LINE
  5
FE5F
  8
3
 10
297.27049999999917
 20
-252.0765864883291
 30
0.0
 11
297.27049999999917
 21
-251.24510620569811
 31
0.0
  0
LINE
  5
FE61
  8
3
 10
297.27049999999917
 20
-252.0765864883291
 30
0.0
 11
297.0
 21
-252.54510623177521
 31
0.0
  0
LINE
  5
FE62
  8
3
 10
299.72950000000083
 20
-252.0765864883291
 30
0.0
 11
300.0
 21
-252.54510623177521
 31
0.0
  0
LINE
  5
FE63
  8
3
 10
299.72950000000083
 20
-252.0765864883291
 30
0.0
 11
299.72950000000083
 21
-251.24510620569811
 31
0.0
  0
LINE
  5
FE74
  8
0
 10
322.4192364141345
 20
-210.943651486542
 30
0.0
 11
320.58284617960447
 21
-210.27525990119199
 31
0.0
  0
LINE
  5
FE75
  8
0
 10
304.41715382039541
 20
-210.27525990119199
 30
0.0
 11
302.58076358586538
 21
-210.943651486542
 31
0.0
  0
ARC
  5
FE76
  8
0
 10
322.97310993735942
 20
-225.24510614981881
 30
0.0
 40
0.5
 50
270.0
 51
2.9999999999990901
  0
ARC
  5
FE77
  8
0
 10
302.0268900626404
 20
-225.24510614981881
 30
0.0
 40
0.5
 50
177.00000000000091
 51
270.0
  0
LINE
  5
FE78
  8
0
 10
323.47242441028351
 20
-225.2189378332161
 30
0.0
 11
322.7475406602025
 21
-211.38732983579851
 31
0.0
  0
LINE
  5
FE79
  8
0
 10
302.25245933979738
 20
-211.38732983579851
 30
0.0
 11
301.52757558971638
 21
-225.2189378332161
 31
0.0
  0
ARC
  5
FE7A
  8
0
 10
322.24822603229671
 20
-211.413497274582
 30
0.0
 40
0.500000000000012
 50
2.9999999999958362
 51
69.999999999999915
  0
ARC
  5
FE7B
  8
0
 10
302.75177396770317
 20
-211.413497274582
 30
0.0
 40
0.5000000000000071
 50
109.9999999999964
 51
177.00000000000409
  0
ARC
  5
FE7C
  8
0
 10
320.4118365096457
 20
-210.74510614981881
 30
0.0
 40
0.500000000000012
 50
69.999999999999915
 51
90.0
  0
ARC
  5
FE7D
  8
0
 10
304.58816349035408
 20
-210.74510614981881
 30
0.0
 40
0.500000000000012
 50
90.0
 51
110.0000000000001
  0
LINE
  5
FE7E
  8
0
 10
295.49999907612801
 20
-247.74510609766469
 30
0.0
 11
296.00000008940691
 21
-248.2451061796211
 31
0.0
  0
LINE
  5
FE7F
  8
0
 10
328.99999991059298
 20
-248.2451061796211
 30
0.0
 11
329.50000092387188
 21
-247.74510609766469
 31
0.0
  0
LINE
  5
FE80
  8
0
 10
329.50000092387188
 20
-247.74510609766469
 30
0.0
 11
329.50000092387188
 21
-241.5840980674885
 31
0.0
  0
LINE
  5
FE81
  8
0
 10
295.49999907612801
 20
-241.5840980674885
 30
0.0
 11
295.49999907612801
 21
-247.74510609766469
 31
0.0
  0
ARC
  5
FE82
  8
0
 10
296.49999999999989
 20
-241.58409788645841
 30
0.0
 40
1.00000000000001
 50
110.0000000000001
 51
180.0
  0
ARC
  5
FE83
  8
0
 10
328.5
 20
-241.58409788645841
 30
0.0
 40
1.00000000000001
 50
0.0
 51
69.999999999999915
  0
LINE
  5
FE84
  8
0
 10
328.84201966226101
 20
-240.64440569689501
 30
0.0
 11
322.25000020116562
 21
-238.24510640313849
 31
0.0
  0
LINE
  5
FE85
  8
0
 10
302.74999979883432
 20
-238.24510640313849
 30
0.0
 11
296.15798033773888
 21
-240.64440569689501
 31
0.0
  0
ARC
  5
FE86
  8
0
 10
304.09999999999991
 20
-237.84510614981869
 30
0.0
 40
0.4000000000000199
 50
270.0
 51
0.0
  0
ARC
  5
FE87
  8
0
 10
320.89999999999992
 20
-237.84510614981869
 30
0.0
 40
0.4000000000000057
 50
180.0
 51
270.0
  0
LINE
  5
FE88
  8
0
 10
320.50000037997961
 20
-237.84510521998629
 30
0.0
 11
320.50000037997961
 21
-225.7451052855514
 31
0.0
  0
LINE
  5
FE89
  8
0
 10
304.49999962002028
 20
-225.7451052855514
 30
0.0
 11
304.49999962002028
 21
-237.84510521998629
 31
0.0
  0
LINE
  5
FE8E
  8
0
 10
313.2461259374395
 20
-214.6050828587077
 30
0.0
 11
311.75387406256039
 21
-214.6050828587077
 31
0.0
  0
ARC
  5
FE8F
  8
0
 10
313.6041734737081
 20
-225.2579670984401
 30
0.0
 40
0.4874228276584579
 50
271.95818724530852
 51
4.5927449424258073
  0
ARC
  5
FE90
  8
0
 10
311.39582652629178
 20
-225.2579670984401
 30
0.0
 40
0.4874228276584437
 50
175.40725505757089
 51
268.04181275469148
  0
ARC
  5
FE91
  8
0
 10
313.46938002388919
 20
-219.07065054704671
 30
0.0
 40
4.4711449502620848
 50
87.137905753298156
 51
92.862094246701815
  0
LINE
  5
FE92
  8
0
 10
313.69263411033887
 20
-214.6050828587077
 30
0.0
 11
314.09003119915718
 21
-225.2189378332161
 31
0.0
  0
LINE
  5
FE93
  8
0
 10
310.90996880084271
 20
-225.2189378332161
 30
0.0
 11
311.30736588966101
 21
-214.6050828587077
 31
0.0
  0
ARC
  5
FE94
  8
0
 10
311.5306199761107
 20
-219.07065054704671
 30
0.0
 40
4.4711449502620848
 50
87.137905753298156
 51
92.862094246701815
  0
ARC
  5
FE95
  8
0
 10
309.78489505157643
 20
-225.2579670984401
 30
0.0
 40
0.4874228276584437
 50
175.40725505757089
 51
268.04181275469148
  0
ARC
  5
FE96
  8
0
 10
315.21510494842352
 20
-225.2579670984401
 30
0.0
 40
0.4874228276584579
 50
271.95818724530852
 51
4.5927449424258073
  0
ARC
  5
FE97
  8
0
 10
315.65572245319072
 20
-214.33670143943959
 30
0.0
 40
1.981349143399217
 50
147.56596126984959
 51
187.78486609319421
  0
LINE
  5
FE98
  8
0
 10
315.05943089723581
 20
-212.19217135420061
 30
0.0
 11
313.98344505578268
 21
-213.2740478109381
 31
0.0
  0
LINE
  5
FE99
  8
0
 10
315.70096267387271
 20
-225.2189378332161
 30
0.0
 11
315.05943089723581
 21
-212.19217135420061
 31
0.0
  0
LINE
  5
FE9A
  8
0
 10
309.94056910276407
 20
-212.19217135420061
 30
0.0
 11
309.29903732612718
 21
-225.2189378332161
 31
0.0
  0
LINE
  5
FE9B
  8
0
 10
311.01655494421721
 20
-213.2740478109381
 30
0.0
 11
309.94056910276407
 21
-212.19217135420061
 31
0.0
  0
ARC
  5
FE9C
  8
0
 10
309.16674754785021
 20
-214.37548904832221
 30
0.0
 40
2.1528957715281898
 50
353.87809674981838
 51
30.7710758871359
  0
POLYLINE
  5
FE9D
  8
0
 66
     1
 10
0.0
 20
0.0
 30
0.0
 70
   128
  0
VERTEX
  5
101BB
  8
0
 10
317.93501088395709
 20
-225.2189378332161
 30
0.0
  0
VERTEX
  5
101BC
  8
0
 10
317.93254939839238
 20
-225.32008877804509
 30
0.0
  0
VERTEX
  5
101BD
  8
0
 10
317.92004220187658
 20
-225.4181644957327
 30
0.0
  0
VERTEX
  5
101BE
  8
0
 10
317.8980029188096
 20
-225.50913981011141
 30
0.0
  0
VERTEX
  5
101BF
  8
0
 10
317.86733446642751
 20
-225.5892838429474
 30
0.0
  0
VERTEX
  5
101C0
  8
0
 10
317.82929645851249
 20
-225.65530716290701
 30
0.0
  0
VERTEX
  5
101C1
  8
0
 10
317.78544839471567
 20
-225.70450148394329
 30
0.0
  0
VERTEX
  5
101C2
  8
0
 10
317.73758959025139
 20
-225.73484956135979
 30
0.0
  0
VERTEX
  5
101C3
  8
0
 10
317.68768327310681
 20
-225.7451052855514
 30
0.0
  0
SEQEND
  5
101C4
  8
0
  0
POLYLINE
  5
FE9E
  8
0
 66
     1
 10
0.0
 20
0.0
 30
0.0
 70
   128
  0
VERTEX
  5
101C5
  8
0
 10
307.31231672689307
 20
-225.7451052855514
 30
0.0
  0
VERTEX
  5
101C6
  8
0
 10
307.2624104097485
 20
-225.73484956135979
 30
0.0
  0
VERTEX
  5
101C7
  8
0
 10
307.21455160528421
 20
-225.70450148394329
 30
0.0
  0
VERTEX
  5
101C8
  8
0
 10
307.1707035414874
 20
-225.65530716290701
 30
0.0
  0
VERTEX
  5
101C9
  8
0
 10
307.13266553357238
 20
-225.5892838429474
 30
0.0
  0
VERTEX
  5
101CA
  8
0
 10
307.10199708119029
 20
-225.50913981011141
 30
0.0
  0
VERTEX
  5
101CB
  8
0
 10
307.0799577981233
 20
-225.4181644957327
 30
0.0
  0
VERTEX
  5
101CC
  8
0
 10
307.0674506016075
 20
-225.32008877804509
 30
0.0
  0
VERTEX
  5
101CD
  8
0
 10
307.0649891160428
 20
-225.2189378332161
 30
0.0
  0
SEQEND
  5
101CE
  8
0
  0
ARC
  5
FE9F
  8
0
 10
317.31776963794948
 20
-214.9167239440321
 30
0.0
 40
3.5388247600814449
 50
85.81615630526872
 51
129.65480080537969
  0
LINE
  5
FEA0
  8
0
 10
317.57595157250762
 20
-211.38732983579851
 30
0.0
 11
317.93501088395709
 21
-225.2189378332161
 31
0.0
  0
LINE
  5
FEA1
  8
0
 10
307.0649891160428
 20
-225.2189378332161
 30
0.0
 11
307.42404842749232
 21
-211.38732983579851
 31
0.0
  0
ARC
  5
FEA2
  8
0
 10
307.69161176892771
 20
-214.8873908345561
 30
0.0
 40
3.5102730857732221
 50
50.157550011638719
 51
94.371492877711304
  0
LINE
  5
FEA3
  8
0
 10
322.97310978174198
 20
-225.7451052855514
 30
0.0
 11
302.0268900626404
 21
-225.7451061498187
 31
0.0
  0
LINE
  5
FEA4
  8
0
 10
304.58816327154631
 20
-210.24510740151621
 30
0.0
 11
320.41183672845358
 21
-210.24510740151621
 31
0.0
  0
LINE
  5
FEA6
  8
0
 10
322.25000020116562
 20
-238.24510640313849
 30
0.0
 11
302.74999979883432
 21
-238.24510640313849
 31
0.0
  0
LINE
  5
FEB5
  8
0
 10
303.78578789532179
 20
-253.24510612607
 30
0.0
 11
304.45714574307198
 21
-253.74510614981881
 31
0.0
  0
LINE
  5
FEB7
  8
0
 10
321.21421210467821
 20
-253.24510612607
 30
0.0
 11
321.2142121046781
 21
-251.24510620569811
 31
0.0
  0
LINE
  5
FEB8
  8
0
 10
303.78578789532179
 20
-251.24510620569811
 30
0.0
 11
303.78578789532179
 21
-253.24510612607
 31
0.0
  0
LINE
  5
FEB9
  8
0
 10
322.7475406602025
 20
-211.38732983579851
 30
0.0
 11
317.57595157250762
 21
-211.38732983579851
 31
0.0
  0
LINE
  5
FEBA
  8
0
 10
307.42404842749232
 20
-211.38732983579851
 30
0.0
 11
302.25245933979738
 21
-211.38732983579851
 31
0.0
  0
LINE
  5
FEBB
  8
0
 10
296.15798033773888
 20
-240.64440569689501
 30
0.0
 11
328.84201966226101
 21
-240.64440569689501
 31
0.0
  0
LINE
  5
FEBC
  8
1
 10
312.5
 20
-205.24510740151621
 30
0.0
 11
312.5
 21
-258.74510614981881
 31
0.0
  0
LINE
  5
FEC9
  8
0
 10
303.78578789532179
 20
-253.24510612607
 30
0.0
 11
321.2142121046781
 21
-253.24510612607
 31
0.0
  0
LINE
  5
FED2
  8
0
 10
167.4192364141345
 20
-208.943651486542
 30
0.0
 11
165.5828461796045
 21
-208.27525990119199
 31
0.0
  0
LINE
  5
FED3
  8
0
 10
149.41715382039541
 20
-208.27525990119199
 30
0.0
 11
147.58076358586541
 21
-208.943651486542
 31
0.0
  0
ARC
  5
FED4
  8
0
 10
167.9731099373594
 20
-223.24510614981881
 30
0.0
 40
0.5
 50
270.0
 51
2.9999999999990901
  0
ARC
  5
FED5
  8
0
 10
147.0268900626404
 20
-223.24510614981881
 30
0.0
 40
0.5
 50
177.00000000000091
 51
270.0
  0
LINE
  5
FED6
  8
0
 10
168.47242441028351
 20
-223.2189378332161
 30
0.0
 11
167.7475406602025
 21
-209.38732983579851
 31
0.0
  0
LINE
  5
FED7
  8
0
 10
147.25245933979741
 20
-209.38732983579851
 30
0.0
 11
146.52757558971641
 21
-223.2189378332161
 31
0.0
  0
ARC
  5
FED8
  8
0
 10
167.24822603229671
 20
-209.413497274582
 30
0.0
 40
0.500000000000012
 50
2.9999999999958362
 51
70.000000000001577
  0
ARC
  5
FED9
  8
0
 10
147.7517739677032
 20
-209.413497274582
 30
0.0
 40
0.5000000000000071
 50
109.9999999999974
 51
177.00000000000409
  0
ARC
  5
FEDA
  8
0
 10
165.4118365096457
 20
-208.74510614981881
 30
0.0
 40
0.500000000000012
 50
70.000000000001577
 51
90.0
  0
ARC
  5
FEDB
  8
0
 10
149.58816349035419
 20
-208.74510614981881
 30
0.0
 40
0.500000000000012
 50
90.0
 51
109.9999999999992
  0
LINE
  5
FEDC
  8
0
 10
140.49999907612801
 20
-245.74510609766469
 30
0.0
 11
141.00000008940691
 21
-246.2451061796211
 31
0.0
  0
LINE
  5
FEDD
  8
0
 10
173.999999910593
 20
-246.2451061796211
 30
0.0
 11
174.50000092387191
 21
-245.74510609766469
 31
0.0
  0
LINE
  5
FEDE
  8
0
 10
174.50000092387191
 20
-245.74510609766469
 30
0.0
 11
174.50000092387191
 21
-239.5840980674885
 31
0.0
  0
LINE
  5
FEDF
  8
0
 10
140.49999907612801
 20
-239.5840980674885
 30
0.0
 11
140.49999907612801
 21
-245.74510609766469
 31
0.0
  0
ARC
  5
FEE0
  8
0
 10
141.5
 20
-239.58409788645841
 30
0.0
 40
1.00000000000001
 50
109.9999999999992
 51
180.0
  0
ARC
  5
FEE1
  8
0
 10
173.49999999999989
 20
-239.58409788645841
 30
0.0
 40
1.00000000000001
 50
0.0
 51
70.000000000000043
  0
LINE
  5
FEE2
  8
0
 10
173.84201966226101
 20
-238.64440569689501
 30
0.0
 11
167.25000020116559
 21
-236.24510640313849
 31
0.0
  0
LINE
  5
FEE3
  8
0
 10
147.7499997988343
 20
-236.24510640313849
 30
0.0
 11
141.15798033773891
 21
-238.64440569689501
 31
0.0
  0
ARC
  5
FEE4
  8
0
 10
149.09999999999991
 20
-235.84510614981869
 30
0.0
 40
0.4000000000000199
 50
270.0
 51
0.0
  0
ARC
  5
FEE5
  8
0
 10
165.89999999999989
 20
-235.84510614981869
 30
0.0
 40
0.4000000000000057
 50
180.0
 51
270.0
  0
LINE
  5
FEE6
  8
0
 10
165.50000037997961
 20
-235.84510521998629
 30
0.0
 11
165.50000037997961
 21
-223.7451052855514
 31
0.0
  0
LINE
  5
FEE7
  8
0
 10
149.4999996200203
 20
-223.7451052855514
 30
0.0
 11
149.4999996200203
 21
-235.84510521998629
 31
0.0
  0
LINE
  5
FEEC
  8
0
 10
158.2461259374395
 20
-212.6050828587077
 30
0.0
 11
156.75387406256041
 21
-212.6050828587077
 31
0.0
  0
ARC
  5
FEED
  8
0
 10
158.60417347370799
 20
-223.2579670984401
 30
0.0
 40
0.4874228276584579
 50
271.95818724531011
 51
4.5927449424258073
  0
ARC
  5
FEEE
  8
0
 10
156.39582652629181
 20
-223.2579670984401
 30
0.0
 40
0.4874228276584437
 50
175.40725505757101
 51
268.04181275469148
  0
ARC
  5
FEEF
  8
0
 10
158.46938002388919
 20
-217.07065054704671
 30
0.0
 40
4.4711449502620848
 50
87.13790575329817
 51
92.862094246701815
  0
LINE
  5
FEF0
  8
0
 10
158.6926341103389
 20
-212.6050828587077
 30
0.0
 11
159.09003119915721
 21
-223.2189378332161
 31
0.0
  0
LINE
  5
FEF1
  8
0
 10
155.90996880084271
 20
-223.2189378332161
 30
0.0
 11
156.30736588966101
 21
-212.6050828587077
 31
0.0
  0
ARC
  5
FEF2
  8
0
 10
156.5306199761107
 20
-217.07065054704671
 30
0.0
 40
4.4711449502620848
 50
87.13790575329817
 51
92.862094246701815
  0
ARC
  5
FEF3
  8
0
 10
154.7848950515764
 20
-223.2579670984401
 30
0.0
 40
0.4874228276584437
 50
175.40725505757101
 51
268.04181275469148
  0
ARC
  5
FEF4
  8
0
 10
160.21510494842349
 20
-223.2579670984401
 30
0.0
 40
0.4874228276584579
 50
271.95818724531011
 51
4.5927449424258073
  0
ARC
  5
FEF5
  8
0
 10
160.65572245319069
 20
-212.33670143943959
 30
0.0
 40
1.981349143399217
 50
147.5659612698492
 51
187.78486609319421
  0
LINE
  5
FEF6
  8
0
 10
160.05943089723581
 20
-210.19217135420061
 30
0.0
 11
158.98344505578271
 21
-211.2740478109381
 31
0.0
  0
LINE
  5
FEF7
  8
0
 10
160.70096267387271
 20
-223.2189378332161
 30
0.0
 11
160.05943089723581
 21
-210.19217135420061
 31
0.0
  0
LINE
  5
FEF8
  8
0
 10
154.9405691027641
 20
-210.19217135420061
 30
0.0
 11
154.29903732612721
 21
-223.2189378332161
 31
0.0
  0
LINE
  5
FEF9
  8
0
 10
156.01655494421721
 20
-211.2740478109381
 30
0.0
 11
154.9405691027641
 21
-210.19217135420061
 31
0.0
  0
ARC
  5
FEFA
  8
0
 10
154.16674754785021
 20
-212.37548904832221
 30
0.0
 40
2.1528957715281898
 50
353.87809674981838
 51
30.771075887135069
  0
POLYLINE
  5
FEFB
  8
0
 66
     1
 10
0.0
 20
0.0
 30
0.0
 70
   128
  0
VERTEX
  5
101CF
  8
0
 10
162.93501088395709
 20
-223.2189378332161
 30
0.0
  0
VERTEX
  5
101D0
  8
0
 10
162.93254939839241
 20
-223.32008877804509
 30
0.0
  0
VERTEX
  5
101D1
  8
0
 10
162.92004220187661
 20
-223.4181644957327
 30
0.0
  0
VERTEX
  5
101D2
  8
0
 10
162.8980029188096
 20
-223.50913981011141
 30
0.0
  0
VERTEX
  5
101D3
  8
0
 10
162.86733446642751
 20
-223.5892838429474
 30
0.0
  0
VERTEX
  5
101D4
  8
0
 10
162.82929645851249
 20
-223.65530716290701
 30
0.0
  0
VERTEX
  5
101D5
  8
0
 10
162.7854483947157
 20
-223.70450148394329
 30
0.0
  0
VERTEX
  5
101D6
  8
0
 10
162.73758959025139
 20
-223.73484956135979
 30
0.0
  0
VERTEX
  5
101D7
  8
0
 10
162.68768327310681
 20
-223.7451052855514
 30
0.0
  0
SEQEND
  5
101D8
  8
0
  0
POLYLINE
  5
FEFC
  8
0
 66
     1
 10
0.0
 20
0.0
 30
0.0
 70
   128
  0
VERTEX
  5
101D9
  8
0
 10
152.3123167268931
 20
-223.7451052855514
 30
0.0
  0
VERTEX
  5
101DA
  8
0
 10
152.2624104097485
 20
-223.73484956135979
 30
0.0
  0
VERTEX
  5
101DB
  8
0
 10
152.21455160528421
 20
-223.70450148394329
 30
0.0
  0
VERTEX
  5
101DC
  8
0
 10
152.1707035414874
 20
-223.65530716290701
 30
0.0
  0
VERTEX
  5
101DD
  8
0
 10
152.13266553357241
 20
-223.5892838429474
 30
0.0
  0
VERTEX
  5
101DE
  8
0
 10
152.10199708119029
 20
-223.50913981011141
 30
0.0
  0
VERTEX
  5
101DF
  8
0
 10
152.0799577981233
 20
-223.4181644957327
 30
0.0
  0
VERTEX
  5
101E0
  8
0
 10
152.0674506016075
 20
-223.32008877804509
 30
0.0
  0
VERTEX
  5
101E1
  8
0
 10
152.0649891160428
 20
-223.2189378332161
 30
0.0
  0
SEQEND
  5
101E2
  8
0
  0
ARC
  5
FEFD
  8
0
 10
162.31776963794951
 20
-212.9167239440321
 30
0.0
 40
3.5388247600814449
 50
85.81615630526872
 51
129.6548008053808
  0
LINE
  5
FEFE
  8
0
 10
162.57595157250759
 20
-209.38732983579851
 30
0.0
 11
162.93501088395709
 21
-223.2189378332161
 31
0.0
  0
LINE
  5
FEFF
  8
0
 10
152.0649891160428
 20
-223.2189378332161
 30
0.0
 11
152.42404842749229
 21
-209.38732983579851
 31
0.0
  0
ARC
  5
FF00
  8
0
 10
152.69161176892769
 20
-212.8873908345561
 30
0.0
 40
3.5102730857732221
 50
50.157550011640481
 51
94.371492877711304
  0
LINE
  5
FF01
  8
0
 10
167.97310978174201
 20
-223.7451052855514
 30
0.0
 11
147.0268900626404
 21
-223.7451061498187
 31
0.0
  0
LINE
  5
FF02
  8
0
 10
149.58816327154631
 20
-208.24510740151621
 30
0.0
 11
165.41183672845361
 21
-208.24510740151621
 31
0.0
  0
LINE
  5
FF04
  8
0
 10
167.25000020116559
 20
-236.24510640313849
 30
0.0
 11
147.7499997988343
 21
-236.24510640313849
 31
0.0
  0
LINE
  5
FF13
  8
0
 10
148.78578789532179
 20
-251.24510612607
 30
0.0
 11
149.457145743072
 21
-251.74510614981881
 31
0.0
  0
LINE
  5
FF15
  8
0
 10
166.2142121046781
 20
-251.24510612607
 30
0.0
 11
166.2142121046781
 21
-249.24510620569811
 31
0.0
  0
LINE
  5
FF16
  8
0
 10
148.78578789532179
 20
-249.24510620569811
 30
0.0
 11
148.78578789532179
 21
-251.24510612607
 31
0.0
  0
LINE
  5
FF17
  8
0
 10
167.7475406602025
 20
-209.38732983579851
 30
0.0
 11
162.57595157250759
 21
-209.38732983579851
 31
0.0
  0
LINE
  5
FF18
  8
0
 10
152.42404842749229
 20
-209.38732983579851
 30
0.0
 11
147.25245933979741
 21
-209.38732983579851
 31
0.0
  0
LINE
  5
FF19
  8
0
 10
141.15798033773891
 20
-238.64440569689501
 30
0.0
 11
173.84201966226101
 21
-238.64440569689501
 31
0.0
  0
LINE
  5
FF1A
  8
1
 10
157.5
 20
-203.24510740151621
 30
0.0
 11
157.49999999999989
 21
-257.24510620569799
 31
0.0
  0
LINE
  5
FF27
  8
0
 10
148.78578789532179
 20
-251.24510612607
 30
0.0
 11
166.2142121046781
 21
-251.24510612607
 31
0.0
  0
LINE
  5
FF2F
  8
0
 10
166.2142121046781
 20
-251.24510612607
 30
0.0
 11
165.54285425692791
 21
-251.74510614981881
 31
0.0
  0
LINE
  5
FF4E
  8
0
 10
144.99999999999989
 20
-250.44510620569801
 30
0.0
 11
145.19999999999999
 21
-250.4451062056981
 31
0.0
  0
LINE
  5
FF4F
  8
0
 10
166.2142121046781
 20
-250.24510620569839
 30
0.0
 11
166.49999999999989
 21
-250.24510620569831
 31
0.0
  0
LINE
  5
FF66
  8
0
 10
329.50000092387188
 20
-249.74510620569811
 30
0.0
 11
329.99999999999989
 21
-249.74510620569811
 31
0.0
  0
LINE
  5
FF67
  8
0
 10
329.50000092387188
 20
-249.24510620569811
 30
0.0
 11
335.0
 21
-249.24510620569811
 31
0.0
  0
LINE
  5
FF68
  8
0
 10
300.0
 20
-252.4451062056981
 30
0.0
 11
300.19999999999999
 21
-252.44510620569801
 31
0.0
  0
LINE
  5
FF71
  8
0
 10
321.2142121046781
 20
-253.24510612607
 30
0.0
 11
320.54285425692791
 21
-253.74510614981881
 31
0.0
  0
LINE
  5
FF72
  8
0
 10
321.2142121046781
 20
-252.24510620569831
 30
0.0
 11
321.49999999999989
 21
-252.24510620569831
 31
0.0
  0
TEXT
  5
FF99
  8
0
 62
     3
 10
121.0014673499269
 20
-153.87327044564341
 30
0.0
 40
3.2000000000000002
  1
スペーサー(ボルト付き)(QCASP)を使用する場合
  0
TEXT
  5
FF9A
  8
0
 62
     3
 10
121.0014673499269
 20
-160.87327044564341
 30
0.0
 40
3.2000000000000002
  1
To use with a spacer(QCASP)
 41
0.85
  0
ENDSEC
  0
EOF
