  0
SECTION
  2
HEADER
  9
$ACADVER
  1
AC1009
  9
$INSBASE
 10
0.0
 20
0.0
 30
0.0
  9
$EXTMIN
 10
0.0
 20
-2.960436562073669
 30
0.0
  9
$EXTMAX
 10
181.00000123270399
 20
257.00000181794161
 30
0.0
  9
$LIMMIN
 10
0.0
 20
0.0
  9
$LIMMAX
 10
770.0
 20
540.0
  9
$ORTHOMODE
 70
     1
  9
$REGENMODE
 70
     1
  9
$FILLMODE
 70
     1
  9
$QTEXTMODE
 70
     0
  9
$MIRRTEXT
 70
     0
  9
$DRAGMODE
 70
     2
  9
$LTSCALE
 40
10.0
  9
$OSMODE
 70
    37
  9
$ATTMODE
 70
     1
  9
$TEXTSIZE
 40
4.000000000000048
  9
$TRACEWID
 40
0.05
  9
$TEXTSTYLE
  7
STANDARD
  9
$CLAYER
  8
0
  9
$CELTYPE
  6
BYLAYER
  9
$CECOLOR
 62
   256
  9
$DIMSCALE
 40
2.0
  9
$DIMASZ
 40
3.0
  9
$DIMEXO
 40
2.0
  9
$DIMDLI
 40
0.38
  9
$DIMRND
 40
0.0
  9
$DIMDLE
 40
0.0
  9
$DIMEXE
 40
2.0
  9
$DIMTP
 40
0.0
  9
$DIMTM
 40
0.0
  9
$DIMTXT
 40
3.0
  9
$DIMCEN
 40
0.0
  9
$DIMTSZ
 40
0.0
  9
$DIMTOL
 70
     0
  9
$DIMLIM
 70
     0
  9
$DIMTIH
 70
     0
  9
$DIMTOH
 70
     0
  9
$DIMSE1
 70
     0
  9
$DIMSE2
 70
     0
  9
$DIMTAD
 70
     1
  9
$DIMZIN
 70
     0
  9
$DIMBLK
  1

  9
$DIMASO
 70
     0
  9
$DIMSHO
 70
     0
  9
$DIMPOST
  1

  9
$DIMAPOST
  1

  9
$DIMALT
 70
     0
  9
$DIMALTD
 70
     2
  9
$DIMALTF
 40
25.399999999999999
  9
$DIMLFAC
 40
1.0
  9
$DIMTOFL
 70
     0
  9
$DIMTVP
 40
1.6000000000000001
  9
$DIMTIX
 70
     1
  9
$DIMSOXD
 70
     0
  9
$DIMSAH
 70
     0
  9
$DIMBLK1
  1

  9
$DIMBLK2
  1

  9
$DIMSTYLE
  2
STANDARD
  9
$DIMCLRD
 70
     4
  9
$DIMCLRE
 70
     4
  9
$DIMCLRT
 70
     4
  9
$DIMTFAC
 40
1.0
  9
$DIMGAP
 40
0.09
  9
$LUNITS
 70
     2
  9
$LUPREC
 70
     1
  9
$SKETCHINC
 40
0.1
  9
$FILLETRAD
 40
0.0
  9
$AUNITS
 70
     0
  9
$AUPREC
 70
     0
  9
$MENU
  1
E:\r13\win\SUPPORT\ACAD
  9
$ELEVATION
 40
0.0
  9
$PELEVATION
 40
0.0
  9
$THICKNESS
 40
0.0
  9
$LIMCHECK
 70
     0
  9
$BLIPMODE
 70
     0
  9
$CHAMFERA
 40
1.1999999999999991
  9
$CHAMFERB
 40
1.1999999999999991
  9
$SKPOLY
 70
     0
  9
$TDCREATE
 40
2450158.583426042
  9
$TDUPDATE
 40
2456807.388963901
  9
$TDINDWG
 40
0.4794458102
  9
$TDUSRTIMER
 40
0.4794458102
  9
$USRTIMER
 70
     1
  9
$ANGBASE
 50
0.0
  9
$ANGDIR
 70
     0
  9
$PDMODE
 70
     0
  9
$PDSIZE
 40
0.0
  9
$PLINEWID
 40
0.0
  9
$COORDS
 70
     1
  9
$SPLFRAME
 70
     0
  9
$SPLINETYPE
 70
     6
  9
$SPLINESEGS
 70
     8
  9
$ATTDIA
 70
     0
  9
$ATTREQ
 70
     1
  9
$HANDLING
 70
     1
  9
$HANDSEED
  5
B779
  9
$SURFTAB1
 70
     6
  9
$SURFTAB2
 70
     6
  9
$SURFTYPE
 70
     6
  9
$SURFU
 70
     6
  9
$SURFV
 70
     6
  9
$UCSNAME
  2

  9
$UCSORG
 10
0.0
 20
0.0
 30
0.0
  9
$UCSXDIR
 10
1.0
 20
0.0
 30
0.0
  9
$UCSYDIR
 10
0.0
 20
1.0
 30
0.0
  9
$PUCSNAME
  2

  9
$PUCSORG
 10
0.0
 20
0.0
 30
0.0
  9
$PUCSXDIR
 10
1.0
 20
0.0
 30
0.0
  9
$PUCSYDIR
 10
0.0
 20
1.0
 30
0.0
  9
$USERI1
 70
     3
  9
$USERI2
 70
     1
  9
$USERI3
 70
     0
  9
$USERI4
 70
     0
  9
$USERI5
 70
     0
  9
$USERR1
 40
2.0
  9
$USERR2
 40
3.0
  9
$USERR3
 40
3.0
  9
$USERR4
 40
3.0
  9
$USERR5
 40
10.0
  9
$WORLDVIEW
 70
     1
  9
$SHADEDGE
 70
     3
  9
$SHADEDIF
 70
    70
  9
$TILEMODE
 70
     1
  9
$MAXACTVP
 70
    16
  9
$PLIMCHECK
 70
     0
  9
$PEXTMIN
 10
1.0000000000000000E+020
 20
1.0000000000000000E+020
 30
1.0000000000000000E+020
  9
$PEXTMAX
 10
-1.0000000000000000E+020
 20
-1.0000000000000000E+020
 30
-1.0000000000000000E+020
  9
$PLIMMIN
 10
0.0
 20
0.0
  9
$PLIMMAX
 10
12.0
 20
9.0
  9
$UNITMODE
 70
     0
  9
$VISRETAIN
 70
     0
  9
$PLINEGEN
 70
     0
  9
$PSLTSCALE
 70
     0
  0
ENDSEC
  0
SECTION
  2
TABLES
  0
TABLE
  2
VPORT
 70
     1
  0
VPORT
  2
*ACTIVE
 70
     0
 10
0.0
 20
0.0
 11
1.0
 21
1.0
 12
235.63977746870651
 22
135.0
 13
0.0
 23
0.0
 14
10.0
 24
10.0
 15
10.0
 25
10.0
 16
0.0
 26
0.0
 36
1.0
 17
0.0
 27
0.0
 37
0.0
 40
270.0
 41
1.7454798331015291
 42
50.0
 43
0.0
 44
0.0
 50
0.0
 51
0.0
 71
     0
 72
   500
 73
     1
 74
     0
 75
     0
 76
     0
 77
     0
 78
     2
  0
ENDTAB
  0
TABLE
  2
LTYPE
 70
     3
  0
LTYPE
  2
CONTINUOUS
 70
     0
  3
Solid Line
 72
    65
 73
     0
 40
0.0
  0
LTYPE
  2
CENTER
 70
     0
  3
____ _ ____ _ ____ _ ____ _ ____ _ ____ _ ____
 72
    65
 73
     4
 40
2.0
 49
1.25
 49
-0.25
 49
0.25
 49
-0.25
  0
LTYPE
  2
PHANTOM2
 70
     0
  3
___ _ _ ___ _ _ ___ _ _ ___ _ _
 72
    65
 73
     6
 40
1.25
 49
0.625
 49
-0.125
 49
0.125
 49
-0.125
 49
0.125
 49
-0.125
  0
ENDTAB
  0
TABLE
  2
LAYER
 70
     4
  0
LAYER
  2
0
 70
     0
 62
     7
  6
CONTINUOUS
  0
LAYER
  2
1
 70
     0
 62
     1
  6
CENTER
  0
LAYER
  2
3
 70
     0
 62
     3
  6
CONTINUOUS
  0
LAYER
  2
DEFPOINTS
 70
     0
 62
     7
  6
CONTINUOUS
  0
ENDTAB
  0
TABLE
  2
STYLE
 70
     2
  0
STYLE
  2
STANDARD
 70
     0
 40
0.0
 41
1.0
 50
0.0
 71
     0
 42
4.000000000000048
  3
SIMPLEX
  4
BIGFONT
  0
STYLE
  2
STANDARD1
 70
     0
 40
0.0
 41
1.0
 50
0.0
 71
     0
 42
3.0
  3
txt
  4

  0
ENDTAB
  0
TABLE
  2
VIEW
 70
     1
  0
VIEW
  2
ALL
 70
     0
 40
179.5384664489153
 10
146.94997169852391
 20
89.769233224457665
 41
0.0
 11
0.0
 21
0.0
 31
1.0
 12
0.0
 22
0.0
 32
0.0
 42
50.0
 43
0.0
 44
0.0
 50
0.0
 71
     0
  0
ENDTAB
  0
TABLE
  2
UCS
 70
     0
  0
ENDTAB
  0
TABLE
  2
APPID
 70
     4
  0
APPID
  2
ACAD
 70
     0
  0
APPID
  2
ACAD_MLEADERVER
 70
     0
  0
APPID
  2
ACAD_NAV_VCDISPLAY
 70
     0
  0
APPID
  2
ACAD_EXEMPT_FROM_CAD_STANDARDS
 70
     0
  0
ENDTAB
  0
TABLE
  2
DIMSTYLE
 70
     1
  0
DIMSTYLE
  2
STANDARD
 70
     0
  3

  4

  5

  6

  7

 40
1.0
 41
0.18
 42
0.0625
 43
0.38
 44
0.18
 45
0.0
 46
0.0
 47
0.0
 48
0.0
140
0.18
141
0.09
142
0.0
143
25.399999999999999
144
1.0
145
0.0
146
1.0
147
0.09
 71
     0
 72
     0
 73
     1
 74
     1
 75
     0
 76
     0
 77
     0
 78
     0
170
     0
171
     2
172
     0
173
     0
174
     0
175
     0
176
     0
177
     0
178
     0
  0
ENDTAB
  0
ENDSEC
  0
SECTION
  2
BLOCKS
  0
BLOCK
  8
0
  2
$MODEL_SPACE
 70
     0
 10
0.0
 20
0.0
 30
0.0
  3
$MODEL_SPACE
  1

  0
ENDBLK
  5
644
  8
0
  0
BLOCK
 67
     1
  8
0
  2
$PAPER_SPACE
 70
     0
 10
0.0
 20
0.0
 30
0.0
  3
$PAPER_SPACE
  1

  0
ENDBLK
  5
642
 67
     1
  8
0
  0
ENDSEC
  0
SECTION
  2
ENTITIES
  0
TEXT
  5
43CB
  8
0
 62
     3
 10
0.0
 20
0.0
 30
0.0
 40
10.0
  1
QCSQ2512-OG
  7
STANDARD1
  0
LINE
  5
A46A
  8
0
 10
77.631305158138275
 20
89.999999105930314
 30
0.0
 11
72.368695586919785
 21
89.999999105930314
 31
0.0
  0
ARC
  5
A46B
  8
0
 10
70.263470305480823
 20
77.5
 30
0.0
 40
0.5
 50
176.99999999999761
 51
270.0000000000008
  0
ARC
  5
A46C
  8
0
 10
79.736530439577237
 20
77.5
 30
0.0
 40
0.5
 50
270.0000000000008
 51
3.0000000000023421
  0
LINE
  5
A46D
  8
0
 10
70.339293405413613
 20
88.500450551509843
 30
0.0
 11
69.764155615121126
 21
77.526168152689934
 31
0.0
  0
LINE
  5
A46E
  8
0
 10
80.235845129936934
 20
77.526168152689934
 30
0.0
 11
79.660704080015421
 21
88.500510156154633
 31
0.0
  0
ARC
  5
A46F
  8
0
 10
71.330167293349831
 20
88.474233093121143
 30
0.0
 40
0.9912189899733213
 50
114.12513731996469
 51
178.48091973052789
  0
ARC
  5
A470
  8
0
 10
78.671930047103544
 20
88.475567109176097
 30
0.0
 40
0.9890885924695476
 50
1.4450503749596291
 51
65.861575310539763
  0
ARC
  5
A471
  8
0
 10
115.3258967505022
 20
161.4837076245347
 30
0.0
 40
80.704608440828181
 50
242.51827340929239
 51
243.31003442320139
  0
ARC
  5
A472
  8
0
 10
77.619734316040876
 20
88.999997081707136
 30
0.0
 40
1.000002914593451
 50
62.370457636264497
 51
89.334556575851082
  0
ARC
  5
A474
  8
0
 10
72.380700742283025
 20
88.998854120375483
 30
0.0
 40
1.001216962429675
 50
90.687025134322127
 51
117.6212293816824
  0
ARC
  5
A475
  8
0
 10
33.463577000948888
 20
163.8481074994146
 30
0.0
 40
83.360823278899304
 50
296.70449838417818
 51
297.46993168222963
  0
LINE
  5
A476
  8
0
 10
67.145846970379353
 20
77.482550591230392
 30
0.0
 11
67.197619192302227
 21
76.000000536441803
 31
0.0
  0
LINE
  5
A477
  8
0
 10
82.802381552755833
 20
76.000000536441803
 30
0.0
 11
82.854153774678693
 21
77.482550591230392
 31
0.0
  0
ARC
  5
A478
  8
0
 10
67.645542836203219
 20
77.5
 30
0.0
 40
0.5000000000000152
 50
105.00000000000161
 51
182.0000000000004
  0
ARC
  5
A479
  8
0
 10
82.354457908854826
 20
77.5
 30
0.0
 40
0.5000000000000152
 50
358.0000000000029
 51
74.999999999998408
  0
LINE
  5
A47A
  8
0
 10
82.483867369592176
 20
77.982963249087334
 30
0.0
 11
80.179546680301414
 21
78.600404039025307
 31
0.0
  0
LINE
  5
A47B
  8
0
 10
69.820454064756632
 20
78.600404039025307
 30
0.0
 11
67.516133375465856
 21
77.982963249087334
 31
0.0
  0
LINE
  5
A47C
  8
0
 10
70.339296665042625
 20
88.500510156154633
 30
0.0
 11
70.339293405413613
 21
88.500450551509843
 31
0.0
  0
ARC
  5
A47E
  8
0
 10
72.826170818114875
 20
77.477425988402047
 30
0.0
 40
0.4784188342363678
 50
174.1524577129945
 51
266.30680095272339
  0
ARC
  5
A480
  8
0
 10
77.173829926943185
 20
77.477425988402047
 30
0.0
 40
0.4784188342363678
 50
273.6931990472782
 51
5.8475422870054317
  0
LINE
  5
A481
  8
0
 10
72.809954360127435
 20
87.366177886724472
 30
0.0
 11
72.350241430103765
 21
77.526168152689934
 31
0.0
  0
ARC
  5
A482
  8
0
 10
75.000000372529016
 20
98.782081205270856
 30
0.0
 40
11.624076312328359
 50
259.14022376246038
 51
280.85977623754121
  0
LINE
  5
A483
  8
0
 10
77.190046384930611
 20
87.366177886724472
 30
0.0
 11
77.649759314954281
 21
77.526168152689934
 31
0.0
  0
ARC
  5
A491
  8
0
 10
28.818132338031958
 20
196.8875556954209
 30
0.0
 40
119.7279176536357
 50
293.82943730024363
 51
295.08200774298382
  0
ARC
  5
A494
  8
0
 10
121.18028816525251
 20
196.88408105808921
 30
0.0
 40
119.7241007795492
 50
244.91797228988611
 51
246.1705826668906
  0
LINE
  5
A497
  8
0
 10
79.737367311163453
 20
77.000000700354519
 30
0.0
 11
70.263470243662596
 21
77.000000700354576
 31
0.0
  0
LINE
  5
A49D
  8
0
 10
100.000000745058
 20
50.0
 30
0.0
 11
50.0
 21
50.0
 31
0.0
  0
ARC
  5
A4A8
  8
0
 10
50.500000372529009
 20
71.0
 30
0.0
 40
0.5
 50
90.0
 51
180.0
  0
ARC
  5
A4B2
  8
0
 10
63.450841470127052
 20
75.51462160461864
 30
0.0
 40
0.4856283531028325
 50
91.836415518616192
 51
181.7254144840513
  0
LINE
  5
A4B5
  8
0
 10
62.965433299541473
 20
71.999914199113846
 30
0.0
 11
62.965433299541473
 21
75.499999523162842
 31
0.0
  0
POLYLINE
  5
A4D0
  8
0
 10
62.495586785746347
 20
71.499957551572464
 30
0.0
 66
     1
 70
     8
  0
VERTEX
  8
0
  5
B46D
 10
62.4956
 20
71.5000
 30
0.000000
  70
    32
  0
VERTEX
  8
0
  5
B46E
 10
62.4955
 20
71.5000
 30
0.000000
  70
    32
  0
VERTEX
  8
0
  5
B46F
 10
62.4955
 20
71.5000
 30
0.000000
  70
    32
  0
VERTEX
  8
0
  5
B470
 10
62.4955
 20
71.5000
 30
0.000000
  70
    32
  0
VERTEX
  8
0
  5
B471
 10
62.4954
 20
71.5000
 30
0.000000
  70
    32
  0
VERTEX
  8
0
  5
B472
 10
62.4954
 20
71.5000
 30
0.000000
  70
    32
  0
VERTEX
  8
0
  5
B473
 10
62.4954
 20
71.5000
 30
0.000000
  70
    32
  0
VERTEX
  8
0
  5
B474
 10
62.4953
 20
71.5000
 30
0.000000
  70
    32
  0
VERTEX
  8
0
  5
B475
 10
62.4953
 20
71.5000
 30
0.000000
  70
    32
  0
VERTEX
  8
0
  5
B476
 10
62.4953
 20
71.5000
 30
0.000000
  70
    32
  0
VERTEX
  8
0
  5
B477
 10
62.4952
 20
71.5000
 30
0.000000
  70
    32
  0
VERTEX
  8
0
  5
B478
 10
62.4952
 20
71.5000
 30
0.000000
  70
    32
  0
VERTEX
  8
0
  5
B479
 10
62.4951
 20
71.5000
 30
0.000000
  70
    32
  0
VERTEX
  8
0
  5
B47A
 10
62.4951
 20
71.5000
 30
0.000000
  70
    32
  0
VERTEX
  8
0
  5
B47B
 10
62.4951
 20
71.5000
 30
0.000000
  70
    32
  0
VERTEX
  8
0
  5
B47C
 10
62.4950
 20
71.5000
 30
0.000000
  70
    32
  0
VERTEX
  8
0
  5
B47D
 10
62.4950
 20
71.5000
 30
0.000000
  70
    32
  0
VERTEX
  8
0
  5
B47E
 10
62.4950
 20
71.5000
 30
0.000000
  70
    32
  0
VERTEX
  8
0
  5
B47F
 10
62.4949
 20
71.5000
 30
0.000000
  70
    32
  0
VERTEX
  8
0
  5
B480
 10
62.4949
 20
71.5000
 30
0.000000
  70
    32
  0
VERTEX
  8
0
  5
B481
 10
62.4948
 20
71.5000
 30
0.000000
  70
    32
  0
VERTEX
  8
0
  5
B482
 10
62.4948
 20
71.5000
 30
0.000000
  70
    32
  0
VERTEX
  8
0
  5
B483
 10
62.4948
 20
71.5000
 30
0.000000
  70
    32
  0
VERTEX
  8
0
  5
B484
 10
62.4947
 20
71.5000
 30
0.000000
  70
    32
  0
VERTEX
  8
0
  5
B485
 10
62.4947
 20
71.5000
 30
0.000000
  70
    32
  0
VERTEX
  8
0
  5
B486
 10
62.4947
 20
71.5000
 30
0.000000
  70
    32
  0
VERTEX
  8
0
  5
B487
 10
62.4946
 20
71.5000
 30
0.000000
  70
    32
  0
VERTEX
  8
0
  5
B488
 10
62.4946
 20
71.5000
 30
0.000000
  70
    32
  0
VERTEX
  8
0
  5
B489
 10
62.4945
 20
71.5000
 30
0.000000
  70
    32
  0
VERTEX
  8
0
  5
B48A
 10
62.4945
 20
71.5000
 30
0.000000
  70
    32
  0
VERTEX
  8
0
  5
B48B
 10
62.4945
 20
71.5000
 30
0.000000
  70
    32
  0
VERTEX
  8
0
  5
B48C
 10
62.4944
 20
71.5000
 30
0.000000
  70
    32
  0
VERTEX
  8
0
  5
B48D
 10
62.4944
 20
71.5000
 30
0.000000
  70
    32
  0
VERTEX
  8
0
  5
B48E
 10
62.4944
 20
71.5000
 30
0.000000
  70
    32
  0
VERTEX
  8
0
  5
B48F
 10
62.4943
 20
71.5000
 30
0.000000
  70
    32
  0
VERTEX
  8
0
  5
B490
 10
62.4943
 20
71.5000
 30
0.000000
  70
    32
  0
VERTEX
  8
0
  5
B491
 10
62.4943
 20
71.5000
 30
0.000000
  70
    32
  0
VERTEX
  8
0
  5
B492
 10
62.4942
 20
71.5000
 30
0.000000
  70
    32
  0
VERTEX
  8
0
  5
B493
 10
62.4942
 20
71.5000
 30
0.000000
  70
    32
  0
VERTEX
  8
0
  5
B494
 10
62.4941
 20
71.5000
 30
0.000000
  70
    32
  0
VERTEX
  8
0
  5
B495
 10
62.4941
 20
71.5000
 30
0.000000
  70
    32
  0
VERTEX
  8
0
  5
B496
 10
62.4941
 20
71.5000
 30
0.000000
  70
    32
  0
VERTEX
  8
0
  5
B497
 10
62.4940
 20
71.5000
 30
0.000000
  70
    32
  0
VERTEX
  8
0
  5
B498
 10
62.4940
 20
71.5000
 30
0.000000
  70
    32
  0
VERTEX
  8
0
  5
B499
 10
62.4940
 20
71.5000
 30
0.000000
  70
    32
  0
VERTEX
  8
0
  5
B49A
 10
62.4939
 20
71.5000
 30
0.000000
  70
    32
  0
VERTEX
  8
0
  5
B49B
 10
62.4939
 20
71.5000
 30
0.000000
  70
    32
  0
VERTEX
  8
0
  5
B49C
 10
62.4938
 20
71.5000
 30
0.000000
  70
    32
  0
VERTEX
  8
0
  5
B49D
 10
62.4938
 20
71.5000
 30
0.000000
  70
    32
  0
VERTEX
  8
0
  5
B49E
 10
62.4938
 20
71.5000
 30
0.000000
  70
    32
  0
VERTEX
  8
0
  5
B49F
 10
62.4937
 20
71.5000
 30
0.000000
  70
    32
  0
VERTEX
  8
0
  5
B4A0
 10
62.4937
 20
71.5000
 30
0.000000
  70
    32
  0
VERTEX
  8
0
  5
B4A1
 10
62.4937
 20
71.5000
 30
0.000000
  70
    32
  0
VERTEX
  8
0
  5
B4A2
 10
62.4936
 20
71.5000
 30
0.000000
  70
    32
  0
VERTEX
  8
0
  5
B4A3
 10
62.4936
 20
71.5000
 30
0.000000
  70
    32
  0
VERTEX
  8
0
  5
B4A4
 10
62.4935
 20
71.5000
 30
0.000000
  70
    32
  0
VERTEX
  8
0
  5
B4A5
 10
62.4935
 20
71.5000
 30
0.000000
  70
    32
  0
VERTEX
  8
0
  5
B4A6
 10
62.4935
 20
71.5000
 30
0.000000
  70
    32
  0
VERTEX
  8
0
  5
B4A7
 10
62.4934
 20
71.5000
 30
0.000000
  70
    32
  0
VERTEX
  8
0
  5
B4A8
 10
62.4934
 20
71.5000
 30
0.000000
  70
    32
  0
VERTEX
  8
0
  5
B4A9
 10
62.4934
 20
71.5000
 30
0.000000
  70
    32
  0
VERTEX
  8
0
  5
B4AA
 10
62.4933
 20
71.5000
 30
0.000000
  70
    32
  0
VERTEX
  8
0
  5
B4AB
 10
62.4933
 20
71.5000
 30
0.000000
  70
    32
  0
VERTEX
  8
0
  5
B4AC
 10
62.4933
 20
71.5000
 30
0.000000
  70
    32
  0
VERTEX
  8
0
  5
B4AD
 10
62.4932
 20
71.5000
 30
0.000000
  70
    32
  0
VERTEX
  8
0
  5
B4AE
 10
62.4932
 20
71.5000
 30
0.000000
  70
    32
  0
VERTEX
  8
0
  5
B4AF
 10
62.4931
 20
71.5000
 30
0.000000
  70
    32
  0
VERTEX
  8
0
  5
B4B0
 10
62.4931
 20
71.5000
 30
0.000000
  70
    32
  0
VERTEX
  8
0
  5
B4B1
 10
62.4931
 20
71.5000
 30
0.000000
  70
    32
  0
VERTEX
  8
0
  5
B4B2
 10
62.4930
 20
71.5000
 30
0.000000
  70
    32
  0
VERTEX
  8
0
  5
B4B3
 10
62.4930
 20
71.5000
 30
0.000000
  70
    32
  0
VERTEX
  8
0
  5
B4B4
 10
62.4930
 20
71.5000
 30
0.000000
  70
    32
  0
VERTEX
  8
0
  5
B4B5
 10
62.4929
 20
71.5000
 30
0.000000
  70
    32
  0
VERTEX
  8
0
  5
B4B6
 10
62.4929
 20
71.5000
 30
0.000000
  70
    32
  0
VERTEX
  8
0
  5
B4B7
 10
62.4928
 20
71.5000
 30
0.000000
  70
    32
  0
VERTEX
  8
0
  5
B4B8
 10
62.4928
 20
71.5000
 30
0.000000
  70
    32
  0
VERTEX
  8
0
  5
B4B9
 10
62.4928
 20
71.5000
 30
0.000000
  70
    32
  0
VERTEX
  8
0
  5
B4BA
 10
62.4927
 20
71.5000
 30
0.000000
  70
    32
  0
VERTEX
  8
0
  5
B4BB
 10
62.4927
 20
71.5000
 30
0.000000
  70
    32
  0
VERTEX
  8
0
  5
B4BC
 10
62.4927
 20
71.5000
 30
0.000000
  70
    32
  0
VERTEX
  8
0
  5
B4BD
 10
62.4926
 20
71.5000
 30
0.000000
  70
    32
  0
VERTEX
  8
0
  5
B4BE
 10
62.4926
 20
71.5000
 30
0.000000
  70
    32
  0
VERTEX
  8
0
  5
B4BF
 10
62.4925
 20
71.5000
 30
0.000000
  70
    32
  0
VERTEX
  8
0
  5
B4C0
 10
62.4925
 20
71.5000
 30
0.000000
  70
    32
  0
VERTEX
  8
0
  5
B4C1
 10
62.4925
 20
71.5000
 30
0.000000
  70
    32
  0
VERTEX
  8
0
  5
B4C2
 10
62.4924
 20
71.5000
 30
0.000000
  70
    32
  0
VERTEX
  8
0
  5
B4C3
 10
62.4924
 20
71.5000
 30
0.000000
  70
    32
  0
VERTEX
  8
0
  5
B4C4
 10
62.4924
 20
71.5000
 30
0.000000
  70
    32
  0
VERTEX
  8
0
  5
B4C5
 10
62.4923
 20
71.5000
 30
0.000000
  70
    32
  0
VERTEX
  8
0
  5
B4C6
 10
62.4923
 20
71.5000
 30
0.000000
  70
    32
  0
VERTEX
  8
0
  5
B4C7
 10
62.4923
 20
71.5000
 30
0.000000
  70
    32
  0
VERTEX
  8
0
  5
B4C8
 10
62.4922
 20
71.5000
 30
0.000000
  70
    32
  0
VERTEX
  8
0
  5
B4C9
 10
62.4922
 20
71.5000
 30
0.000000
  70
    32
  0
VERTEX
  8
0
  5
B4CA
 10
62.4921
 20
71.5000
 30
0.000000
  70
    32
  0
VERTEX
  8
0
  5
B4CB
 10
62.4921
 20
71.5000
 30
0.000000
  70
    32
  0
VERTEX
  8
0
  5
B4CC
 10
62.4921
 20
71.5000
 30
0.000000
  70
    32
  0
VERTEX
  8
0
  5
B4CD
 10
62.4920
 20
71.5000
 30
0.000000
  70
    32
  0
VERTEX
  8
0
  5
B4CE
 10
62.4920
 20
71.5000
 30
0.000000
  70
    32
  0
VERTEX
  8
0
  5
B4CF
 10
62.4920
 20
71.5000
 30
0.000000
  70
    32
  0
VERTEX
  8
0
  5
B4D0
 10
62.4919
 20
71.5000
 30
0.000000
  70
    32
  0
VERTEX
  8
0
  5
B4D1
 10
62.4919
 20
71.5000
 30
0.000000
  70
    32
  0
VERTEX
  8
0
  5
B4D2
 10
62.4918
 20
71.5000
 30
0.000000
  70
    32
  0
VERTEX
  8
0
  5
B4D3
 10
62.4918
 20
71.5000
 30
0.000000
  70
    32
  0
VERTEX
  8
0
  5
B4D4
 10
62.4918
 20
71.5000
 30
0.000000
  70
    32
  0
VERTEX
  8
0
  5
B4D5
 10
62.4917
 20
71.5000
 30
0.000000
  70
    32
  0
VERTEX
  8
0
  5
B4D6
 10
62.4917
 20
71.5000
 30
0.000000
  70
    32
  0
VERTEX
  8
0
  5
B4D7
 10
62.4917
 20
71.5000
 30
0.000000
  70
    32
  0
VERTEX
  8
0
  5
B4D8
 10
62.4916
 20
71.5000
 30
0.000000
  70
    32
  0
VERTEX
  8
0
  5
B4D9
 10
62.4916
 20
71.5000
 30
0.000000
  70
    32
  0
VERTEX
  8
0
  5
B4DA
 10
62.4915
 20
71.5000
 30
0.000000
  70
    32
  0
VERTEX
  8
0
  5
B4DB
 10
62.4915
 20
71.5000
 30
0.000000
  70
    32
  0
VERTEX
  8
0
  5
B4DC
 10
62.4915
 20
71.5000
 30
0.000000
  70
    32
  0
VERTEX
  8
0
  5
B4DD
 10
62.4914
 20
71.5000
 30
0.000000
  70
    32
  0
VERTEX
  8
0
  5
B4DE
 10
62.4914
 20
71.5000
 30
0.000000
  70
    32
  0
VERTEX
  8
0
  5
B4DF
 10
62.4914
 20
71.5000
 30
0.000000
  70
    32
  0
VERTEX
  8
0
  5
B4E0
 10
62.4913
 20
71.5000
 30
0.000000
  70
    32
  0
VERTEX
  8
0
  5
B4E1
 10
62.4913
 20
71.5000
 30
0.000000
  70
    32
  0
VERTEX
  8
0
  5
B4E2
 10
62.4913
 20
71.5000
 30
0.000000
  70
    32
  0
VERTEX
  8
0
  5
B4E3
 10
62.4912
 20
71.5000
 30
0.000000
  70
    32
  0
VERTEX
  8
0
  5
B4E4
 10
62.4912
 20
71.5000
 30
0.000000
  70
    32
  0
VERTEX
  8
0
  5
B4E5
 10
62.4911
 20
71.5000
 30
0.000000
  70
    32
  0
VERTEX
  8
0
  5
B4E6
 10
62.4911
 20
71.5000
 30
0.000000
  70
    32
  0
VERTEX
  8
0
  5
B4E7
 10
62.4911
 20
71.5000
 30
0.000000
  70
    32
  0
VERTEX
  8
0
  5
B4E8
 10
62.4910
 20
71.5000
 30
0.000000
  70
    32
  0
VERTEX
  8
0
  5
B4E9
 10
62.4910
 20
71.5000
 30
0.000000
  70
    32
  0
VERTEX
  8
0
  5
B4EA
 10
62.4910
 20
71.5000
 30
0.000000
  70
    32
  0
VERTEX
  8
0
  5
B4EB
 10
62.4909
 20
71.5000
 30
0.000000
  70
    32
  0
VERTEX
  8
0
  5
B4EC
 10
62.4909
 20
71.5000
 30
0.000000
  70
    32
  0
VERTEX
  8
0
  5
B4ED
 10
62.4908
 20
71.5000
 30
0.000000
  70
    32
  0
SEQEND
  8
0
  5
B4EE
  0
LINE
  5
A4D7
  8
0
 10
74.500000348780304
 20
76.000000536441803
 30
0.0
 11
74.500000348780318
 21
50.000000000000057
 31
0.0
  0
ARC
  5
A4D8
  8
0
 10
62.47742459011944
 20
71.987779467175926
 30
0.0
 40
0.4881595560787109
 50
272.1321912206426
 51
1.424412450812629
  0
LINE
  5
A4DA
  8
0
 10
75.50000039627777
 20
50.000000000000057
 30
0.0
 11
75.500000396277755
 21
76.000000536441803
 31
0.0
  0
LINE
  5
A4DD
  8
0
 10
74.500000348780304
 20
75.599999353289604
 30
0.0
 11
75.500000396277755
 21
75.599999353289604
 31
0.0
  0
LINE
  5
A50D
  8
0
 10
100.000000745058
 20
75.499999523162842
 30
0.0
 11
100.000000745058
 21
50.0
 31
0.0
  0
LINE
  5
A50F
  8
0
 10
50.0
 20
50.0
 30
0.0
 11
50.0
 21
75.499999523162842
 31
0.0
  0
ARC
  5
A512
  8
0
 10
50.500000372529009
 20
75.5
 30
0.0
 40
0.5
 50
90.0
 51
180.0
  0
LINE
  5
A513
  8
0
 10
50.500001013278961
 20
76.000000536441803
 30
0.0
 11
74.500000348780304
 21
76.000000536441803
 31
0.0
  0
LINE
  5
A518
  8
0
 10
70.427404437214136
 20
88.449745625257492
 30
0.0
 11
70.339296665042554
 21
88.500510156154633
 31
0.0
  0
POLYLINE
  5
A519
  8
0
 66
     1
 10
0.0
 20
0.0
 30
0.0
 70
   128
  0
VERTEX
  5
B447
  8
0
 10
79.660704080015421
 20
88.500510156154633
 30
0.0
  0
VERTEX
  5
B448
  8
0
 10
79.647542163729653
 20
88.479875773191452
 30
0.0
  0
VERTEX
  5
B449
  8
0
 10
79.572596307843924
 20
88.449745625257492
 30
0.0
  0
SEQEND
  5
B44A
  8
0
  0
LINE
  5
A51E
  8
0
 10
80.236226040869951
 20
77.482550591230392
 30
0.0
 11
82.854153774678693
 21
77.482550591230392
 31
0.0
  0
LINE
  5
A51F
  8
0
 10
67.145846970379353
 20
77.482550591230392
 30
0.0
 11
69.763774704188094
 21
77.482550591230392
 31
0.0
  0
LINE
  5
A520
  8
0
 10
67.516133375465856
 20
77.982963249087334
 30
0.0
 11
69.788095261901617
 21
77.982963249087334
 31
0.0
  0
LINE
  5
A521
  8
0
 10
80.211905483156443
 20
77.982963249087334
 30
0.0
 11
82.483867369592176
 21
77.982963249087334
 31
0.0
  0
ARC
  5
A530
  8
0
 10
75.000000372529016
 20
151.0000009089708
 30
0.0
 40
7.8544575363258362
 50
129.62047151403391
 51
230.37924051956909
  0
ARC
  5
A531
  8
0
 10
75.000000372529016
 20
151.0000009089708
 30
0.0
 40
7.8544575363258264
 50
309.62747199712197
 51
50.377699469977152
  0
ARC
  5
A543
  8
0
 10
36.720092432916722
 20
151.0000009089708
 30
0.0
 40
34.661253009169492
 50
346.37008089203817
 51
13.629919107965071
  0
ARC
  5
A545
  8
0
 10
65.55773510581902
 20
156.0043441031076
 30
0.0
 40
4.8515519209703406
 50
8.2794886746057106
 51
18.297144980018391
  0
ARC
  5
A546
  8
0
 10
35.750000372529001
 20
151.0000009089708
 30
0.0
 40
35.027575295263212
 50
10.73997666579988
 51
13.262046024480791
  0
ARC
  5
A549
  8
0
 10
35.750000372529001
 20
151.0000009089708
 30
0.0
 40
35.027575295263212
 50
346.7379539755226
 51
349.26002333420342
  0
ARC
  5
A54A
  8
0
 10
66.970295932482983
 20
145.662046600884
 30
0.0
 40
3.4080298026730289
 50
339.57190568389319
 51
353.85146066148491
  0
ARC
  5
A54B
  8
0
 10
38.511047240890854
 20
151.0000009089708
 30
0.0
 40
32.354262118768908
 50
349.84762453013008
 51
10.15237546986995
  0
ARC
  5
A54C
  8
0
 10
113.2799083121413
 20
151.0000009089708
 30
0.0
 40
34.661253009169492
 50
166.37008089203491
 51
193.62991910796501
  0
ARC
  5
A550
  8
0
 10
84.442265639239025
 20
145.99565771483401
 30
0.0
 40
4.8515519209703406
 50
188.27948867460901
 51
198.2971449800184
  0
ARC
  5
A551
  8
0
 10
114.250000372529
 20
151.0000009089708
 30
0.0
 40
35.027575295263233
 50
190.7399766657999
 51
193.2620460244807
  0
ARC
  5
A554
  8
0
 10
114.250000372529
 20
151.0000009089708
 30
0.0
 40
35.027575295263212
 50
166.73795397551919
 51
169.2600233342034
  0
ARC
  5
A555
  8
0
 10
83.029704812575062
 20
156.3379552170575
 30
0.0
 40
3.408029802673032
 50
159.57190568389331
 51
173.85146066148161
  0
ARC
  5
A556
  8
0
 10
111.4889535041672
 20
151.0000009089708
 30
0.0
 40
32.354262118768958
 50
169.84762453012999
 51
190.15237546987319
  0
ARC
  5
A559
  8
0
 10
104.2717769014003
 20
151.0286723803508
 30
0.0
 40
35.110169676799089
 50
153.64860025877681
 51
164.56819541289721
  0
ARC
  5
A565
  8
0
 10
45.728322417679962
 20
151.02871000555561
 30
0.0
 40
35.110064644846652
 50
15.431788204472561
 51
26.351416123855671
  0
ARC
  5
A567
  8
0
 10
104.2716783273781
 20
150.9712918123858
 30
0.0
 40
35.110064644846652
 50
195.4317882044725
 51
206.3514161238557
  0
ARC
  5
A56A
  8
0
 10
45.728223843657773
 20
150.97132943759061
 30
0.0
 40
35.110169676799082
 50
333.64860025877692
 51
344.56819541289718
  0
POLYLINE
  5
A56D
  8
0
 66
     1
 10
0.0
 20
0.0
 30
0.0
 70
   128
  0
VERTEX
  5
B44B
  8
0
 10
70.405218005180345
 20
159.16791222989551
 30
0.0
  0
VERTEX
  5
B44C
  8
0
 10
70.352458581328392
 20
159.9783891811966
 30
0.0
  0
VERTEX
  5
B44D
  8
0
 10
70.427404437214136
 20
160.3711809962987
 30
0.0
  0
SEQEND
  5
B44E
  8
0
  0
POLYLINE
  5
A56E
  8
0
 66
     1
 10
0.0
 20
0.0
 30
0.0
 70
   128
  0
VERTEX
  5
B44F
  8
0
 10
79.594782739877701
 20
142.83208958804599
 30
0.0
  0
VERTEX
  5
B450
  8
0
 10
79.647542163729653
 20
142.02161263674489
 30
0.0
  0
VERTEX
  5
B451
  8
0
 10
79.572596307843924
 20
141.62882082164279
 30
0.0
  0
SEQEND
  5
B452
  8
0
  0
POLYLINE
  5
A56F
  8
0
 66
     1
 10
0.0
 20
0.0
 30
0.0
 70
   128
  0
VERTEX
  5
B453
  8
0
 10
79.572596307843924
 20
160.3711809962987
 30
0.0
  0
VERTEX
  5
B454
  8
0
 10
79.65524373576045
 20
159.56387706100929
 30
0.0
  0
VERTEX
  5
B455
  8
0
 10
79.594782739877701
 20
159.16791222989551
 30
0.0
  0
SEQEND
  5
B456
  8
0
  0
POLYLINE
  5
A570
  8
0
 66
     1
 10
0.0
 20
0.0
 30
0.0
 70
   128
  0
VERTEX
  5
B457
  8
0
 10
70.427404437214136
 20
141.62882082164279
 30
0.0
  0
VERTEX
  5
B458
  8
0
 10
70.344757009297595
 20
142.4361247569322
 30
0.0
  0
VERTEX
  5
B459
  8
0
 10
70.405218005180345
 20
142.83208958804599
 30
0.0
  0
SEQEND
  5
B45A
  8
0
  0
ARC
  5
A571
  8
0
 10
103.5263040237208
 20
151.0000009089708
 30
0.0
 40
34.97242470473681
 50
153.0556418195242
 51
164.1917689582684
  0
ARC
  5
A574
  8
0
 10
46.473696721337191
 20
151.0000009089708
 30
0.0
 40
34.972424704736831
 50
15.808231041731609
 51
26.944358180475739
  0
ARC
  5
A577
  8
0
 10
46.473696721337191
 20
151.0000009089708
 30
0.0
 40
34.972424704736831
 50
333.05564181952423
 51
344.19176895827172
  0
ARC
  5
A57A
  8
0
 10
103.5263040237208
 20
151.0000009089708
 30
0.0
 40
34.972424704736831
 50
195.8082310417316
 51
206.94435818047569
  0
ARC
  5
A57D
  8
0
 10
72.736580242840347
 20
159.71739211833381
 30
0.0
 40
2.9724247047368091
 50
164.1917689582684
 51
193.2620460244807
  0
ARC
  5
A57E
  8
0
 10
77.263420502217713
 20
142.28260969960769
 30
0.0
 40
2.972424704736814
 50
344.19176895827172
 51
13.262046024480791
  0
ARC
  5
A57F
  8
0
 10
77.263420502217713
 20
159.71739211833381
 30
0.0
 40
2.9724247047368091
 50
346.7379539755226
 51
15.808231041731609
  0
ARC
  5
A580
  8
0
 10
72.736580242840347
 20
142.28260969960769
 30
0.0
 40
2.972424704736814
 50
166.73795397551919
 51
195.8082310417316
  0
ARC
  5
A581
  8
0
 10
75.000000372529016
 20
165.51764928654549
 30
0.0
 40
2.448785309399224
 50
26.576253205921159
 51
153.4237467940788
  0
ARC
  5
A582
  8
0
 10
75.000000372529016
 20
136.482352531396
 30
0.0
 40
2.4487853093992502
 50
206.57625320592129
 51
333.42374679407868
  0
ARC
  5
A583
  8
0
 10
75.000000372529016
 20
165.5000009089708
 30
0.0
 40
2.9724247047368211
 50
26.944358180475739
 51
153.0556418195242
  0
ARC
  5
A584
  8
0
 10
75.000000372529016
 20
136.5000009089708
 30
0.0
 40
2.9724247047368211
 50
206.94435818047589
 51
333.05564181952423
  0
ARC
  5
A58E
  8
0
 10
80.325620022107856
 20
157.43478821456949
 30
0.0
 40
0.4983112722810252
 50
169.28159327321541
 51
230.54768323645681
  0
ARC
  5
A592
  8
0
 10
69.67183130564996
 20
157.43499287539601
 30
0.0
 40
0.5007786020988999
 50
309.717672548064
 51
10.64115059604482
  0
ARC
  5
A594
  8
0
 10
80.325629754085909
 20
144.56521282211341
 30
0.0
 40
0.4983206891726029
 50
129.3716121316061
 51
190.7181103597747
  0
LINE
  5
A595
  8
0
 10
69.991831388324485
 20
157.04979272559279
 30
0.0
 11
69.991262815892696
 21
157.04981647431839
 31
0.0
  0
ARC
  5
A59E
  8
0
 10
69.67185334417546
 20
144.5642978728921
 30
0.0
 40
0.5006262161652203
 50
349.43836067434017
 51
50.366752603986328
  0
LINE
  5
A5B7
  8
0
 10
75.50000039627777
 20
126.0000005364418
 30
0.0
 11
75.500000396277755
 21
133.5699311825681
 31
0.0
  0
ARC
  5
A5B8
  8
0
 10
75.000000372529016
 20
151.0000009089708
 30
0.0
 40
7.9999999999999982
 50
307.14598172449001
 51
52.850297995444848
  0
LINE
  5
A5BA
  8
0
 10
67.015640623867512
 20
151.5000009327195
 30
0.0
 11
58.999999612569802
 21
151.5000009327195
 31
0.0
  0
ARC
  5
A5BB
  8
0
 10
59.00000037252903
 20
151.0000009089708
 30
0.0
 40
0.5000000000000285
 50
90.0
 51
270.0000000000008
  0
LINE
  5
A5BC
  8
0
 10
58.999999612569802
 20
150.50000088522199
 30
0.0
 11
67.015640623867512
 21
150.50000088522199
 31
0.0
  0
LINE
  5
A5BE
  8
0
 10
74.50000034878029
 20
133.5699311825681
 30
0.0
 11
74.500000348780304
 21
126.0000005364418
 31
0.0
  0
ARC
  5
A5C0
  8
0
 10
72.75000037252903
 20
170.7500009089708
 30
0.0
 40
1.75
 50
180.0
 51
0.0
  0
LINE
  5
A5C1
  8
0
 10
74.500000348780304
 20
170.75000181794161
 30
0.0
 11
74.500000348780304
 21
172.25000113248819
 31
0.0
  0
ARC
  5
A5C2
  8
0
 10
72.75000037252903
 20
172.25000090897069
 30
0.0
 40
1.75
 50
0.0
 51
180.0
  0
LINE
  5
A5C3
  8
0
 10
71.000000182539225
 20
172.25000113248819
 30
0.0
 11
71.000000182539225
 21
170.75000181794161
 31
0.0
  0
ARC
  5
A5C4
  8
0
 10
76.800000372529027
 20
170.71056392784169
 30
0.0
 40
0.2999999999999971
 50
32.005383208082563
 51
180.0
  0
LINE
  5
A5C5
  8
0
 10
77.054399950429783
 20
170.86956314742559
 30
0.0
 11
78.076001210138202
 21
169.23500075936309
 31
0.0
  0
ARC
  5
A5C6
  8
0
 10
78.50000037252903
 20
169.50000090897069
 30
0.0
 40
0.5
 50
212.0053832080828
 51
0.0
  0
LINE
  5
A5C7
  8
0
 10
79.000000562518835
 20
169.5000011473893
 30
0.0
 11
79.000000562518835
 21
173.50000180304039
 31
0.0
  0
ARC
  5
A5C8
  8
0
 10
78.50000037252903
 20
173.50000090897069
 30
0.0
 40
0.5
 50
0.0
 51
180.0
  0
LINE
  5
A5C9
  8
0
 10
78.000000398606062
 20
173.50000180304039
 30
0.0
 11
78.000000398606062
 21
172.28943705558771
 31
0.0
  0
ARC
  5
A5CA
  8
0
 10
77.700000372529018
 20
172.2894378900998
 30
0.0
 40
0.3000000000000114
 50
212.0053832080865
 51
0.0
  0
LINE
  5
A5CB
  8
0
 10
77.445600833743811
 20
172.130437940359
 30
0.0
 11
76.423999574035406
 21
173.76500032842151
 31
0.0
  0
ARC
  5
A5CC
  8
0
 10
76.00000037252903
 20
173.50000090897069
 30
0.0
 40
0.5
 50
32.005383208082669
 51
180.0
  0
LINE
  5
A5CD
  8
0
 10
75.500000396277755
 20
173.50000180304039
 30
0.0
 11
75.500000396277755
 21
169.5000011473893
 31
0.0
  0
ARC
  5
A5CE
  8
0
 10
76.00000037252903
 20
169.50000090897069
 30
0.0
 40
0.5
 50
180.0
 51
0.0
  0
LINE
  5
A5CF
  8
0
 10
76.500000385567546
 20
169.5000011473893
 30
0.0
 11
76.500000385567546
 21
170.71056403219691
 31
0.0
  0
ARC
  5
A5D0
  8
0
 10
55.50000037252903
 20
147.0000009089708
 30
0.0
 40
1.5
 50
270.0000000000008
 51
90.0
  0
LINE
  5
A5D1
  8
0
 10
55.499999970197671
 20
148.5000009648501
 30
0.0
 11
53.499999642372131
 21
148.5000009648501
 31
0.0
  0
ARC
  5
A5D2
  8
0
 10
53.50000037252903
 20
147.0000009089708
 30
0.0
 40
1.5
 50
90.0
 51
270.0000000000008
  0
LINE
  5
A5D3
  8
0
 10
53.499999642372131
 20
145.5000009387731
 30
0.0
 11
55.499999970197671
 21
145.5000009387731
 31
0.0
  0
ARC
  5
A5D4
  8
0
 10
53.00000037252903
 20
150.50000090897069
 30
0.0
 40
1.000000000000014
 50
180.0
 51
270.0000000000008
  0
LINE
  5
A5D5
  8
0
 10
53.000000491738312
 20
149.5000008959322
 30
0.0
 11
56.500000134110451
 21
149.5000008959322
 31
0.0
  0
ARC
  5
A5D6
  8
0
 10
56.50000037252903
 20
150.0000009089708
 30
0.0
 40
0.5
 50
270.0000000000008
 51
90.0
  0
LINE
  5
A5D7
  8
0
 10
56.500000134110451
 20
150.50000088522199
 30
0.0
 11
55.300000309944153
 21
150.50000088522199
 31
0.0
  0
ARC
  5
A5D8
  8
0
 10
55.300000372529027
 20
150.80000090897079
 30
0.0
 40
0.3000000000000114
 50
180.0
 51
270.0000000000008
  0
LINE
  5
A5D9
  8
0
 10
55.000000819563859
 20
150.8000009140232
 30
0.0
 11
55.000000819563859
 21
151.60000093746919
 31
0.0
  0
ARC
  5
A5DA
  8
0
 10
54.50000037252903
 20
151.6000009089708
 30
0.0
 40
0.5
 50
0.0
 51
180.0
  0
LINE
  5
A5DB
  8
0
 10
54.000000655651093
 20
151.60000093746919
 30
0.0
 11
54.000000655651093
 21
150.8000009140232
 31
0.0
  0
ARC
  5
A5DC
  8
0
 10
53.700000372529033
 20
150.80000090897079
 30
0.0
 40
0.3000000000000114
 50
270.0000000000008
 51
0.0
  0
LINE
  5
A5DD
  8
0
 10
53.700001165270798
 20
150.50000088522199
 30
0.0
 11
53.299999982118599
 21
150.50000088522199
 31
0.0
  0
ARC
  5
A5DE
  8
0
 10
53.300000372529027
 20
150.80000090897079
 30
0.0
 40
0.3000000000000114
 50
180.0
 51
270.0000000000008
  0
LINE
  5
A5DF
  8
0
 10
53.000000491738312
 20
150.8000009140232
 30
0.0
 11
53.000000491738312
 21
152.0000009564682
 31
0.0
  0
ARC
  5
A5E0
  8
0
 10
52.500000372529023
 20
152.0000009089708
 30
0.0
 40
0.5000000000000142
 50
0.0
 51
180.0
  0
LINE
  5
A5E1
  8
0
 10
52.000000327825539
 20
152.0000009564682
 30
0.0
 11
52.000000327825539
 21
150.50000088522199
 31
0.0
  0
ARC
  5
A5E2
  8
0
 10
53.00000037252903
 20
154.5000009089708
 30
0.0
 40
1.000000000000014
 50
180.0
 51
270.0000000000008
  0
LINE
  5
A5E3
  8
0
 10
53.000000491738312
 20
153.50000085309139
 30
0.0
 11
56.500000134110451
 21
153.50000085309139
 31
0.0
  0
ARC
  5
A5E4
  8
0
 10
56.50000037252903
 20
154.00000090897069
 30
0.0
 40
0.5
 50
270.0000000000008
 51
90.0
  0
LINE
  5
A5E5
  8
0
 10
56.500000134110451
 20
154.50000101700419
 30
0.0
 11
55.300000309944153
 21
154.50000101700419
 31
0.0
  0
ARC
  5
A5E6
  8
0
 10
55.300000372529027
 20
154.80000090897079
 30
0.0
 40
0.2999999999999971
 50
180.0
 51
270.0000000000008
  0
LINE
  5
A5E7
  8
0
 10
55.000000819563859
 20
154.8000009730458
 30
0.0
 11
55.000000819563859
 21
155.6000010110437
 31
0.0
  0
ARC
  5
A5E8
  8
0
 10
54.50000037252903
 20
155.6000009089708
 30
0.0
 40
0.5
 50
0.0
 51
180.0
  0
LINE
  5
A5E9
  8
0
 10
54.000000655651093
 20
155.6000010110437
 30
0.0
 11
54.000000655651093
 21
154.8000009730458
 31
0.0
  0
ARC
  5
A5EA
  8
0
 10
53.700000372529033
 20
154.80000090897079
 30
0.0
 40
0.2999999999999971
 50
270.0000000000008
 51
0.0
  0
LINE
  5
A5EB
  8
0
 10
53.700001165270798
 20
154.50000101700419
 30
0.0
 11
53.299999982118599
 21
154.50000101700419
 31
0.0
  0
ARC
  5
A5EC
  8
0
 10
53.300000372529027
 20
154.80000090897079
 30
0.0
 40
0.2999999999999971
 50
180.0
 51
270.0000000000008
  0
LINE
  5
A5ED
  8
0
 10
53.000000491738312
 20
154.8000009730458
 30
0.0
 11
53.000000491738312
 21
156.0000007972121
 31
0.0
  0
ARC
  5
A5EE
  8
0
 10
52.500000372529023
 20
156.00000090897069
 30
0.0
 40
0.5000000000000142
 50
0.0
 51
180.0
  0
LINE
  5
A5EF
  8
0
 10
52.000000327825539
 20
156.0000007972121
 30
0.0
 11
52.000000327825539
 21
154.50000101700419
 31
0.0
  0
ARC
  5
A5F0
  8
0
 10
61.388240003992991
 20
155.9969979741642
 30
0.0
 40
0.5000000000000031
 50
204.99999999999969
 51
339.84136937414672
  0
ARC
  5
A5F1
  8
0
 10
75.000000372529016
 20
151.0000009089708
 30
0.0
 40
13.999999999999989
 50
110.1586306258547
 51
159.84136937414669
  0
ARC
  5
A5F2
  8
0
 10
70.003003307335646
 20
164.61176127750679
 30
0.0
 40
0.5000000000000067
 50
290.15863062585629
 51
65.000000000001236
  0
LINE
  5
A5F3
  8
0
 10
70.214312244206667
 20
165.0649154558777
 30
0.0
 11
67.223403789103031
 21
166.45959895104161
 31
0.0
  0
ARC
  5
A5F4
  8
0
 10
67.012094608817122
 20
166.00644490846841
 30
0.0
 40
0.5000000000000067
 50
65.000000000001236
 51
225.0000000000046
  0
LINE
  5
A5F5
  8
0
 10
66.658540815114975
 20
165.65289106220001
 30
0.0
 11
67.378178425133214
 21
164.93325438350431
 31
0.0
  0
ARC
  5
A5F6
  8
0
 10
67.166046543263036
 20
164.72112212412401
 30
0.0
 40
0.3000000000000145
 50
299.72382754609299
 51
45.000000000004761
  0
ARC
  5
A5F7
  8
0
 10
75.000000372529016
 20
151.0000009089708
 30
0.0
 40
15.5
 50
119.72382754608751
 51
150.2761724539123
  0
ARC
  5
A5F8
  8
0
 10
61.278879157375798
 20
158.8339547382368
 30
0.0
 40
0.2999999999999944
 50
225.0000000000006
 51
330.27617245391622
  0
LINE
  5
A5F9
  8
0
 10
61.066746897995472
 20
158.62182285636661
 30
0.0
 11
60.347110219299793
 21
159.3414604663848
 31
0.0
  0
ARC
  5
A5FA
  8
0
 10
59.993556373031431
 20
158.9879066726827
 30
0.0
 40
0.5000000000000142
 50
45.000000000000149
 51
205.00000000000321
  0
LINE
  5
A5FB
  8
0
 10
59.540402330458157
 20
158.7765974923968
 30
0.0
 11
60.935085825622082
 21
155.78568903729311
 31
0.0
  0
ARC
  5
A5FC
  8
0
 10
97.000000372529044
 20
143.0000009089708
 30
0.0
 40
0.5
 50
180.0
 51
0.0
  0
LINE
  5
A5FD
  8
0
 10
97.500001266598701
 20
143.00000052899119
 30
0.0
 11
97.500001266598701
 21
159.00000128895039
 31
0.0
  0
ARC
  5
A5FE
  8
0
 10
97.000000372529044
 20
159.00000090897069
 30
0.0
 40
0.5
 50
0.0
 51
180.0
  0
LINE
  5
A5FF
  8
0
 10
96.500001102685914
 20
159.00000128895039
 30
0.0
 11
96.500001102685914
 21
143.00000052899119
 31
0.0
  0
ARC
  5
A600
  8
0
 10
63.905125716925212
 20
175.0000009089708
 30
0.0
 40
1.0
 50
90.0
 51
159.9999999999965
  0
ARC
  5
A604
  8
0
 10
86.094875028132833
 20
175.0000009089708
 30
0.0
 40
1.0000000000000071
 50
20.000000000000039
 51
90.0
  0
LINE
  5
A606
  8
0
 10
75.500000396277755
 20
175.60000009834761
 30
0.0
 11
74.500000348780304
 21
175.60000009834761
 31
0.0
  0
LINE
  5
A607
  8
0
 10
75.500000396277755
 20
175.60000009834761
 30
0.0
 11
75.500000396277755
 21
176.00000128149981
 31
0.0
  0
LINE
  5
A60A
  8
0
 10
74.500000348780304
 20
176.00000128149981
 30
0.0
 11
74.500000348780304
 21
175.60000009834761
 31
0.0
  0
LINE
  5
A60B
  8
0
 10
60.63815597444772
 20
168.94787959754461
 30
0.0
 11
62.965433299541473
 21
175.342021882534
 31
0.0
  0
LINE
  5
A60D
  8
0
 10
87.034567445516586
 20
175.342021882534
 30
0.0
 11
89.361844770610347
 21
168.94787959754461
 31
0.0
  0
LINE
  5
A60F
  8
0
 10
73.500000359490514
 20
170.75000181794161
 30
0.0
 11
73.500000359490514
 21
172.25000113248819
 31
0.0
  0
ARC
  5
A610
  8
0
 10
72.75000037252903
 20
170.7500009089708
 30
0.0
 40
0.75
 50
180.0
 51
0.0
  0
LINE
  5
A611
  8
0
 10
72.000000346451984
 20
172.25000113248819
 30
0.0
 11
72.000000346451984
 21
170.75000181794161
 31
0.0
  0
ARC
  5
A612
  8
0
 10
72.75000037252903
 20
172.25000090897069
 30
0.0
 40
0.75
 50
0.0
 51
180.0
  0
ARC
  5
A613
  8
0
 10
55.000000372529023
 20
171.0000009089708
 30
0.0
 40
5.9999999999999973
 50
290.00000000000182
 51
339.99999999999989
  0
ARC
  5
A615
  8
0
 10
95.000000372529016
 20
171.0000009089708
 30
0.0
 40
6.0000000000000098
 50
200.0
 51
250.00000000000159
  0
LINE
  5
A617
  8
0
 10
50.657979398965828
 20
163.0345679819583
 30
0.0
 11
57.052121683955193
 21
165.36184530705211
 31
0.0
  0
LINE
  5
A619
  8
0
 10
92.947879061102853
 20
165.36184530705211
 30
0.0
 11
99.342021346092224
 21
163.0345679819583
 31
0.0
  0
ARC
  5
A61B
  8
0
 10
99.00000037252903
 20
162.09487556457461
 30
0.0
 40
1.0000000000000231
 50
0.0
 51
70.000000000001251
  0
ARC
  5
A61D
  8
0
 10
51.000000372529009
 20
162.09487556457461
 30
0.0
 40
1.0000000000000191
 50
109.999999999998
 51
180.0
  0
LINE
  5
A622
  8
0
 10
100.000000745058
 20
159.00000128895039
 30
0.0
 11
99.700001254677773
 21
159.00000128895039
 31
0.0
  0
LINE
  5
A623
  8
0
 10
99.700001254677773
 20
159.00000128895039
 30
0.0
 11
99.700001254677773
 21
143.00000052899119
 31
0.0
  0
LINE
  5
A624
  8
0
 10
99.700001254677773
 20
143.00000052899119
 30
0.0
 11
100.000000745058
 21
143.00000052899119
 31
0.0
  0
LINE
  5
A628
  8
0
 10
50.0
 20
143.00000052899119
 30
0.0
 11
50.29999949038028
 21
143.00000052899119
 31
0.0
  0
LINE
  5
A629
  8
0
 10
50.29999949038028
 20
159.00000128895039
 30
0.0
 11
50.29999949038028
 21
143.00000052899119
 31
0.0
  0
LINE
  5
A62A
  8
0
 10
50.29999949038028
 20
159.00000128895039
 30
0.0
 11
50.0
 21
159.00000128895039
 31
0.0
  0
LINE
  5
A62B
  8
0
 10
55.499999970197671
 20
147.5000008009373
 30
0.0
 11
53.499999642372131
 21
147.5000008009373
 31
0.0
  0
ARC
  5
A62C
  8
0
 10
55.50000037252903
 20
147.0000009089708
 30
0.0
 40
0.5
 50
270.0000000000008
 51
90.0
  0
LINE
  5
A62D
  8
0
 10
53.499999642372131
 20
146.5000011026859
 30
0.0
 11
55.499999970197671
 21
146.5000011026859
 31
0.0
  0
ARC
  5
A62E
  8
0
 10
53.50000037252903
 20
147.0000009089708
 30
0.0
 40
0.5
 50
90.0
 51
270.0000000000008
  0
ARC
  5
A62F
  8
0
 10
99.00000037252903
 20
139.90512625336689
 30
0.0
 40
1.0000000000000231
 50
289.99999999999909
 51
0.0
  0
ARC
  5
A631
  8
0
 10
51.000000372529009
 20
139.90512625336689
 30
0.0
 40
1.0000000000000191
 50
180.0
 51
250.00000000000259
  0
LINE
  5
A633
  8
0
 10
99.342021346092224
 20
138.96543383598319
 30
0.0
 11
92.947879061102853
 21
136.6381565108895
 31
0.0
  0
LINE
  5
A635
  8
0
 10
57.052121683955193
 20
136.6381565108895
 30
0.0
 11
50.657979398965828
 21
138.96543383598319
 31
0.0
  0
ARC
  5
A637
  8
0
 10
95.000000372529016
 20
131.00000090897069
 30
0.0
 40
6.0000000000000098
 50
109.9999999999991
 51
159.99999999999989
  0
ARC
  5
A639
  8
0
 10
55.000000372529023
 20
131.00000090897069
 30
0.0
 40
5.9999999999999973
 50
20.000000000000028
 51
70.000000000000867
  0
LINE
  5
A63B
  8
0
 10
62.965433299541473
 20
126.6579799354076
 30
0.0
 11
60.63815597444772
 21
133.05212222039691
 31
0.0
  0
LINE
  5
A63D
  8
0
 10
89.361844770610347
 20
133.05212222039691
 30
0.0
 11
87.034567445516586
 21
126.6579799354076
 31
0.0
  0
ARC
  5
A640
  8
0
 10
63.905125716925212
 20
127.0000009089708
 30
0.0
 40
1.0
 50
200.0
 51
270.0000000000008
  0
ARC
  5
A641
  8
0
 10
86.094875028132833
 20
127.0000009089708
 30
0.0
 40
1.0
 50
270.0000000000008
 51
339.99999999999989
  0
LINE
  5
A648
  8
0
 10
74.500000348780304
 20
126.4000017195939
 30
0.0
 11
75.500000396277755
 21
126.4000017195939
 31
0.0
  0
ARC
  5
A681
  8
0
 10
95.000000372529016
 20
171.0000009089708
 30
0.0
 40
5.0
 50
0.0
 51
90.0
  0
ARC
  5
A686
  8
0
 10
55.000000372529023
 20
171.0000009089708
 30
0.0
 40
5.0000000000000142
 50
90.0
 51
180.0
  0
LINE
  5
A688
  8
0
 10
75.500000396277755
 20
176.00000128149969
 30
0.0
 11
94.999999925494194
 21
176.00000128149981
 31
0.0
  0
LINE
  5
A68C
  8
0
 10
55.000000819563859
 20
176.00000128149981
 30
0.0
 11
74.500000348780318
 21
176.00000128149969
 31
0.0
  0
CIRCLE
  5
A68D
  8
0
 10
95.000000372529016
 20
171.0000009089708
 30
0.0
 40
2.75
  0
CIRCLE
  5
A68E
  8
0
 10
55.000000372529023
 20
171.0000009089708
 30
0.0
 40
2.75
  0
LINE
  5
A68F
  8
0
 10
100.000000745058
 20
171.00000046193591
 30
0.0
 11
100.0000007450581
 21
159.00000128895039
 31
0.0
  0
LINE
  5
A690
  8
0
 10
50.000000000000007
 20
159.00000128895039
 30
0.0
 11
50.0
 21
171.00000046193591
 31
0.0
  0
LINE
  5
A693
  8
0
 10
50.0
 20
131.00000135600561
 30
0.0
 11
50.000000000000007
 21
143.00000052899119
 31
0.0
  0
LINE
  5
A696
  8
0
 10
100.0000007450581
 20
143.00000052899119
 30
0.0
 11
100.000000745058
 21
131.00000135600561
 31
0.0
  0
CIRCLE
  5
A69D
  8
0
 10
95.000000372529016
 20
131.00000090897069
 30
0.0
 40
2.75
  0
CIRCLE
  5
A69E
  8
0
 10
55.000000372529023
 20
131.00000090897069
 30
0.0
 40
2.75
  0
ARC
  5
A69F
  8
0
 10
55.000000372529023
 20
131.00000090897069
 30
0.0
 40
5.0000000000000142
 50
180.0
 51
270.0000000000008
  0
ARC
  5
A6A1
  8
0
 10
95.000000372529016
 20
131.00000090897069
 30
0.0
 40
5.0
 50
270.0000000000008
 51
0.0
  0
LINE
  5
A6A3
  8
0
 10
74.500000348780318
 20
126.0000005364418
 30
0.0
 11
55.000000819563859
 21
126.0000005364417
 31
0.0
  0
LINE
  5
A6A4
  8
0
 10
94.999999925494194
 20
126.0000005364417
 30
0.0
 11
75.50000039627777
 21
126.0000005364418
 31
0.0
  0
ARC
  5
AC37
  8
0
 10
163.400001232704
 20
143.40000090897081
 30
0.0
 40
0.4000000000000022
 50
180.0
 51
270.0
  0
ARC
  5
AC38
  8
0
 10
163.400001232704
 20
158.6000009089708
 30
0.0
 40
0.3999999999999986
 50
90.0
 51
180.0
  0
LINE
  5
AC39
  8
0
 10
149.48255228587041
 20
143.17955020815131
 30
0.0
 11
150.00000069626219
 21
143.197619728744
 31
0.0
  0
LINE
  5
AC3A
  8
0
 10
150.00000069626219
 20
158.80238208919761
 30
0.0
 11
149.48255228587041
 21
158.8204516097903
 31
0.0
  0
ARC
  5
AC3B
  8
0
 10
149.50000123270399
 20
142.67985459783779
 30
0.0
 40
0.5000000000000026
 50
92.00000000000361
 51
180.0
  0
ARC
  5
AC3C
  8
0
 10
149.50000123270399
 20
159.32014722010359
 30
0.0
 40
0.5000000000000023
 50
180.0
 51
268.0000000000029
  0
ARC
  5
AC3D
  8
0
 10
148.50000123270399
 20
134.02689097161121
 30
0.0
 40
0.5
 50
266.99999999999773
 51
0.0
  0
ARC
  5
AC3E
  8
0
 10
148.50000123270399
 20
167.9731108463302
 30
0.0
 40
0.5000000000000006
 50
0.0
 51
92.999999999999105
  0
LINE
  5
AC3F
  8
0
 10
138.81555790789969
 20
134.0337455272674
 30
0.0
 11
148.47383308001409
 21
133.52757543325421
 31
0.0
  0
LINE
  5
AC40
  8
0
 10
148.47383308001409
 20
168.4724263846874
 30
0.0
 11
138.81555790789969
 21
167.9662562906741
 31
0.0
  0
ARC
  5
AC41
  8
0
 10
138.88856648623039
 20
135.05089877736719
 30
0.0
 40
1.019770065602239
 50
191.87800298000391
 51
265.89450085652572
  0
ARC
  5
AC42
  8
0
 10
138.88602674621561
 20
166.9521344281072
 30
0.0
 40
1.016567267479068
 50
93.974953547612088
 51
168.05950424552509
  0
LINE
  5
AC49
  8
0
 10
148.5174506414736
 20
144.9501853436231
 30
0.0
 11
148.5174506414736
 21
157.04981647431839
 31
0.0
  0
ARC
  5
AC4D
  8
0
 10
148.553622937608
 20
145.47935402939791
 30
0.0
 40
1.009974199061545
 50
190.4005524752159
 51
265.46880408112702
  0
ARC
  5
AC53
  8
0
 10
148.52908305984181
 20
156.54783967648231
 30
0.0
 40
0.9811823905997889
 50
93.228009366572678
 51
170.90263407708471
  0
ARC
  5
AC54
  8
0
 10
168.61972115147111
 20
151.0000009089708
 30
0.0
 40
21.818010028099451
 50
164.84753533473639
 51
195.15246466526349
  0
ARC
  5
AC55
  8
0
 10
206.0210235350045
 20
151.0000009089708
 30
0.0
 40
70.020865183362815
 50
173.0121187872148
 51
186.9878812127852
  0
ARC
  5
AC5D
  8
0
 10
148.6017818967745
 20
142.0636116373914
 30
0.0
 40
0.6044427777836776
 50
257.77914143016562
 51
311.20989649379379
  0
ARC
  5
AC5F
  8
0
 10
148.6017818967745
 20
159.93639018055009
 30
0.0
 40
0.6044427777836776
 50
48.790103506210691
 51
102.22085856983441
  0
LINE
  5
AC62
  8
0
 10
137.5502556074465
 20
141.62882082164279
 30
0.0
 11
148.47383308001409
 21
141.47286619991061
 31
0.0
  0
LINE
  5
AC65
  8
0
 10
137.5502556074465
 20
160.3711809962987
 30
0.0
 11
148.47383308001409
 21
160.527135618031
 31
0.0
  0
LINE
  5
AC66
  8
0
 10
149.00000053234939
 20
143.95625693723551
 30
0.0
 11
149.00000123270399
 21
134.02689097161121
 31
0.0
  0
LINE
  5
AC67
  8
0
 10
148.5174506414736
 20
144.47215935215351
 30
0.0
 11
148.47383308001409
 21
144.4725365377962
 31
0.0
  0
ARC
  5
AC68
  8
0
 10
148.50281903368091
 20
143.97484566883651
 30
0.0
 40
0.4975288771125293
 50
357.85881008681957
 51
88.314770660148298
  0
LINE
  5
AC69
  8
0
 10
149.00000123270399
 20
167.9731108463302
 30
0.0
 11
149.00000053234939
 21
158.04374488070599
 31
0.0
  0
ARC
  5
AC6A
  8
0
 10
148.49601473706929
 20
158.03152055541989
 30
0.0
 40
0.5041340258034729
 50
272.43696552657741
 51
1.389453726456213
  0
LINE
  5
AC6B
  8
0
 10
148.47383308001409
 20
157.52746528014529
 30
0.0
 11
148.5174506414736
 21
157.5278424657881
 31
0.0
  0
ARC
  5
AC78
  8
0
 10
158.46841812467531
 20
144.71117234788829
 30
0.0
 40
9.9538375043933911
 50
178.62407315402629
 51
181.37592684597371
  0
ARC
  5
AC7A
  8
0
 10
158.46841812467531
 20
157.2888294700532
 30
0.0
 40
9.9538375043933911
 50
178.62407315402629
 51
181.37592684597371
  0
ARC
  5
AC7C
  8
0
 10
137.2206159693803
 20
159.3644808032403
 30
0.0
 40
1.0592957895169799
 50
71.869188990184199
 51
125.1127645007503
  0
POLYLINE
  5
AC7D
  8
0
 66
     1
 10
0.0
 20
0.0
 30
0.0
 70
   128
  0
VERTEX
  5
B45B
  8
0
 10
136.52027989514721
 20
159.51869767159221
 30
0.0
  0
VERTEX
  5
B45C
  8
0
 10
136.54939303882961
 20
159.75288245826951
 30
0.0
  0
VERTEX
  5
B45D
  8
0
 10
136.61132226475129
 20
160.2310076355933
 30
0.0
  0
SEQEND
  5
B45E
  8
0
  0
ARC
  5
AC7E
  8
0
 10
137.2206159693803
 20
142.63552101470131
 30
0.0
 40
1.059295789516977
 50
234.8872354992497
 51
288.1308110098189
  0
POLYLINE
  5
AC7F
  8
0
 66
     1
 10
0.0
 20
0.0
 30
0.0
 70
   128
  0
VERTEX
  5
B45F
  8
0
 10
136.61132226475129
 20
141.76899418234819
 30
0.0
  0
VERTEX
  5
B460
  8
0
 10
136.58075998314271
 20
142.0017400756478
 30
0.0
  0
VERTEX
  5
B461
  8
0
 10
136.52027989514721
 20
142.4813041463494
 30
0.0
  0
SEQEND
  5
B462
  8
0
  0
ARC
  5
AC81
  8
0
 10
206.01620232817081
 20
151.0029355266378
 30
0.0
 40
70.016448420120781
 50
187.57838595223569
 51
192.69203681364741
  0
ARC
  5
AC83
  8
0
 10
206.01617533876171
 20
150.9970711159643
 30
0.0
 40
70.016421030166313
 50
167.30796218547459
 51
172.4216150486393
  0
POLYLINE
  5
AC86
  8
0
 66
     1
 10
0.0
 20
0.0
 30
0.0
 70
   128
  0
VERTEX
  5
B463
  8
0
 10
137.8906316567267
 20
134.8410010337829
 30
0.0
  0
VERTEX
  5
B464
  8
0
 10
137.8906316567267
 20
134.8410010337829
 30
0.0
  0
VERTEX
  5
B465
  8
0
 10
137.86843265183811
 20
134.93483923375601
 30
0.0
  0
VERTEX
  5
B466
  8
0
 10
137.80223796852479
 20
135.21820157766331
 30
0.0
  0
VERTEX
  5
B467
  8
0
 10
137.7105995524729
 20
135.6195783242583
 30
0.0
  0
SEQEND
  5
B468
  8
0
  0
ARC
  5
AC87
  8
0
 10
203.72232264016591
 20
151.5266161688975
 30
0.0
 40
67.662272922568249
 50
166.6389496715517
 51
167.3186502332675
  0
LINE
  5
AC95
  8
0
 10
164.00000112839589
 20
138.50000072270629
 30
0.0
 11
164.00000112839589
 21
143.00000052899119
 31
0.0
  0
LINE
  5
AC96
  8
0
 10
176.00000123270399
 20
138.50000072270629
 30
0.0
 11
164.00000112839589
 21
138.50000072270629
 31
0.0
  0
LINE
  5
AC9A
  8
0
 10
176.00000123270399
 20
126.0000005364418
 30
0.0
 11
176.00000123270399
 21
138.50000072270629
 31
0.0
  0
LINE
  5
ACA5
  8
0
 10
164.00000112839589
 20
159.00000128895039
 30
0.0
 11
150.04174443670161
 21
159.00000128895039
 31
0.0
  0
LINE
  5
ACA6
  8
0
 10
150.04174443670161
 20
143.00000052899119
 30
0.0
 11
150.04174443670161
 21
159.00000128895039
 31
0.0
  0
LINE
  5
ACA7
  8
0
 10
150.04174443670161
 20
143.00000052899119
 30
0.0
 11
164.00000112839589
 21
143.00000052899119
 31
0.0
  0
LINE
  5
ACAB
  8
0
 10
176.00000123270399
 20
163.50000109523529
 30
0.0
 11
176.00000123270399
 21
176.00000128149989
 31
0.0
  0
LINE
  5
ACAC
  8
0
 10
164.00000112839589
 20
163.50000109523529
 30
0.0
 11
176.00000123270399
 21
163.50000109523529
 31
0.0
  0
LINE
  5
ACAD
  8
0
 10
164.00000112839589
 20
159.00000128895039
 30
0.0
 11
164.00000112839589
 21
163.50000109523529
 31
0.0
  0
LINE
  5
ACAF
  8
0
 10
154.5000005025471
 20
163.50915692746639
 30
0.0
 11
154.50000123270399
 21
175.5000009089708
 31
0.0
  0
POLYLINE
  5
ACB2
  8
0
 10
154.50000123270399
 20
163.50915710615541
 30
0.0
 66
     1
 70
     8
  0
VERTEX
  8
0
  5
B4EF
 10
154.500
 20
163.509
 30
0.000000
  70
    32
  0
VERTEX
  8
0
  5
B4F0
 10
154.500
 20
163.509
 30
0.000000
  70
    32
  0
VERTEX
  8
0
  5
B4F1
 10
154.500
 20
163.509
 30
0.000000
  70
    32
  0
VERTEX
  8
0
  5
B4F2
 10
154.500
 20
163.509
 30
0.000000
  70
    32
  0
VERTEX
  8
0
  5
B4F3
 10
154.500
 20
163.509
 30
0.000000
  70
    32
  0
VERTEX
  8
0
  5
B4F4
 10
154.500
 20
163.509
 30
0.000000
  70
    32
  0
VERTEX
  8
0
  5
B4F5
 10
154.500
 20
163.509
 30
0.000000
  70
    32
  0
VERTEX
  8
0
  5
B4F6
 10
154.500
 20
163.509
 30
0.000000
  70
    32
  0
VERTEX
  8
0
  5
B4F7
 10
154.500
 20
163.509
 30
0.000000
  70
    32
  0
VERTEX
  8
0
  5
B4F8
 10
154.500
 20
163.509
 30
0.000000
  70
    32
  0
VERTEX
  8
0
  5
B4F9
 10
154.500
 20
163.509
 30
0.000000
  70
    32
  0
VERTEX
  8
0
  5
B4FA
 10
154.500
 20
163.509
 30
0.000000
  70
    32
  0
VERTEX
  8
0
  5
B4FB
 10
154.500
 20
163.509
 30
0.000000
  70
    32
  0
VERTEX
  8
0
  5
B4FC
 10
154.500
 20
163.509
 30
0.000000
  70
    32
  0
VERTEX
  8
0
  5
B4FD
 10
154.500
 20
163.509
 30
0.000000
  70
    32
  0
VERTEX
  8
0
  5
B4FE
 10
154.500
 20
163.509
 30
0.000000
  70
    32
  0
VERTEX
  8
0
  5
B4FF
 10
154.500
 20
163.509
 30
0.000000
  70
    32
  0
VERTEX
  8
0
  5
B500
 10
154.500
 20
163.509
 30
0.000000
  70
    32
  0
VERTEX
  8
0
  5
B501
 10
154.500
 20
163.508
 30
0.000000
  70
    32
  0
VERTEX
  8
0
  5
B502
 10
154.500
 20
163.508
 30
0.000000
  70
    32
  0
VERTEX
  8
0
  5
B503
 10
154.500
 20
163.508
 30
0.000000
  70
    32
  0
VERTEX
  8
0
  5
B504
 10
154.500
 20
163.508
 30
0.000000
  70
    32
  0
VERTEX
  8
0
  5
B505
 10
154.500
 20
163.508
 30
0.000000
  70
    32
  0
VERTEX
  8
0
  5
B506
 10
154.500
 20
163.508
 30
0.000000
  70
    32
  0
VERTEX
  8
0
  5
B507
 10
154.500
 20
163.508
 30
0.000000
  70
    32
  0
VERTEX
  8
0
  5
B508
 10
154.500
 20
163.508
 30
0.000000
  70
    32
  0
VERTEX
  8
0
  5
B509
 10
154.500
 20
163.508
 30
0.000000
  70
    32
  0
VERTEX
  8
0
  5
B50A
 10
154.500
 20
163.508
 30
0.000000
  70
    32
  0
VERTEX
  8
0
  5
B50B
 10
154.500
 20
163.508
 30
0.000000
  70
    32
  0
VERTEX
  8
0
  5
B50C
 10
154.500
 20
163.508
 30
0.000000
  70
    32
  0
VERTEX
  8
0
  5
B50D
 10
154.500
 20
163.508
 30
0.000000
  70
    32
  0
VERTEX
  8
0
  5
B50E
 10
154.500
 20
163.508
 30
0.000000
  70
    32
  0
VERTEX
  8
0
  5
B50F
 10
154.500
 20
163.508
 30
0.000000
  70
    32
  0
VERTEX
  8
0
  5
B510
 10
154.500
 20
163.508
 30
0.000000
  70
    32
  0
VERTEX
  8
0
  5
B511
 10
154.500
 20
163.508
 30
0.000000
  70
    32
  0
VERTEX
  8
0
  5
B512
 10
154.500
 20
163.508
 30
0.000000
  70
    32
  0
VERTEX
  8
0
  5
B513
 10
154.500
 20
163.508
 30
0.000000
  70
    32
  0
VERTEX
  8
0
  5
B514
 10
154.500
 20
163.508
 30
0.000000
  70
    32
  0
VERTEX
  8
0
  5
B515
 10
154.500
 20
163.508
 30
0.000000
  70
    32
  0
VERTEX
  8
0
  5
B516
 10
154.500
 20
163.508
 30
0.000000
  70
    32
  0
VERTEX
  8
0
  5
B517
 10
154.500
 20
163.508
 30
0.000000
  70
    32
  0
VERTEX
  8
0
  5
B518
 10
154.500
 20
163.508
 30
0.000000
  70
    32
  0
VERTEX
  8
0
  5
B519
 10
154.500
 20
163.508
 30
0.000000
  70
    32
  0
VERTEX
  8
0
  5
B51A
 10
154.500
 20
163.508
 30
0.000000
  70
    32
  0
VERTEX
  8
0
  5
B51B
 10
154.500
 20
163.508
 30
0.000000
  70
    32
  0
VERTEX
  8
0
  5
B51C
 10
154.500
 20
163.507
 30
0.000000
  70
    32
  0
VERTEX
  8
0
  5
B51D
 10
154.500
 20
163.507
 30
0.000000
  70
    32
  0
VERTEX
  8
0
  5
B51E
 10
154.500
 20
163.507
 30
0.000000
  70
    32
  0
VERTEX
  8
0
  5
B51F
 10
154.500
 20
163.507
 30
0.000000
  70
    32
  0
VERTEX
  8
0
  5
B520
 10
154.500
 20
163.507
 30
0.000000
  70
    32
  0
VERTEX
  8
0
  5
B521
 10
154.500
 20
163.507
 30
0.000000
  70
    32
  0
VERTEX
  8
0
  5
B522
 10
154.500
 20
163.507
 30
0.000000
  70
    32
  0
VERTEX
  8
0
  5
B523
 10
154.500
 20
163.507
 30
0.000000
  70
    32
  0
VERTEX
  8
0
  5
B524
 10
154.500
 20
163.507
 30
0.000000
  70
    32
  0
VERTEX
  8
0
  5
B525
 10
154.500
 20
163.507
 30
0.000000
  70
    32
  0
VERTEX
  8
0
  5
B526
 10
154.500
 20
163.507
 30
0.000000
  70
    32
  0
VERTEX
  8
0
  5
B527
 10
154.500
 20
163.507
 30
0.000000
  70
    32
  0
VERTEX
  8
0
  5
B528
 10
154.500
 20
163.507
 30
0.000000
  70
    32
  0
VERTEX
  8
0
  5
B529
 10
154.500
 20
163.507
 30
0.000000
  70
    32
  0
VERTEX
  8
0
  5
B52A
 10
154.500
 20
163.507
 30
0.000000
  70
    32
  0
VERTEX
  8
0
  5
B52B
 10
154.500
 20
163.507
 30
0.000000
  70
    32
  0
VERTEX
  8
0
  5
B52C
 10
154.500
 20
163.507
 30
0.000000
  70
    32
  0
VERTEX
  8
0
  5
B52D
 10
154.500
 20
163.507
 30
0.000000
  70
    32
  0
VERTEX
  8
0
  5
B52E
 10
154.500
 20
163.507
 30
0.000000
  70
    32
  0
VERTEX
  8
0
  5
B52F
 10
154.500
 20
163.507
 30
0.000000
  70
    32
  0
VERTEX
  8
0
  5
B530
 10
154.500
 20
163.507
 30
0.000000
  70
    32
  0
VERTEX
  8
0
  5
B531
 10
154.500
 20
163.507
 30
0.000000
  70
    32
  0
VERTEX
  8
0
  5
B532
 10
154.500
 20
163.507
 30
0.000000
  70
    32
  0
VERTEX
  8
0
  5
B533
 10
154.500
 20
163.507
 30
0.000000
  70
    32
  0
VERTEX
  8
0
  5
B534
 10
154.500
 20
163.507
 30
0.000000
  70
    32
  0
VERTEX
  8
0
  5
B535
 10
154.500
 20
163.507
 30
0.000000
  70
    32
  0
VERTEX
  8
0
  5
B536
 10
154.500
 20
163.507
 30
0.000000
  70
    32
  0
VERTEX
  8
0
  5
B537
 10
154.500
 20
163.506
 30
0.000000
  70
    32
  0
VERTEX
  8
0
  5
B538
 10
154.500
 20
163.506
 30
0.000000
  70
    32
  0
VERTEX
  8
0
  5
B539
 10
154.500
 20
163.506
 30
0.000000
  70
    32
  0
VERTEX
  8
0
  5
B53A
 10
154.500
 20
163.506
 30
0.000000
  70
    32
  0
VERTEX
  8
0
  5
B53B
 10
154.500
 20
163.506
 30
0.000000
  70
    32
  0
VERTEX
  8
0
  5
B53C
 10
154.500
 20
163.506
 30
0.000000
  70
    32
  0
VERTEX
  8
0
  5
B53D
 10
154.500
 20
163.506
 30
0.000000
  70
    32
  0
VERTEX
  8
0
  5
B53E
 10
154.500
 20
163.506
 30
0.000000
  70
    32
  0
VERTEX
  8
0
  5
B53F
 10
154.500
 20
163.506
 30
0.000000
  70
    32
  0
VERTEX
  8
0
  5
B540
 10
154.500
 20
163.506
 30
0.000000
  70
    32
  0
VERTEX
  8
0
  5
B541
 10
154.500
 20
163.506
 30
0.000000
  70
    32
  0
VERTEX
  8
0
  5
B542
 10
154.500
 20
163.506
 30
0.000000
  70
    32
  0
VERTEX
  8
0
  5
B543
 10
154.500
 20
163.506
 30
0.000000
  70
    32
  0
VERTEX
  8
0
  5
B544
 10
154.500
 20
163.506
 30
0.000000
  70
    32
  0
VERTEX
  8
0
  5
B545
 10
154.500
 20
163.506
 30
0.000000
  70
    32
  0
VERTEX
  8
0
  5
B546
 10
154.500
 20
163.506
 30
0.000000
  70
    32
  0
VERTEX
  8
0
  5
B547
 10
154.500
 20
163.506
 30
0.000000
  70
    32
  0
VERTEX
  8
0
  5
B548
 10
154.500
 20
163.506
 30
0.000000
  70
    32
  0
VERTEX
  8
0
  5
B549
 10
154.500
 20
163.506
 30
0.000000
  70
    32
  0
VERTEX
  8
0
  5
B54A
 10
154.500
 20
163.506
 30
0.000000
  70
    32
  0
VERTEX
  8
0
  5
B54B
 10
154.500
 20
163.506
 30
0.000000
  70
    32
  0
VERTEX
  8
0
  5
B54C
 10
154.500
 20
163.506
 30
0.000000
  70
    32
  0
VERTEX
  8
0
  5
B54D
 10
154.500
 20
163.506
 30
0.000000
  70
    32
  0
VERTEX
  8
0
  5
B54E
 10
154.500
 20
163.506
 30
0.000000
  70
    32
  0
VERTEX
  8
0
  5
B54F
 10
154.500
 20
163.506
 30
0.000000
  70
    32
  0
VERTEX
  8
0
  5
B550
 10
154.500
 20
163.506
 30
0.000000
  70
    32
  0
VERTEX
  8
0
  5
B551
 10
154.500
 20
163.506
 30
0.000000
  70
    32
  0
VERTEX
  8
0
  5
B552
 10
154.500
 20
163.505
 30
0.000000
  70
    32
  0
VERTEX
  8
0
  5
B553
 10
154.500
 20
163.505
 30
0.000000
  70
    32
  0
VERTEX
  8
0
  5
B554
 10
154.500
 20
163.505
 30
0.000000
  70
    32
  0
VERTEX
  8
0
  5
B555
 10
154.500
 20
163.505
 30
0.000000
  70
    32
  0
VERTEX
  8
0
  5
B556
 10
154.500
 20
163.505
 30
0.000000
  70
    32
  0
VERTEX
  8
0
  5
B557
 10
154.500
 20
163.505
 30
0.000000
  70
    32
  0
VERTEX
  8
0
  5
B558
 10
154.500
 20
163.505
 30
0.000000
  70
    32
  0
VERTEX
  8
0
  5
B559
 10
154.500
 20
163.505
 30
0.000000
  70
    32
  0
VERTEX
  8
0
  5
B55A
 10
154.500
 20
163.505
 30
0.000000
  70
    32
  0
VERTEX
  8
0
  5
B55B
 10
154.500
 20
163.505
 30
0.000000
  70
    32
  0
VERTEX
  8
0
  5
B55C
 10
154.500
 20
163.505
 30
0.000000
  70
    32
  0
VERTEX
  8
0
  5
B55D
 10
154.500
 20
163.505
 30
0.000000
  70
    32
  0
VERTEX
  8
0
  5
B55E
 10
154.500
 20
163.505
 30
0.000000
  70
    32
  0
VERTEX
  8
0
  5
B55F
 10
154.500
 20
163.505
 30
0.000000
  70
    32
  0
VERTEX
  8
0
  5
B560
 10
154.500
 20
163.505
 30
0.000000
  70
    32
  0
VERTEX
  8
0
  5
B561
 10
154.500
 20
163.505
 30
0.000000
  70
    32
  0
VERTEX
  8
0
  5
B562
 10
154.500
 20
163.505
 30
0.000000
  70
    32
  0
VERTEX
  8
0
  5
B563
 10
154.500
 20
163.505
 30
0.000000
  70
    32
  0
VERTEX
  8
0
  5
B564
 10
154.500
 20
163.505
 30
0.000000
  70
    32
  0
VERTEX
  8
0
  5
B565
 10
154.500
 20
163.505
 30
0.000000
  70
    32
  0
VERTEX
  8
0
  5
B566
 10
154.500
 20
163.505
 30
0.000000
  70
    32
  0
VERTEX
  8
0
  5
B567
 10
154.500
 20
163.505
 30
0.000000
  70
    32
  0
VERTEX
  8
0
  5
B568
 10
154.500
 20
163.505
 30
0.000000
  70
    32
  0
VERTEX
  8
0
  5
B569
 10
154.500
 20
163.505
 30
0.000000
  70
    32
  0
VERTEX
  8
0
  5
B56A
 10
154.500
 20
163.505
 30
0.000000
  70
    32
  0
VERTEX
  8
0
  5
B56B
 10
154.500
 20
163.505
 30
0.000000
  70
    32
  0
VERTEX
  8
0
  5
B56C
 10
154.500
 20
163.505
 30
0.000000
  70
    32
  0
VERTEX
  8
0
  5
B56D
 10
154.500
 20
163.504
 30
0.000000
  70
    32
  0
VERTEX
  8
0
  5
B56E
 10
154.500
 20
163.504
 30
0.000000
  70
    32
  0
VERTEX
  8
0
  5
B56F
 10
154.500
 20
163.504
 30
0.000000
  70
    32
  0
SEQEND
  8
0
  5
B570
  0
ARC
  5
ACB5
  8
0
 10
150.48537962808541
 20
162.54915981137279
 30
0.0
 40
0.4856283531028324
 50
88.274585515948615
 51
178.16358448138249
  0
ARC
  5
ACB6
  8
0
 10
154.0122217655281
 20
163.52257669138041
 30
0.0
 40
0.4881595560787143
 50
268.57558754918739
 51
357.86780877935968
  0
LINE
  5
ACB8
  8
0
 10
150.50000170954121
 20
163.03456798195839
 30
0.0
 11
154.00008703359021
 21
163.03456798195839
 31
0.0
  0
ARC
  5
ACBB
  8
0
 10
155.00000123270399
 20
175.5000009089708
 30
0.0
 40
0.5000000000000006
 50
90.0
 51
180.0
  0
LINE
  5
ACBE
  8
0
 10
163.00000096448309
 20
143.00000052899119
 30
0.0
 11
163.00000096448309
 21
159.00000128895039
 31
0.0
  0
LINE
  5
ACEE
  8
0
 10
176.00000123270399
 20
126.0000005364417
 30
0.0
 11
150.50000170954121
 21
126.0000005364417
 31
0.0
  0
LINE
  5
ACF0
  8
0
 10
150.50000170954121
 20
176.00000128149981
 30
0.0
 11
176.00000123270399
 21
176.00000128149981
 31
0.0
  0
LINE
  5
ACF2
  8
0
 10
150.00000069626219
 20
126.50000154972069
 30
0.0
 11
150.00000123270399
 21
175.50000091448169
 31
0.0
  0
ARC
  5
ACF3
  8
0
 10
150.50000123270399
 20
175.50000090897069
 30
0.0
 40
0.5000000000000006
 50
90.000000000003226
 51
180.0
  0
LINE
  5
AE50
  8
0
 10
50.500000372529009
 20
71.5
 30
0.0
 11
62.490844175344463
 21
71.5
 31
0.0
  0
ARC
  5
AE51
  8
0
 10
99.500000372529044
 20
71.0
 30
0.0
 40
0.5
 50
0.0
 51
90.0
  0
ARC
  5
AE52
  8
0
 10
86.549159274931
 20
75.51462160461864
 30
0.0
 40
0.4856283531028325
 50
358.27458551594862
 51
88.163584481384206
  0
LINE
  5
AE53
  8
0
 10
87.034567445516586
 20
71.999914199113846
 30
0.0
 11
87.034567445516586
 21
75.499999523162842
 31
0.0
  0
POLYLINE
  5
AE54
  8
0
 10
87.504413959311705
 20
71.499957551572464
 30
0.0
 66
     1
 70
     8
  0
VERTEX
  8
0
  5
B571
 10
87.5044
 20
71.5000
 30
0.000000
  70
    32
  0
VERTEX
  8
0
  5
B572
 10
87.5045
 20
71.5000
 30
0.000000
  70
    32
  0
VERTEX
  8
0
  5
B573
 10
87.5045
 20
71.5000
 30
0.000000
  70
    32
  0
VERTEX
  8
0
  5
B574
 10
87.5045
 20
71.5000
 30
0.000000
  70
    32
  0
VERTEX
  8
0
  5
B575
 10
87.5046
 20
71.5000
 30
0.000000
  70
    32
  0
VERTEX
  8
0
  5
B576
 10
87.5046
 20
71.5000
 30
0.000000
  70
    32
  0
VERTEX
  8
0
  5
B577
 10
87.5046
 20
71.5000
 30
0.000000
  70
    32
  0
VERTEX
  8
0
  5
B578
 10
87.5047
 20
71.5000
 30
0.000000
  70
    32
  0
VERTEX
  8
0
  5
B579
 10
87.5047
 20
71.5000
 30
0.000000
  70
    32
  0
VERTEX
  8
0
  5
B57A
 10
87.5047
 20
71.5000
 30
0.000000
  70
    32
  0
VERTEX
  8
0
  5
B57B
 10
87.5048
 20
71.5000
 30
0.000000
  70
    32
  0
VERTEX
  8
0
  5
B57C
 10
87.5048
 20
71.5000
 30
0.000000
  70
    32
  0
VERTEX
  8
0
  5
B57D
 10
87.5049
 20
71.5000
 30
0.000000
  70
    32
  0
VERTEX
  8
0
  5
B57E
 10
87.5049
 20
71.5000
 30
0.000000
  70
    32
  0
VERTEX
  8
0
  5
B57F
 10
87.5049
 20
71.5000
 30
0.000000
  70
    32
  0
VERTEX
  8
0
  5
B580
 10
87.5050
 20
71.5000
 30
0.000000
  70
    32
  0
VERTEX
  8
0
  5
B581
 10
87.5050
 20
71.5000
 30
0.000000
  70
    32
  0
VERTEX
  8
0
  5
B582
 10
87.5050
 20
71.5000
 30
0.000000
  70
    32
  0
VERTEX
  8
0
  5
B583
 10
87.5051
 20
71.5000
 30
0.000000
  70
    32
  0
VERTEX
  8
0
  5
B584
 10
87.5051
 20
71.5000
 30
0.000000
  70
    32
  0
VERTEX
  8
0
  5
B585
 10
87.5052
 20
71.5000
 30
0.000000
  70
    32
  0
VERTEX
  8
0
  5
B586
 10
87.5052
 20
71.5000
 30
0.000000
  70
    32
  0
VERTEX
  8
0
  5
B587
 10
87.5052
 20
71.5000
 30
0.000000
  70
    32
  0
VERTEX
  8
0
  5
B588
 10
87.5053
 20
71.5000
 30
0.000000
  70
    32
  0
VERTEX
  8
0
  5
B589
 10
87.5053
 20
71.5000
 30
0.000000
  70
    32
  0
VERTEX
  8
0
  5
B58A
 10
87.5053
 20
71.5000
 30
0.000000
  70
    32
  0
VERTEX
  8
0
  5
B58B
 10
87.5054
 20
71.5000
 30
0.000000
  70
    32
  0
VERTEX
  8
0
  5
B58C
 10
87.5054
 20
71.5000
 30
0.000000
  70
    32
  0
VERTEX
  8
0
  5
B58D
 10
87.5055
 20
71.5000
 30
0.000000
  70
    32
  0
VERTEX
  8
0
  5
B58E
 10
87.5055
 20
71.5000
 30
0.000000
  70
    32
  0
VERTEX
  8
0
  5
B58F
 10
87.5055
 20
71.5000
 30
0.000000
  70
    32
  0
VERTEX
  8
0
  5
B590
 10
87.5056
 20
71.5000
 30
0.000000
  70
    32
  0
VERTEX
  8
0
  5
B591
 10
87.5056
 20
71.5000
 30
0.000000
  70
    32
  0
VERTEX
  8
0
  5
B592
 10
87.5056
 20
71.5000
 30
0.000000
  70
    32
  0
VERTEX
  8
0
  5
B593
 10
87.5057
 20
71.5000
 30
0.000000
  70
    32
  0
VERTEX
  8
0
  5
B594
 10
87.5057
 20
71.5000
 30
0.000000
  70
    32
  0
VERTEX
  8
0
  5
B595
 10
87.5057
 20
71.5000
 30
0.000000
  70
    32
  0
VERTEX
  8
0
  5
B596
 10
87.5058
 20
71.5000
 30
0.000000
  70
    32
  0
VERTEX
  8
0
  5
B597
 10
87.5058
 20
71.5000
 30
0.000000
  70
    32
  0
VERTEX
  8
0
  5
B598
 10
87.5059
 20
71.5000
 30
0.000000
  70
    32
  0
VERTEX
  8
0
  5
B599
 10
87.5059
 20
71.5000
 30
0.000000
  70
    32
  0
VERTEX
  8
0
  5
B59A
 10
87.5059
 20
71.5000
 30
0.000000
  70
    32
  0
VERTEX
  8
0
  5
B59B
 10
87.5060
 20
71.5000
 30
0.000000
  70
    32
  0
VERTEX
  8
0
  5
B59C
 10
87.5060
 20
71.5000
 30
0.000000
  70
    32
  0
VERTEX
  8
0
  5
B59D
 10
87.5060
 20
71.5000
 30
0.000000
  70
    32
  0
VERTEX
  8
0
  5
B59E
 10
87.5061
 20
71.5000
 30
0.000000
  70
    32
  0
VERTEX
  8
0
  5
B59F
 10
87.5061
 20
71.5000
 30
0.000000
  70
    32
  0
VERTEX
  8
0
  5
B5A0
 10
87.5062
 20
71.5000
 30
0.000000
  70
    32
  0
VERTEX
  8
0
  5
B5A1
 10
87.5062
 20
71.5000
 30
0.000000
  70
    32
  0
VERTEX
  8
0
  5
B5A2
 10
87.5062
 20
71.5000
 30
0.000000
  70
    32
  0
VERTEX
  8
0
  5
B5A3
 10
87.5063
 20
71.5000
 30
0.000000
  70
    32
  0
VERTEX
  8
0
  5
B5A4
 10
87.5063
 20
71.5000
 30
0.000000
  70
    32
  0
VERTEX
  8
0
  5
B5A5
 10
87.5063
 20
71.5000
 30
0.000000
  70
    32
  0
VERTEX
  8
0
  5
B5A6
 10
87.5064
 20
71.5000
 30
0.000000
  70
    32
  0
VERTEX
  8
0
  5
B5A7
 10
87.5064
 20
71.5000
 30
0.000000
  70
    32
  0
VERTEX
  8
0
  5
B5A8
 10
87.5065
 20
71.5000
 30
0.000000
  70
    32
  0
VERTEX
  8
0
  5
B5A9
 10
87.5065
 20
71.5000
 30
0.000000
  70
    32
  0
VERTEX
  8
0
  5
B5AA
 10
87.5065
 20
71.5000
 30
0.000000
  70
    32
  0
VERTEX
  8
0
  5
B5AB
 10
87.5066
 20
71.5000
 30
0.000000
  70
    32
  0
VERTEX
  8
0
  5
B5AC
 10
87.5066
 20
71.5000
 30
0.000000
  70
    32
  0
VERTEX
  8
0
  5
B5AD
 10
87.5066
 20
71.5000
 30
0.000000
  70
    32
  0
VERTEX
  8
0
  5
B5AE
 10
87.5067
 20
71.5000
 30
0.000000
  70
    32
  0
VERTEX
  8
0
  5
B5AF
 10
87.5067
 20
71.5000
 30
0.000000
  70
    32
  0
VERTEX
  8
0
  5
B5B0
 10
87.5067
 20
71.5000
 30
0.000000
  70
    32
  0
VERTEX
  8
0
  5
B5B1
 10
87.5068
 20
71.5000
 30
0.000000
  70
    32
  0
VERTEX
  8
0
  5
B5B2
 10
87.5068
 20
71.5000
 30
0.000000
  70
    32
  0
VERTEX
  8
0
  5
B5B3
 10
87.5069
 20
71.5000
 30
0.000000
  70
    32
  0
VERTEX
  8
0
  5
B5B4
 10
87.5069
 20
71.5000
 30
0.000000
  70
    32
  0
VERTEX
  8
0
  5
B5B5
 10
87.5069
 20
71.5000
 30
0.000000
  70
    32
  0
VERTEX
  8
0
  5
B5B6
 10
87.5070
 20
71.5000
 30
0.000000
  70
    32
  0
VERTEX
  8
0
  5
B5B7
 10
87.5070
 20
71.5000
 30
0.000000
  70
    32
  0
VERTEX
  8
0
  5
B5B8
 10
87.5070
 20
71.5000
 30
0.000000
  70
    32
  0
VERTEX
  8
0
  5
B5B9
 10
87.5071
 20
71.5000
 30
0.000000
  70
    32
  0
VERTEX
  8
0
  5
B5BA
 10
87.5071
 20
71.5000
 30
0.000000
  70
    32
  0
VERTEX
  8
0
  5
B5BB
 10
87.5072
 20
71.5000
 30
0.000000
  70
    32
  0
VERTEX
  8
0
  5
B5BC
 10
87.5072
 20
71.5000
 30
0.000000
  70
    32
  0
VERTEX
  8
0
  5
B5BD
 10
87.5072
 20
71.5000
 30
0.000000
  70
    32
  0
VERTEX
  8
0
  5
B5BE
 10
87.5073
 20
71.5000
 30
0.000000
  70
    32
  0
VERTEX
  8
0
  5
B5BF
 10
87.5073
 20
71.5000
 30
0.000000
  70
    32
  0
VERTEX
  8
0
  5
B5C0
 10
87.5073
 20
71.5000
 30
0.000000
  70
    32
  0
VERTEX
  8
0
  5
B5C1
 10
87.5074
 20
71.5000
 30
0.000000
  70
    32
  0
VERTEX
  8
0
  5
B5C2
 10
87.5074
 20
71.5000
 30
0.000000
  70
    32
  0
VERTEX
  8
0
  5
B5C3
 10
87.5075
 20
71.5000
 30
0.000000
  70
    32
  0
VERTEX
  8
0
  5
B5C4
 10
87.5075
 20
71.5000
 30
0.000000
  70
    32
  0
VERTEX
  8
0
  5
B5C5
 10
87.5075
 20
71.5000
 30
0.000000
  70
    32
  0
VERTEX
  8
0
  5
B5C6
 10
87.5076
 20
71.5000
 30
0.000000
  70
    32
  0
VERTEX
  8
0
  5
B5C7
 10
87.5076
 20
71.5000
 30
0.000000
  70
    32
  0
VERTEX
  8
0
  5
B5C8
 10
87.5076
 20
71.5000
 30
0.000000
  70
    32
  0
VERTEX
  8
0
  5
B5C9
 10
87.5077
 20
71.5000
 30
0.000000
  70
    32
  0
VERTEX
  8
0
  5
B5CA
 10
87.5077
 20
71.5000
 30
0.000000
  70
    32
  0
VERTEX
  8
0
  5
B5CB
 10
87.5077
 20
71.5000
 30
0.000000
  70
    32
  0
VERTEX
  8
0
  5
B5CC
 10
87.5078
 20
71.5000
 30
0.000000
  70
    32
  0
VERTEX
  8
0
  5
B5CD
 10
87.5078
 20
71.5000
 30
0.000000
  70
    32
  0
VERTEX
  8
0
  5
B5CE
 10
87.5079
 20
71.5000
 30
0.000000
  70
    32
  0
VERTEX
  8
0
  5
B5CF
 10
87.5079
 20
71.5000
 30
0.000000
  70
    32
  0
VERTEX
  8
0
  5
B5D0
 10
87.5079
 20
71.5000
 30
0.000000
  70
    32
  0
VERTEX
  8
0
  5
B5D1
 10
87.5080
 20
71.5000
 30
0.000000
  70
    32
  0
VERTEX
  8
0
  5
B5D2
 10
87.5080
 20
71.5000
 30
0.000000
  70
    32
  0
VERTEX
  8
0
  5
B5D3
 10
87.5080
 20
71.5000
 30
0.000000
  70
    32
  0
VERTEX
  8
0
  5
B5D4
 10
87.5081
 20
71.5000
 30
0.000000
  70
    32
  0
VERTEX
  8
0
  5
B5D5
 10
87.5081
 20
71.5000
 30
0.000000
  70
    32
  0
VERTEX
  8
0
  5
B5D6
 10
87.5082
 20
71.5000
 30
0.000000
  70
    32
  0
VERTEX
  8
0
  5
B5D7
 10
87.5082
 20
71.5000
 30
0.000000
  70
    32
  0
VERTEX
  8
0
  5
B5D8
 10
87.5082
 20
71.5000
 30
0.000000
  70
    32
  0
VERTEX
  8
0
  5
B5D9
 10
87.5083
 20
71.5000
 30
0.000000
  70
    32
  0
VERTEX
  8
0
  5
B5DA
 10
87.5083
 20
71.5000
 30
0.000000
  70
    32
  0
VERTEX
  8
0
  5
B5DB
 10
87.5083
 20
71.5000
 30
0.000000
  70
    32
  0
VERTEX
  8
0
  5
B5DC
 10
87.5084
 20
71.5000
 30
0.000000
  70
    32
  0
VERTEX
  8
0
  5
B5DD
 10
87.5084
 20
71.5000
 30
0.000000
  70
    32
  0
VERTEX
  8
0
  5
B5DE
 10
87.5085
 20
71.5000
 30
0.000000
  70
    32
  0
VERTEX
  8
0
  5
B5DF
 10
87.5085
 20
71.5000
 30
0.000000
  70
    32
  0
VERTEX
  8
0
  5
B5E0
 10
87.5085
 20
71.5000
 30
0.000000
  70
    32
  0
VERTEX
  8
0
  5
B5E1
 10
87.5086
 20
71.5000
 30
0.000000
  70
    32
  0
VERTEX
  8
0
  5
B5E2
 10
87.5086
 20
71.5000
 30
0.000000
  70
    32
  0
VERTEX
  8
0
  5
B5E3
 10
87.5086
 20
71.5000
 30
0.000000
  70
    32
  0
VERTEX
  8
0
  5
B5E4
 10
87.5087
 20
71.5000
 30
0.000000
  70
    32
  0
VERTEX
  8
0
  5
B5E5
 10
87.5087
 20
71.5000
 30
0.000000
  70
    32
  0
VERTEX
  8
0
  5
B5E6
 10
87.5087
 20
71.5000
 30
0.000000
  70
    32
  0
VERTEX
  8
0
  5
B5E7
 10
87.5088
 20
71.5000
 30
0.000000
  70
    32
  0
VERTEX
  8
0
  5
B5E8
 10
87.5088
 20
71.5000
 30
0.000000
  70
    32
  0
VERTEX
  8
0
  5
B5E9
 10
87.5089
 20
71.5000
 30
0.000000
  70
    32
  0
VERTEX
  8
0
  5
B5EA
 10
87.5089
 20
71.5000
 30
0.000000
  70
    32
  0
VERTEX
  8
0
  5
B5EB
 10
87.5089
 20
71.5000
 30
0.000000
  70
    32
  0
VERTEX
  8
0
  5
B5EC
 10
87.5090
 20
71.5000
 30
0.000000
  70
    32
  0
VERTEX
  8
0
  5
B5ED
 10
87.5090
 20
71.5000
 30
0.000000
  70
    32
  0
VERTEX
  8
0
  5
B5EE
 10
87.5090
 20
71.5000
 30
0.000000
  70
    32
  0
VERTEX
  8
0
  5
B5EF
 10
87.5091
 20
71.5000
 30
0.000000
  70
    32
  0
VERTEX
  8
0
  5
B5F0
 10
87.5091
 20
71.5000
 30
0.000000
  70
    32
  0
VERTEX
  8
0
  5
B5F1
 10
87.5092
 20
71.5000
 30
0.000000
  70
    32
  0
SEQEND
  8
0
  5
B5F2
  0
ARC
  5
AE55
  8
0
 10
87.522576154938619
 20
71.987779467175926
 30
0.0
 40
0.4881595560787109
 50
178.5755875491873
 51
267.86780877935809
  0
ARC
  5
AE56
  8
0
 10
99.500000372529044
 20
75.5
 30
0.0
 40
0.5
 50
0.0
 51
90.0
  0
LINE
  5
AE57
  8
0
 10
99.499999731779084
 20
76.000000536441803
 30
0.0
 11
75.500000396277755
 21
76.000000536441803
 31
0.0
  0
LINE
  5
AE58
  8
0
 10
99.500000372529044
 20
71.5
 30
0.0
 11
87.509156569713596
 21
71.5
 31
0.0
  0
CIRCLE
  5
AE9D
  8
3
 10
65.000000372529016
 20
56.0
 30
0.0
 40
1.5
  0
CIRCLE
  5
AE9E
  8
0
 10
65.000000372529016
 20
56.0
 30
0.0
 40
1.2295
  0
CIRCLE
  5
AE9F
  8
3
 10
85.000000372529016
 20
56.0
 30
0.0
 40
1.5
  0
CIRCLE
  5
AEA0
  8
0
 10
85.000000372529016
 20
56.0
 30
0.0
 40
1.2295
  0
LINE
  5
AEA1
  8
1
 10
61.50000037252903
 20
56.0
 30
0.0
 11
68.50000037252903
 21
56.0
 31
0.0
  0
LINE
  5
AEA2
  8
1
 10
81.50000037252903
 20
56.0
 30
0.0
 11
88.500000372529016
 21
56.0
 31
0.0
  0
LINE
  5
AEA3
  8
1
 10
85.000000372529016
 20
52.5
 30
0.0
 11
85.000000372529016
 21
59.5
 31
0.0
  0
LINE
  5
AEA4
  8
1
 10
65.000000372529016
 20
52.5
 30
0.0
 11
65.000000372529016
 21
59.5
 31
0.0
  0
LINE
  5
B051
  8
1
 10
75.000000372529016
 20
45.0
 30
0.0
 11
75.000000372529016
 21
94.999999105930314
 31
0.0
  0
LINE
  5
B097
  8
0
 10
77.631305158138247
 20
212.00000271201131
 30
0.0
 11
72.368695586919756
 21
212.00000271201131
 31
0.0
  0
ARC
  5
B098
  8
0
 10
70.263470305480794
 20
224.50000181794161
 30
0.0
 40
0.5
 50
89.999999999999204
 51
183.0000000000056
  0
ARC
  5
B099
  8
0
 10
79.736530439577209
 20
224.50000181794161
 30
0.0
 40
0.5
 50
356.99999999999432
 51
89.999999999999204
  0
LINE
  5
B09A
  8
0
 10
70.339293405413599
 20
213.49955126643181
 30
0.0
 11
69.764155615121084
 21
224.4738336652517
 31
0.0
  0
LINE
  5
B09B
  8
0
 10
80.235845129936905
 20
224.4738336652517
 30
0.0
 11
79.660704080015392
 21
213.499491661787
 31
0.0
  0
ARC
  5
B09C
  8
0
 10
71.330167293349803
 20
213.52576872482049
 30
0.0
 40
0.9912189899733213
 50
181.51908026947211
 51
245.87486268003539
  0
ARC
  5
B09D
  8
0
 10
78.671930047103515
 20
213.52443470876551
 30
0.0
 40
0.9890885924695476
 50
294.13842468946081
 51
358.55494962504031
  0
ARC
  5
B09E
  8
0
 10
115.3258967505022
 20
140.51629419340679
 30
0.0
 40
80.704608440828181
 50
116.68996557679959
 51
117.4817265907074
  0
ARC
  5
B09F
  8
0
 10
77.619734316040848
 20
213.0000047362345
 30
0.0
 40
1.000002914593451
 50
270.66544342414892
 51
297.62954236373662
  0
ARC
  5
B0A0
  8
0
 10
72.380700742282997
 20
213.00114769756621
 30
0.0
 40
1.001216962429675
 50
242.3787706183154
 51
269.31297486567792
  0
ARC
  5
B0A1
  8
0
 10
33.46357700094886
 20
138.15189431852701
 30
0.0
 40
83.360823278899304
 50
62.530068317769462
 51
63.295501615823987
  0
LINE
  5
B0A2
  8
0
 10
67.145846970379324
 20
224.51745122671119
 30
0.0
 11
67.197619192302199
 21
226.00000128149981
 31
0.0
  0
LINE
  5
B0A3
  8
0
 10
82.802381552755804
 20
226.00000128149981
 30
0.0
 11
82.854153774678679
 21
224.51745122671119
 31
0.0
  0
ARC
  5
B0A4
  8
0
 10
67.645542836203191
 20
224.50000181794161
 30
0.0
 40
0.5000000000000152
 50
178.00000000000281
 51
254.99999999999881
  0
ARC
  5
B0A5
  8
0
 10
82.354457908854812
 20
224.50000181794161
 30
0.0
 40
0.5000000000000152
 50
285.00000000000119
 51
1.999999999997133
  0
LINE
  5
B0A6
  8
0
 10
82.483867369592176
 20
224.0170385688543
 30
0.0
 11
80.179546680301414
 21
223.3995977789163
 31
0.0
  0
LINE
  5
B0A7
  8
0
 10
69.820454064756603
 20
223.3995977789163
 30
0.0
 11
67.516133375465841
 21
224.0170385688543
 31
0.0
  0
LINE
  5
B0A8
  8
0
 10
70.33929666504261
 20
213.499491661787
 30
0.0
 11
70.339293405413599
 21
213.49955126643181
 31
0.0
  0
ARC
  5
B0A9
  8
0
 10
72.826170818114846
 20
224.52257582953959
 30
0.0
 40
0.4784188342363678
 50
93.693199047276508
 51
185.84754228700871
  0
ARC
  5
B0AA
  8
0
 10
77.173829926943156
 20
224.52257582953959
 30
0.0
 40
0.4784188342363678
 50
354.15245771299129
 51
86.306800952721815
  0
LINE
  5
B0AB
  8
0
 10
72.809954360127421
 20
214.63382393121711
 30
0.0
 11
72.35024143010375
 21
224.4738336652517
 31
0.0
  0
ARC
  5
B0AC
  8
0
 10
75.000000372529001
 20
203.2179206126707
 30
0.0
 40
11.624076312328359
 50
79.140223762459016
 51
100.85977623753951
  0
LINE
  5
B0AD
  8
0
 10
77.190046384930582
 20
214.63382393121711
 30
0.0
 11
77.649759314954252
 21
224.4738336652517
 31
0.0
  0
ARC
  5
B0AE
  8
0
 10
28.81813233803193
 20
105.11244612252069
 30
0.0
 40
119.7279176536357
 50
64.917992257016905
 51
66.170562699755479
  0
ARC
  5
B0AF
  8
0
 10
121.18028816525251
 20
105.1159207598524
 30
0.0
 40
119.7241007795492
 50
113.8294173331104
 51
115.08202771011381
  0
LINE
  5
B0B0
  8
0
 10
79.737367311163425
 20
225.000001117587
 30
0.0
 11
70.263470243662553
 21
225.000001117587
 31
0.0
  0
LINE
  5
B0B1
  8
0
 10
100.000000745058
 20
252.00000181794161
 30
0.0
 11
49.999999999999972
 21
252.00000181794161
 31
0.0
  0
ARC
  5
B0B2
  8
0
 10
50.500000372528987
 20
231.00000181794161
 30
0.0
 40
0.5
 50
180.0
 51
270.0
  0
ARC
  5
B0B3
  8
0
 10
63.450841470127031
 20
226.48538021332291
 30
0.0
 40
0.4856283531028325
 50
178.2745855159518
 51
268.16358448138368
  0
LINE
  5
B0B4
  8
0
 10
62.965433299541438
 20
230.00008761882779
 30
0.0
 11
62.965433299541438
 21
226.5000022947788
 31
0.0
  0
POLYLINE
  5
B0B5
  8
0
 10
62.495586785746326
 20
230.50004426636914
 30
0.0
 66
     1
 70
     8
  0
VERTEX
  8
0
  5
B5F3
 10
62.4956
 20
230.500
 30
0.000000
  70
    32
  0
VERTEX
  8
0
  5
B5F4
 10
62.4955
 20
230.500
 30
0.000000
  70
    32
  0
VERTEX
  8
0
  5
B5F5
 10
62.4955
 20
230.500
 30
0.000000
  70
    32
  0
VERTEX
  8
0
  5
B5F6
 10
62.4955
 20
230.500
 30
0.000000
  70
    32
  0
VERTEX
  8
0
  5
B5F7
 10
62.4954
 20
230.500
 30
0.000000
  70
    32
  0
VERTEX
  8
0
  5
B5F8
 10
62.4954
 20
230.500
 30
0.000000
  70
    32
  0
VERTEX
  8
0
  5
B5F9
 10
62.4954
 20
230.500
 30
0.000000
  70
    32
  0
VERTEX
  8
0
  5
B5FA
 10
62.4953
 20
230.500
 30
0.000000
  70
    32
  0
VERTEX
  8
0
  5
B5FB
 10
62.4953
 20
230.500
 30
0.000000
  70
    32
  0
VERTEX
  8
0
  5
B5FC
 10
62.4953
 20
230.500
 30
0.000000
  70
    32
  0
VERTEX
  8
0
  5
B5FD
 10
62.4952
 20
230.500
 30
0.000000
  70
    32
  0
VERTEX
  8
0
  5
B5FE
 10
62.4952
 20
230.500
 30
0.000000
  70
    32
  0
VERTEX
  8
0
  5
B5FF
 10
62.4951
 20
230.500
 30
0.000000
  70
    32
  0
VERTEX
  8
0
  5
B600
 10
62.4951
 20
230.500
 30
0.000000
  70
    32
  0
VERTEX
  8
0
  5
B601
 10
62.4951
 20
230.500
 30
0.000000
  70
    32
  0
VERTEX
  8
0
  5
B602
 10
62.4950
 20
230.500
 30
0.000000
  70
    32
  0
VERTEX
  8
0
  5
B603
 10
62.4950
 20
230.500
 30
0.000000
  70
    32
  0
VERTEX
  8
0
  5
B604
 10
62.4950
 20
230.500
 30
0.000000
  70
    32
  0
VERTEX
  8
0
  5
B605
 10
62.4949
 20
230.500
 30
0.000000
  70
    32
  0
VERTEX
  8
0
  5
B606
 10
62.4949
 20
230.500
 30
0.000000
  70
    32
  0
VERTEX
  8
0
  5
B607
 10
62.4948
 20
230.500
 30
0.000000
  70
    32
  0
VERTEX
  8
0
  5
B608
 10
62.4948
 20
230.500
 30
0.000000
  70
    32
  0
VERTEX
  8
0
  5
B609
 10
62.4948
 20
230.500
 30
0.000000
  70
    32
  0
VERTEX
  8
0
  5
B60A
 10
62.4947
 20
230.500
 30
0.000000
  70
    32
  0
VERTEX
  8
0
  5
B60B
 10
62.4947
 20
230.500
 30
0.000000
  70
    32
  0
VERTEX
  8
0
  5
B60C
 10
62.4947
 20
230.500
 30
0.000000
  70
    32
  0
VERTEX
  8
0
  5
B60D
 10
62.4946
 20
230.500
 30
0.000000
  70
    32
  0
VERTEX
  8
0
  5
B60E
 10
62.4946
 20
230.500
 30
0.000000
  70
    32
  0
VERTEX
  8
0
  5
B60F
 10
62.4945
 20
230.500
 30
0.000000
  70
    32
  0
VERTEX
  8
0
  5
B610
 10
62.4945
 20
230.500
 30
0.000000
  70
    32
  0
VERTEX
  8
0
  5
B611
 10
62.4945
 20
230.500
 30
0.000000
  70
    32
  0
VERTEX
  8
0
  5
B612
 10
62.4944
 20
230.500
 30
0.000000
  70
    32
  0
VERTEX
  8
0
  5
B613
 10
62.4944
 20
230.500
 30
0.000000
  70
    32
  0
VERTEX
  8
0
  5
B614
 10
62.4944
 20
230.500
 30
0.000000
  70
    32
  0
VERTEX
  8
0
  5
B615
 10
62.4943
 20
230.500
 30
0.000000
  70
    32
  0
VERTEX
  8
0
  5
B616
 10
62.4943
 20
230.500
 30
0.000000
  70
    32
  0
VERTEX
  8
0
  5
B617
 10
62.4943
 20
230.500
 30
0.000000
  70
    32
  0
VERTEX
  8
0
  5
B618
 10
62.4942
 20
230.500
 30
0.000000
  70
    32
  0
VERTEX
  8
0
  5
B619
 10
62.4942
 20
230.500
 30
0.000000
  70
    32
  0
VERTEX
  8
0
  5
B61A
 10
62.4941
 20
230.500
 30
0.000000
  70
    32
  0
VERTEX
  8
0
  5
B61B
 10
62.4941
 20
230.500
 30
0.000000
  70
    32
  0
VERTEX
  8
0
  5
B61C
 10
62.4941
 20
230.500
 30
0.000000
  70
    32
  0
VERTEX
  8
0
  5
B61D
 10
62.4940
 20
230.500
 30
0.000000
  70
    32
  0
VERTEX
  8
0
  5
B61E
 10
62.4940
 20
230.500
 30
0.000000
  70
    32
  0
VERTEX
  8
0
  5
B61F
 10
62.4940
 20
230.500
 30
0.000000
  70
    32
  0
VERTEX
  8
0
  5
B620
 10
62.4939
 20
230.500
 30
0.000000
  70
    32
  0
VERTEX
  8
0
  5
B621
 10
62.4939
 20
230.500
 30
0.000000
  70
    32
  0
VERTEX
  8
0
  5
B622
 10
62.4938
 20
230.500
 30
0.000000
  70
    32
  0
VERTEX
  8
0
  5
B623
 10
62.4938
 20
230.500
 30
0.000000
  70
    32
  0
VERTEX
  8
0
  5
B624
 10
62.4938
 20
230.500
 30
0.000000
  70
    32
  0
VERTEX
  8
0
  5
B625
 10
62.4937
 20
230.500
 30
0.000000
  70
    32
  0
VERTEX
  8
0
  5
B626
 10
62.4937
 20
230.500
 30
0.000000
  70
    32
  0
VERTEX
  8
0
  5
B627
 10
62.4937
 20
230.500
 30
0.000000
  70
    32
  0
VERTEX
  8
0
  5
B628
 10
62.4936
 20
230.500
 30
0.000000
  70
    32
  0
VERTEX
  8
0
  5
B629
 10
62.4936
 20
230.500
 30
0.000000
  70
    32
  0
VERTEX
  8
0
  5
B62A
 10
62.4935
 20
230.500
 30
0.000000
  70
    32
  0
VERTEX
  8
0
  5
B62B
 10
62.4935
 20
230.500
 30
0.000000
  70
    32
  0
VERTEX
  8
0
  5
B62C
 10
62.4935
 20
230.500
 30
0.000000
  70
    32
  0
VERTEX
  8
0
  5
B62D
 10
62.4934
 20
230.500
 30
0.000000
  70
    32
  0
VERTEX
  8
0
  5
B62E
 10
62.4934
 20
230.500
 30
0.000000
  70
    32
  0
VERTEX
  8
0
  5
B62F
 10
62.4934
 20
230.500
 30
0.000000
  70
    32
  0
VERTEX
  8
0
  5
B630
 10
62.4933
 20
230.500
 30
0.000000
  70
    32
  0
VERTEX
  8
0
  5
B631
 10
62.4933
 20
230.500
 30
0.000000
  70
    32
  0
VERTEX
  8
0
  5
B632
 10
62.4933
 20
230.500
 30
0.000000
  70
    32
  0
VERTEX
  8
0
  5
B633
 10
62.4932
 20
230.500
 30
0.000000
  70
    32
  0
VERTEX
  8
0
  5
B634
 10
62.4932
 20
230.500
 30
0.000000
  70
    32
  0
VERTEX
  8
0
  5
B635
 10
62.4931
 20
230.500
 30
0.000000
  70
    32
  0
VERTEX
  8
0
  5
B636
 10
62.4931
 20
230.500
 30
0.000000
  70
    32
  0
VERTEX
  8
0
  5
B637
 10
62.4931
 20
230.500
 30
0.000000
  70
    32
  0
VERTEX
  8
0
  5
B638
 10
62.4930
 20
230.500
 30
0.000000
  70
    32
  0
VERTEX
  8
0
  5
B639
 10
62.4930
 20
230.500
 30
0.000000
  70
    32
  0
VERTEX
  8
0
  5
B63A
 10
62.4930
 20
230.500
 30
0.000000
  70
    32
  0
VERTEX
  8
0
  5
B63B
 10
62.4929
 20
230.500
 30
0.000000
  70
    32
  0
VERTEX
  8
0
  5
B63C
 10
62.4929
 20
230.500
 30
0.000000
  70
    32
  0
VERTEX
  8
0
  5
B63D
 10
62.4928
 20
230.500
 30
0.000000
  70
    32
  0
VERTEX
  8
0
  5
B63E
 10
62.4928
 20
230.500
 30
0.000000
  70
    32
  0
VERTEX
  8
0
  5
B63F
 10
62.4928
 20
230.500
 30
0.000000
  70
    32
  0
VERTEX
  8
0
  5
B640
 10
62.4927
 20
230.500
 30
0.000000
  70
    32
  0
VERTEX
  8
0
  5
B641
 10
62.4927
 20
230.500
 30
0.000000
  70
    32
  0
VERTEX
  8
0
  5
B642
 10
62.4927
 20
230.500
 30
0.000000
  70
    32
  0
VERTEX
  8
0
  5
B643
 10
62.4926
 20
230.500
 30
0.000000
  70
    32
  0
VERTEX
  8
0
  5
B644
 10
62.4926
 20
230.500
 30
0.000000
  70
    32
  0
VERTEX
  8
0
  5
B645
 10
62.4925
 20
230.500
 30
0.000000
  70
    32
  0
VERTEX
  8
0
  5
B646
 10
62.4925
 20
230.500
 30
0.000000
  70
    32
  0
VERTEX
  8
0
  5
B647
 10
62.4925
 20
230.500
 30
0.000000
  70
    32
  0
VERTEX
  8
0
  5
B648
 10
62.4924
 20
230.500
 30
0.000000
  70
    32
  0
VERTEX
  8
0
  5
B649
 10
62.4924
 20
230.500
 30
0.000000
  70
    32
  0
VERTEX
  8
0
  5
B64A
 10
62.4924
 20
230.500
 30
0.000000
  70
    32
  0
VERTEX
  8
0
  5
B64B
 10
62.4923
 20
230.500
 30
0.000000
  70
    32
  0
VERTEX
  8
0
  5
B64C
 10
62.4923
 20
230.500
 30
0.000000
  70
    32
  0
VERTEX
  8
0
  5
B64D
 10
62.4923
 20
230.500
 30
0.000000
  70
    32
  0
VERTEX
  8
0
  5
B64E
 10
62.4922
 20
230.500
 30
0.000000
  70
    32
  0
VERTEX
  8
0
  5
B64F
 10
62.4922
 20
230.500
 30
0.000000
  70
    32
  0
VERTEX
  8
0
  5
B650
 10
62.4921
 20
230.500
 30
0.000000
  70
    32
  0
VERTEX
  8
0
  5
B651
 10
62.4921
 20
230.500
 30
0.000000
  70
    32
  0
VERTEX
  8
0
  5
B652
 10
62.4921
 20
230.500
 30
0.000000
  70
    32
  0
VERTEX
  8
0
  5
B653
 10
62.4920
 20
230.500
 30
0.000000
  70
    32
  0
VERTEX
  8
0
  5
B654
 10
62.4920
 20
230.500
 30
0.000000
  70
    32
  0
VERTEX
  8
0
  5
B655
 10
62.4920
 20
230.500
 30
0.000000
  70
    32
  0
VERTEX
  8
0
  5
B656
 10
62.4919
 20
230.500
 30
0.000000
  70
    32
  0
VERTEX
  8
0
  5
B657
 10
62.4919
 20
230.500
 30
0.000000
  70
    32
  0
VERTEX
  8
0
  5
B658
 10
62.4918
 20
230.500
 30
0.000000
  70
    32
  0
VERTEX
  8
0
  5
B659
 10
62.4918
 20
230.500
 30
0.000000
  70
    32
  0
VERTEX
  8
0
  5
B65A
 10
62.4918
 20
230.500
 30
0.000000
  70
    32
  0
VERTEX
  8
0
  5
B65B
 10
62.4917
 20
230.500
 30
0.000000
  70
    32
  0
VERTEX
  8
0
  5
B65C
 10
62.4917
 20
230.500
 30
0.000000
  70
    32
  0
VERTEX
  8
0
  5
B65D
 10
62.4917
 20
230.500
 30
0.000000
  70
    32
  0
VERTEX
  8
0
  5
B65E
 10
62.4916
 20
230.500
 30
0.000000
  70
    32
  0
VERTEX
  8
0
  5
B65F
 10
62.4916
 20
230.500
 30
0.000000
  70
    32
  0
VERTEX
  8
0
  5
B660
 10
62.4915
 20
230.500
 30
0.000000
  70
    32
  0
VERTEX
  8
0
  5
B661
 10
62.4915
 20
230.500
 30
0.000000
  70
    32
  0
VERTEX
  8
0
  5
B662
 10
62.4915
 20
230.500
 30
0.000000
  70
    32
  0
VERTEX
  8
0
  5
B663
 10
62.4914
 20
230.500
 30
0.000000
  70
    32
  0
VERTEX
  8
0
  5
B664
 10
62.4914
 20
230.500
 30
0.000000
  70
    32
  0
VERTEX
  8
0
  5
B665
 10
62.4914
 20
230.500
 30
0.000000
  70
    32
  0
VERTEX
  8
0
  5
B666
 10
62.4913
 20
230.500
 30
0.000000
  70
    32
  0
VERTEX
  8
0
  5
B667
 10
62.4913
 20
230.500
 30
0.000000
  70
    32
  0
VERTEX
  8
0
  5
B668
 10
62.4913
 20
230.500
 30
0.000000
  70
    32
  0
VERTEX
  8
0
  5
B669
 10
62.4912
 20
230.500
 30
0.000000
  70
    32
  0
VERTEX
  8
0
  5
B66A
 10
62.4912
 20
230.500
 30
0.000000
  70
    32
  0
VERTEX
  8
0
  5
B66B
 10
62.4911
 20
230.500
 30
0.000000
  70
    32
  0
VERTEX
  8
0
  5
B66C
 10
62.4911
 20
230.500
 30
0.000000
  70
    32
  0
VERTEX
  8
0
  5
B66D
 10
62.4911
 20
230.500
 30
0.000000
  70
    32
  0
VERTEX
  8
0
  5
B66E
 10
62.4910
 20
230.500
 30
0.000000
  70
    32
  0
VERTEX
  8
0
  5
B66F
 10
62.4910
 20
230.500
 30
0.000000
  70
    32
  0
VERTEX
  8
0
  5
B670
 10
62.4910
 20
230.500
 30
0.000000
  70
    32
  0
VERTEX
  8
0
  5
B671
 10
62.4909
 20
230.500
 30
0.000000
  70
    32
  0
VERTEX
  8
0
  5
B672
 10
62.4909
 20
230.500
 30
0.000000
  70
    32
  0
VERTEX
  8
0
  5
B673
 10
62.4908
 20
230.500
 30
0.000000
  70
    32
  0
SEQEND
  8
0
  5
B674
  0
LINE
  5
B0B6
  8
0
 10
74.500000348780276
 20
226.00000128149981
 30
0.0
 11
74.50000034878029
 21
252.00000181794161
 31
0.0
  0
ARC
  5
B0B7
  8
0
 10
62.477424590119412
 20
230.01222235076571
 30
0.0
 40
0.4881595560787109
 50
358.57558754919057
 51
87.867808779357503
  0
LINE
  5
B0B8
  8
0
 10
75.500000396277741
 20
252.00000181794161
 30
0.0
 11
75.500000396277727
 21
226.00000128149981
 31
0.0
  0
LINE
  5
B0B9
  8
0
 10
74.500000348780276
 20
226.400002464652
 30
0.0
 11
75.500000396277727
 21
226.400002464652
 31
0.0
  0
LINE
  5
B0BA
  8
0
 10
100.000000745058
 20
226.5000022947788
 30
0.0
 11
100.000000745058
 21
252.00000181794161
 31
0.0
  0
LINE
  5
B0BB
  8
0
 10
49.999999999999972
 20
252.00000181794161
 30
0.0
 11
49.999999999999972
 21
226.5000022947788
 31
0.0
  0
ARC
  5
B0BC
  8
0
 10
50.500000372528987
 20
226.50000181794161
 30
0.0
 40
0.5
 50
180.0
 51
270.0
  0
LINE
  5
B0BD
  8
0
 10
50.500001013278933
 20
226.00000128149981
 30
0.0
 11
74.500000348780276
 21
226.00000128149981
 31
0.0
  0
LINE
  5
B0BE
  8
0
 10
70.427404437214093
 20
213.55025619268409
 30
0.0
 11
70.339296665042525
 21
213.499491661787
 31
0.0
  0
POLYLINE
  5
B0BF
  8
0
 66
     1
 10
0.0
 20
0.0
 30
0.0
 70
   128
  0
VERTEX
  5
B469
  8
0
 10
79.660704080015392
 20
213.499491661787
 30
0.0
  0
VERTEX
  5
B46A
  8
0
 10
79.647542163729639
 20
213.52012604475021
 30
0.0
  0
VERTEX
  5
B46B
  8
0
 10
79.572596307843895
 20
213.55025619268409
 30
0.0
  0
SEQEND
  5
B46C
  8
0
  0
LINE
  5
B0C0
  8
0
 10
80.236226040869937
 20
224.51745122671119
 30
0.0
 11
82.854153774678679
 21
224.51745122671119
 31
0.0
  0
LINE
  5
B0C1
  8
0
 10
67.145846970379324
 20
224.51745122671119
 30
0.0
 11
69.76377470418808
 21
224.51745122671119
 31
0.0
  0
LINE
  5
B0C2
  8
0
 10
67.516133375465841
 20
224.0170385688543
 30
0.0
 11
69.788095261901589
 21
224.0170385688543
 31
0.0
  0
LINE
  5
B0C3
  8
0
 10
80.211905483156414
 20
224.0170385688543
 30
0.0
 11
82.483867369592176
 21
224.0170385688543
 31
0.0
  0
LINE
  5
B0C4
  8
0
 10
50.500000372528987
 20
230.50000181794161
 30
0.0
 11
62.490844175344442
 21
230.50000181794161
 31
0.0
  0
ARC
  5
B0C5
  8
0
 10
99.500000372529016
 20
231.00000181794161
 30
0.0
 40
0.5
 50
270.0
 51
0.0
  0
ARC
  5
B0C6
  8
0
 10
86.549159274930986
 20
226.48538021332291
 30
0.0
 40
0.4856283531028325
 50
271.83641551861581
 51
1.7254144840546319
  0
LINE
  5
B0C7
  8
0
 10
87.034567445516558
 20
230.00008761882779
 30
0.0
 11
87.034567445516558
 21
226.5000022947788
 31
0.0
  0
POLYLINE
  5
B0C8
  8
0
 10
87.504413959311663
 20
230.50004426636914
 30
0.0
 66
     1
 70
     8
  0
VERTEX
  8
0
  5
B675
 10
87.5044
 20
230.500
 30
0.000000
  70
    32
  0
VERTEX
  8
0
  5
B676
 10
87.5045
 20
230.500
 30
0.000000
  70
    32
  0
VERTEX
  8
0
  5
B677
 10
87.5045
 20
230.500
 30
0.000000
  70
    32
  0
VERTEX
  8
0
  5
B678
 10
87.5045
 20
230.500
 30
0.000000
  70
    32
  0
VERTEX
  8
0
  5
B679
 10
87.5046
 20
230.500
 30
0.000000
  70
    32
  0
VERTEX
  8
0
  5
B67A
 10
87.5046
 20
230.500
 30
0.000000
  70
    32
  0
VERTEX
  8
0
  5
B67B
 10
87.5046
 20
230.500
 30
0.000000
  70
    32
  0
VERTEX
  8
0
  5
B67C
 10
87.5047
 20
230.500
 30
0.000000
  70
    32
  0
VERTEX
  8
0
  5
B67D
 10
87.5047
 20
230.500
 30
0.000000
  70
    32
  0
VERTEX
  8
0
  5
B67E
 10
87.5047
 20
230.500
 30
0.000000
  70
    32
  0
VERTEX
  8
0
  5
B67F
 10
87.5048
 20
230.500
 30
0.000000
  70
    32
  0
VERTEX
  8
0
  5
B680
 10
87.5048
 20
230.500
 30
0.000000
  70
    32
  0
VERTEX
  8
0
  5
B681
 10
87.5049
 20
230.500
 30
0.000000
  70
    32
  0
VERTEX
  8
0
  5
B682
 10
87.5049
 20
230.500
 30
0.000000
  70
    32
  0
VERTEX
  8
0
  5
B683
 10
87.5049
 20
230.500
 30
0.000000
  70
    32
  0
VERTEX
  8
0
  5
B684
 10
87.5050
 20
230.500
 30
0.000000
  70
    32
  0
VERTEX
  8
0
  5
B685
 10
87.5050
 20
230.500
 30
0.000000
  70
    32
  0
VERTEX
  8
0
  5
B686
 10
87.5050
 20
230.500
 30
0.000000
  70
    32
  0
VERTEX
  8
0
  5
B687
 10
87.5051
 20
230.500
 30
0.000000
  70
    32
  0
VERTEX
  8
0
  5
B688
 10
87.5051
 20
230.500
 30
0.000000
  70
    32
  0
VERTEX
  8
0
  5
B689
 10
87.5052
 20
230.500
 30
0.000000
  70
    32
  0
VERTEX
  8
0
  5
B68A
 10
87.5052
 20
230.500
 30
0.000000
  70
    32
  0
VERTEX
  8
0
  5
B68B
 10
87.5052
 20
230.500
 30
0.000000
  70
    32
  0
VERTEX
  8
0
  5
B68C
 10
87.5053
 20
230.500
 30
0.000000
  70
    32
  0
VERTEX
  8
0
  5
B68D
 10
87.5053
 20
230.500
 30
0.000000
  70
    32
  0
VERTEX
  8
0
  5
B68E
 10
87.5053
 20
230.500
 30
0.000000
  70
    32
  0
VERTEX
  8
0
  5
B68F
 10
87.5054
 20
230.500
 30
0.000000
  70
    32
  0
VERTEX
  8
0
  5
B690
 10
87.5054
 20
230.500
 30
0.000000
  70
    32
  0
VERTEX
  8
0
  5
B691
 10
87.5055
 20
230.500
 30
0.000000
  70
    32
  0
VERTEX
  8
0
  5
B692
 10
87.5055
 20
230.500
 30
0.000000
  70
    32
  0
VERTEX
  8
0
  5
B693
 10
87.5055
 20
230.500
 30
0.000000
  70
    32
  0
VERTEX
  8
0
  5
B694
 10
87.5056
 20
230.500
 30
0.000000
  70
    32
  0
VERTEX
  8
0
  5
B695
 10
87.5056
 20
230.500
 30
0.000000
  70
    32
  0
VERTEX
  8
0
  5
B696
 10
87.5056
 20
230.500
 30
0.000000
  70
    32
  0
VERTEX
  8
0
  5
B697
 10
87.5057
 20
230.500
 30
0.000000
  70
    32
  0
VERTEX
  8
0
  5
B698
 10
87.5057
 20
230.500
 30
0.000000
  70
    32
  0
VERTEX
  8
0
  5
B699
 10
87.5057
 20
230.500
 30
0.000000
  70
    32
  0
VERTEX
  8
0
  5
B69A
 10
87.5058
 20
230.500
 30
0.000000
  70
    32
  0
VERTEX
  8
0
  5
B69B
 10
87.5058
 20
230.500
 30
0.000000
  70
    32
  0
VERTEX
  8
0
  5
B69C
 10
87.5059
 20
230.500
 30
0.000000
  70
    32
  0
VERTEX
  8
0
  5
B69D
 10
87.5059
 20
230.500
 30
0.000000
  70
    32
  0
VERTEX
  8
0
  5
B69E
 10
87.5059
 20
230.500
 30
0.000000
  70
    32
  0
VERTEX
  8
0
  5
B69F
 10
87.5060
 20
230.500
 30
0.000000
  70
    32
  0
VERTEX
  8
0
  5
B6A0
 10
87.5060
 20
230.500
 30
0.000000
  70
    32
  0
VERTEX
  8
0
  5
B6A1
 10
87.5060
 20
230.500
 30
0.000000
  70
    32
  0
VERTEX
  8
0
  5
B6A2
 10
87.5061
 20
230.500
 30
0.000000
  70
    32
  0
VERTEX
  8
0
  5
B6A3
 10
87.5061
 20
230.500
 30
0.000000
  70
    32
  0
VERTEX
  8
0
  5
B6A4
 10
87.5062
 20
230.500
 30
0.000000
  70
    32
  0
VERTEX
  8
0
  5
B6A5
 10
87.5062
 20
230.500
 30
0.000000
  70
    32
  0
VERTEX
  8
0
  5
B6A6
 10
87.5062
 20
230.500
 30
0.000000
  70
    32
  0
VERTEX
  8
0
  5
B6A7
 10
87.5063
 20
230.500
 30
0.000000
  70
    32
  0
VERTEX
  8
0
  5
B6A8
 10
87.5063
 20
230.500
 30
0.000000
  70
    32
  0
VERTEX
  8
0
  5
B6A9
 10
87.5063
 20
230.500
 30
0.000000
  70
    32
  0
VERTEX
  8
0
  5
B6AA
 10
87.5064
 20
230.500
 30
0.000000
  70
    32
  0
VERTEX
  8
0
  5
B6AB
 10
87.5064
 20
230.500
 30
0.000000
  70
    32
  0
VERTEX
  8
0
  5
B6AC
 10
87.5065
 20
230.500
 30
0.000000
  70
    32
  0
VERTEX
  8
0
  5
B6AD
 10
87.5065
 20
230.500
 30
0.000000
  70
    32
  0
VERTEX
  8
0
  5
B6AE
 10
87.5065
 20
230.500
 30
0.000000
  70
    32
  0
VERTEX
  8
0
  5
B6AF
 10
87.5066
 20
230.500
 30
0.000000
  70
    32
  0
VERTEX
  8
0
  5
B6B0
 10
87.5066
 20
230.500
 30
0.000000
  70
    32
  0
VERTEX
  8
0
  5
B6B1
 10
87.5066
 20
230.500
 30
0.000000
  70
    32
  0
VERTEX
  8
0
  5
B6B2
 10
87.5067
 20
230.500
 30
0.000000
  70
    32
  0
VERTEX
  8
0
  5
B6B3
 10
87.5067
 20
230.500
 30
0.000000
  70
    32
  0
VERTEX
  8
0
  5
B6B4
 10
87.5067
 20
230.500
 30
0.000000
  70
    32
  0
VERTEX
  8
0
  5
B6B5
 10
87.5068
 20
230.500
 30
0.000000
  70
    32
  0
VERTEX
  8
0
  5
B6B6
 10
87.5068
 20
230.500
 30
0.000000
  70
    32
  0
VERTEX
  8
0
  5
B6B7
 10
87.5069
 20
230.500
 30
0.000000
  70
    32
  0
VERTEX
  8
0
  5
B6B8
 10
87.5069
 20
230.500
 30
0.000000
  70
    32
  0
VERTEX
  8
0
  5
B6B9
 10
87.5069
 20
230.500
 30
0.000000
  70
    32
  0
VERTEX
  8
0
  5
B6BA
 10
87.5070
 20
230.500
 30
0.000000
  70
    32
  0
VERTEX
  8
0
  5
B6BB
 10
87.5070
 20
230.500
 30
0.000000
  70
    32
  0
VERTEX
  8
0
  5
B6BC
 10
87.5070
 20
230.500
 30
0.000000
  70
    32
  0
VERTEX
  8
0
  5
B6BD
 10
87.5071
 20
230.500
 30
0.000000
  70
    32
  0
VERTEX
  8
0
  5
B6BE
 10
87.5071
 20
230.500
 30
0.000000
  70
    32
  0
VERTEX
  8
0
  5
B6BF
 10
87.5072
 20
230.500
 30
0.000000
  70
    32
  0
VERTEX
  8
0
  5
B6C0
 10
87.5072
 20
230.500
 30
0.000000
  70
    32
  0
VERTEX
  8
0
  5
B6C1
 10
87.5072
 20
230.500
 30
0.000000
  70
    32
  0
VERTEX
  8
0
  5
B6C2
 10
87.5073
 20
230.500
 30
0.000000
  70
    32
  0
VERTEX
  8
0
  5
B6C3
 10
87.5073
 20
230.500
 30
0.000000
  70
    32
  0
VERTEX
  8
0
  5
B6C4
 10
87.5073
 20
230.500
 30
0.000000
  70
    32
  0
VERTEX
  8
0
  5
B6C5
 10
87.5074
 20
230.500
 30
0.000000
  70
    32
  0
VERTEX
  8
0
  5
B6C6
 10
87.5074
 20
230.500
 30
0.000000
  70
    32
  0
VERTEX
  8
0
  5
B6C7
 10
87.5075
 20
230.500
 30
0.000000
  70
    32
  0
VERTEX
  8
0
  5
B6C8
 10
87.5075
 20
230.500
 30
0.000000
  70
    32
  0
VERTEX
  8
0
  5
B6C9
 10
87.5075
 20
230.500
 30
0.000000
  70
    32
  0
VERTEX
  8
0
  5
B6CA
 10
87.5076
 20
230.500
 30
0.000000
  70
    32
  0
VERTEX
  8
0
  5
B6CB
 10
87.5076
 20
230.500
 30
0.000000
  70
    32
  0
VERTEX
  8
0
  5
B6CC
 10
87.5076
 20
230.500
 30
0.000000
  70
    32
  0
VERTEX
  8
0
  5
B6CD
 10
87.5077
 20
230.500
 30
0.000000
  70
    32
  0
VERTEX
  8
0
  5
B6CE
 10
87.5077
 20
230.500
 30
0.000000
  70
    32
  0
VERTEX
  8
0
  5
B6CF
 10
87.5077
 20
230.500
 30
0.000000
  70
    32
  0
VERTEX
  8
0
  5
B6D0
 10
87.5078
 20
230.500
 30
0.000000
  70
    32
  0
VERTEX
  8
0
  5
B6D1
 10
87.5078
 20
230.500
 30
0.000000
  70
    32
  0
VERTEX
  8
0
  5
B6D2
 10
87.5079
 20
230.500
 30
0.000000
  70
    32
  0
VERTEX
  8
0
  5
B6D3
 10
87.5079
 20
230.500
 30
0.000000
  70
    32
  0
VERTEX
  8
0
  5
B6D4
 10
87.5079
 20
230.500
 30
0.000000
  70
    32
  0
VERTEX
  8
0
  5
B6D5
 10
87.5080
 20
230.500
 30
0.000000
  70
    32
  0
VERTEX
  8
0
  5
B6D6
 10
87.5080
 20
230.500
 30
0.000000
  70
    32
  0
VERTEX
  8
0
  5
B6D7
 10
87.5080
 20
230.500
 30
0.000000
  70
    32
  0
VERTEX
  8
0
  5
B6D8
 10
87.5081
 20
230.500
 30
0.000000
  70
    32
  0
VERTEX
  8
0
  5
B6D9
 10
87.5081
 20
230.500
 30
0.000000
  70
    32
  0
VERTEX
  8
0
  5
B6DA
 10
87.5082
 20
230.500
 30
0.000000
  70
    32
  0
VERTEX
  8
0
  5
B6DB
 10
87.5082
 20
230.500
 30
0.000000
  70
    32
  0
VERTEX
  8
0
  5
B6DC
 10
87.5082
 20
230.500
 30
0.000000
  70
    32
  0
VERTEX
  8
0
  5
B6DD
 10
87.5083
 20
230.500
 30
0.000000
  70
    32
  0
VERTEX
  8
0
  5
B6DE
 10
87.5083
 20
230.500
 30
0.000000
  70
    32
  0
VERTEX
  8
0
  5
B6DF
 10
87.5083
 20
230.500
 30
0.000000
  70
    32
  0
VERTEX
  8
0
  5
B6E0
 10
87.5084
 20
230.500
 30
0.000000
  70
    32
  0
VERTEX
  8
0
  5
B6E1
 10
87.5084
 20
230.500
 30
0.000000
  70
    32
  0
VERTEX
  8
0
  5
B6E2
 10
87.5085
 20
230.500
 30
0.000000
  70
    32
  0
VERTEX
  8
0
  5
B6E3
 10
87.5085
 20
230.500
 30
0.000000
  70
    32
  0
VERTEX
  8
0
  5
B6E4
 10
87.5085
 20
230.500
 30
0.000000
  70
    32
  0
VERTEX
  8
0
  5
B6E5
 10
87.5086
 20
230.500
 30
0.000000
  70
    32
  0
VERTEX
  8
0
  5
B6E6
 10
87.5086
 20
230.500
 30
0.000000
  70
    32
  0
VERTEX
  8
0
  5
B6E7
 10
87.5086
 20
230.500
 30
0.000000
  70
    32
  0
VERTEX
  8
0
  5
B6E8
 10
87.5087
 20
230.500
 30
0.000000
  70
    32
  0
VERTEX
  8
0
  5
B6E9
 10
87.5087
 20
230.500
 30
0.000000
  70
    32
  0
VERTEX
  8
0
  5
B6EA
 10
87.5087
 20
230.500
 30
0.000000
  70
    32
  0
VERTEX
  8
0
  5
B6EB
 10
87.5088
 20
230.500
 30
0.000000
  70
    32
  0
VERTEX
  8
0
  5
B6EC
 10
87.5088
 20
230.500
 30
0.000000
  70
    32
  0
VERTEX
  8
0
  5
B6ED
 10
87.5089
 20
230.500
 30
0.000000
  70
    32
  0
VERTEX
  8
0
  5
B6EE
 10
87.5089
 20
230.500
 30
0.000000
  70
    32
  0
VERTEX
  8
0
  5
B6EF
 10
87.5089
 20
230.500
 30
0.000000
  70
    32
  0
VERTEX
  8
0
  5
B6F0
 10
87.5090
 20
230.500
 30
0.000000
  70
    32
  0
VERTEX
  8
0
  5
B6F1
 10
87.5090
 20
230.500
 30
0.000000
  70
    32
  0
VERTEX
  8
0
  5
B6F2
 10
87.5090
 20
230.500
 30
0.000000
  70
    32
  0
VERTEX
  8
0
  5
B6F3
 10
87.5091
 20
230.500
 30
0.000000
  70
    32
  0
VERTEX
  8
0
  5
B6F4
 10
87.5091
 20
230.500
 30
0.000000
  70
    32
  0
VERTEX
  8
0
  5
B6F5
 10
87.5092
 20
230.500
 30
0.000000
  70
    32
  0
SEQEND
  8
0
  5
B6F6
  0
ARC
  5
B0C9
  8
0
 10
87.522576154938577
 20
230.01222235076571
 30
0.0
 40
0.4881595560787109
 50
92.132191220641843
 51
181.4244124508094
  0
ARC
  5
B0CA
  8
0
 10
99.500000372529016
 20
226.50000181794161
 30
0.0
 40
0.5
 50
270.0
 51
0.0
  0
LINE
  5
B0CB
  8
0
 10
99.499999731779084
 20
226.00000128149981
 30
0.0
 11
75.500000396277727
 21
226.00000128149981
 31
0.0
  0
LINE
  5
B0CC
  8
0
 10
99.500000372529016
 20
230.50000181794161
 30
0.0
 11
87.509156569713554
 21
230.50000181794161
 31
0.0
  0
LINE
  5
B0D5
  8
1
 10
75.000000372529001
 20
257.00000181794161
 30
0.0
 11
75.000000372529001
 21
207.00000271201131
 31
0.0
  0
LINE
  5
B11F
  8
0
 10
154.5000005025471
 20
138.49084489047519
 30
0.0
 11
154.50000123270399
 21
126.5000009089708
 31
0.0
  0
POLYLINE
  5
B120
  8
0
 10
154.50000123270399
 20
138.4908447117862
 30
0.0
 66
     1
 70
     8
  0
VERTEX
  8
0
  5
B6F7
 10
154.500
 20
138.491
 30
0.000000
  70
    32
  0
VERTEX
  8
0
  5
B6F8
 10
154.500
 20
138.491
 30
0.000000
  70
    32
  0
VERTEX
  8
0
  5
B6F9
 10
154.500
 20
138.491
 30
0.000000
  70
    32
  0
VERTEX
  8
0
  5
B6FA
 10
154.500
 20
138.491
 30
0.000000
  70
    32
  0
VERTEX
  8
0
  5
B6FB
 10
154.500
 20
138.491
 30
0.000000
  70
    32
  0
VERTEX
  8
0
  5
B6FC
 10
154.500
 20
138.491
 30
0.000000
  70
    32
  0
VERTEX
  8
0
  5
B6FD
 10
154.500
 20
138.491
 30
0.000000
  70
    32
  0
VERTEX
  8
0
  5
B6FE
 10
154.500
 20
138.491
 30
0.000000
  70
    32
  0
VERTEX
  8
0
  5
B6FF
 10
154.500
 20
138.491
 30
0.000000
  70
    32
  0
VERTEX
  8
0
  5
B700
 10
154.500
 20
138.491
 30
0.000000
  70
    32
  0
VERTEX
  8
0
  5
B701
 10
154.500
 20
138.491
 30
0.000000
  70
    32
  0
VERTEX
  8
0
  5
B702
 10
154.500
 20
138.491
 30
0.000000
  70
    32
  0
VERTEX
  8
0
  5
B703
 10
154.500
 20
138.491
 30
0.000000
  70
    32
  0
VERTEX
  8
0
  5
B704
 10
154.500
 20
138.491
 30
0.000000
  70
    32
  0
VERTEX
  8
0
  5
B705
 10
154.500
 20
138.491
 30
0.000000
  70
    32
  0
VERTEX
  8
0
  5
B706
 10
154.500
 20
138.491
 30
0.000000
  70
    32
  0
VERTEX
  8
0
  5
B707
 10
154.500
 20
138.491
 30
0.000000
  70
    32
  0
VERTEX
  8
0
  5
B708
 10
154.500
 20
138.491
 30
0.000000
  70
    32
  0
VERTEX
  8
0
  5
B709
 10
154.500
 20
138.492
 30
0.000000
  70
    32
  0
VERTEX
  8
0
  5
B70A
 10
154.500
 20
138.492
 30
0.000000
  70
    32
  0
VERTEX
  8
0
  5
B70B
 10
154.500
 20
138.492
 30
0.000000
  70
    32
  0
VERTEX
  8
0
  5
B70C
 10
154.500
 20
138.492
 30
0.000000
  70
    32
  0
VERTEX
  8
0
  5
B70D
 10
154.500
 20
138.492
 30
0.000000
  70
    32
  0
VERTEX
  8
0
  5
B70E
 10
154.500
 20
138.492
 30
0.000000
  70
    32
  0
VERTEX
  8
0
  5
B70F
 10
154.500
 20
138.492
 30
0.000000
  70
    32
  0
VERTEX
  8
0
  5
B710
 10
154.500
 20
138.492
 30
0.000000
  70
    32
  0
VERTEX
  8
0
  5
B711
 10
154.500
 20
138.492
 30
0.000000
  70
    32
  0
VERTEX
  8
0
  5
B712
 10
154.500
 20
138.492
 30
0.000000
  70
    32
  0
VERTEX
  8
0
  5
B713
 10
154.500
 20
138.492
 30
0.000000
  70
    32
  0
VERTEX
  8
0
  5
B714
 10
154.500
 20
138.492
 30
0.000000
  70
    32
  0
VERTEX
  8
0
  5
B715
 10
154.500
 20
138.492
 30
0.000000
  70
    32
  0
VERTEX
  8
0
  5
B716
 10
154.500
 20
138.492
 30
0.000000
  70
    32
  0
VERTEX
  8
0
  5
B717
 10
154.500
 20
138.492
 30
0.000000
  70
    32
  0
VERTEX
  8
0
  5
B718
 10
154.500
 20
138.492
 30
0.000000
  70
    32
  0
VERTEX
  8
0
  5
B719
 10
154.500
 20
138.492
 30
0.000000
  70
    32
  0
VERTEX
  8
0
  5
B71A
 10
154.500
 20
138.492
 30
0.000000
  70
    32
  0
VERTEX
  8
0
  5
B71B
 10
154.500
 20
138.492
 30
0.000000
  70
    32
  0
VERTEX
  8
0
  5
B71C
 10
154.500
 20
138.492
 30
0.000000
  70
    32
  0
VERTEX
  8
0
  5
B71D
 10
154.500
 20
138.492
 30
0.000000
  70
    32
  0
VERTEX
  8
0
  5
B71E
 10
154.500
 20
138.492
 30
0.000000
  70
    32
  0
VERTEX
  8
0
  5
B71F
 10
154.500
 20
138.492
 30
0.000000
  70
    32
  0
VERTEX
  8
0
  5
B720
 10
154.500
 20
138.492
 30
0.000000
  70
    32
  0
VERTEX
  8
0
  5
B721
 10
154.500
 20
138.492
 30
0.000000
  70
    32
  0
VERTEX
  8
0
  5
B722
 10
154.500
 20
138.492
 30
0.000000
  70
    32
  0
VERTEX
  8
0
  5
B723
 10
154.500
 20
138.492
 30
0.000000
  70
    32
  0
VERTEX
  8
0
  5
B724
 10
154.500
 20
138.493
 30
0.000000
  70
    32
  0
VERTEX
  8
0
  5
B725
 10
154.500
 20
138.493
 30
0.000000
  70
    32
  0
VERTEX
  8
0
  5
B726
 10
154.500
 20
138.493
 30
0.000000
  70
    32
  0
VERTEX
  8
0
  5
B727
 10
154.500
 20
138.493
 30
0.000000
  70
    32
  0
VERTEX
  8
0
  5
B728
 10
154.500
 20
138.493
 30
0.000000
  70
    32
  0
VERTEX
  8
0
  5
B729
 10
154.500
 20
138.493
 30
0.000000
  70
    32
  0
VERTEX
  8
0
  5
B72A
 10
154.500
 20
138.493
 30
0.000000
  70
    32
  0
VERTEX
  8
0
  5
B72B
 10
154.500
 20
138.493
 30
0.000000
  70
    32
  0
VERTEX
  8
0
  5
B72C
 10
154.500
 20
138.493
 30
0.000000
  70
    32
  0
VERTEX
  8
0
  5
B72D
 10
154.500
 20
138.493
 30
0.000000
  70
    32
  0
VERTEX
  8
0
  5
B72E
 10
154.500
 20
138.493
 30
0.000000
  70
    32
  0
VERTEX
  8
0
  5
B72F
 10
154.500
 20
138.493
 30
0.000000
  70
    32
  0
VERTEX
  8
0
  5
B730
 10
154.500
 20
138.493
 30
0.000000
  70
    32
  0
VERTEX
  8
0
  5
B731
 10
154.500
 20
138.493
 30
0.000000
  70
    32
  0
VERTEX
  8
0
  5
B732
 10
154.500
 20
138.493
 30
0.000000
  70
    32
  0
VERTEX
  8
0
  5
B733
 10
154.500
 20
138.493
 30
0.000000
  70
    32
  0
VERTEX
  8
0
  5
B734
 10
154.500
 20
138.493
 30
0.000000
  70
    32
  0
VERTEX
  8
0
  5
B735
 10
154.500
 20
138.493
 30
0.000000
  70
    32
  0
VERTEX
  8
0
  5
B736
 10
154.500
 20
138.493
 30
0.000000
  70
    32
  0
VERTEX
  8
0
  5
B737
 10
154.500
 20
138.493
 30
0.000000
  70
    32
  0
VERTEX
  8
0
  5
B738
 10
154.500
 20
138.493
 30
0.000000
  70
    32
  0
VERTEX
  8
0
  5
B739
 10
154.500
 20
138.493
 30
0.000000
  70
    32
  0
VERTEX
  8
0
  5
B73A
 10
154.500
 20
138.493
 30
0.000000
  70
    32
  0
VERTEX
  8
0
  5
B73B
 10
154.500
 20
138.493
 30
0.000000
  70
    32
  0
VERTEX
  8
0
  5
B73C
 10
154.500
 20
138.493
 30
0.000000
  70
    32
  0
VERTEX
  8
0
  5
B73D
 10
154.500
 20
138.493
 30
0.000000
  70
    32
  0
VERTEX
  8
0
  5
B73E
 10
154.500
 20
138.493
 30
0.000000
  70
    32
  0
VERTEX
  8
0
  5
B73F
 10
154.500
 20
138.494
 30
0.000000
  70
    32
  0
VERTEX
  8
0
  5
B740
 10
154.500
 20
138.494
 30
0.000000
  70
    32
  0
VERTEX
  8
0
  5
B741
 10
154.500
 20
138.494
 30
0.000000
  70
    32
  0
VERTEX
  8
0
  5
B742
 10
154.500
 20
138.494
 30
0.000000
  70
    32
  0
VERTEX
  8
0
  5
B743
 10
154.500
 20
138.494
 30
0.000000
  70
    32
  0
VERTEX
  8
0
  5
B744
 10
154.500
 20
138.494
 30
0.000000
  70
    32
  0
VERTEX
  8
0
  5
B745
 10
154.500
 20
138.494
 30
0.000000
  70
    32
  0
VERTEX
  8
0
  5
B746
 10
154.500
 20
138.494
 30
0.000000
  70
    32
  0
VERTEX
  8
0
  5
B747
 10
154.500
 20
138.494
 30
0.000000
  70
    32
  0
VERTEX
  8
0
  5
B748
 10
154.500
 20
138.494
 30
0.000000
  70
    32
  0
VERTEX
  8
0
  5
B749
 10
154.500
 20
138.494
 30
0.000000
  70
    32
  0
VERTEX
  8
0
  5
B74A
 10
154.500
 20
138.494
 30
0.000000
  70
    32
  0
VERTEX
  8
0
  5
B74B
 10
154.500
 20
138.494
 30
0.000000
  70
    32
  0
VERTEX
  8
0
  5
B74C
 10
154.500
 20
138.494
 30
0.000000
  70
    32
  0
VERTEX
  8
0
  5
B74D
 10
154.500
 20
138.494
 30
0.000000
  70
    32
  0
VERTEX
  8
0
  5
B74E
 10
154.500
 20
138.494
 30
0.000000
  70
    32
  0
VERTEX
  8
0
  5
B74F
 10
154.500
 20
138.494
 30
0.000000
  70
    32
  0
VERTEX
  8
0
  5
B750
 10
154.500
 20
138.494
 30
0.000000
  70
    32
  0
VERTEX
  8
0
  5
B751
 10
154.500
 20
138.494
 30
0.000000
  70
    32
  0
VERTEX
  8
0
  5
B752
 10
154.500
 20
138.494
 30
0.000000
  70
    32
  0
VERTEX
  8
0
  5
B753
 10
154.500
 20
138.494
 30
0.000000
  70
    32
  0
VERTEX
  8
0
  5
B754
 10
154.500
 20
138.494
 30
0.000000
  70
    32
  0
VERTEX
  8
0
  5
B755
 10
154.500
 20
138.494
 30
0.000000
  70
    32
  0
VERTEX
  8
0
  5
B756
 10
154.500
 20
138.494
 30
0.000000
  70
    32
  0
VERTEX
  8
0
  5
B757
 10
154.500
 20
138.494
 30
0.000000
  70
    32
  0
VERTEX
  8
0
  5
B758
 10
154.500
 20
138.494
 30
0.000000
  70
    32
  0
VERTEX
  8
0
  5
B759
 10
154.500
 20
138.494
 30
0.000000
  70
    32
  0
VERTEX
  8
0
  5
B75A
 10
154.500
 20
138.495
 30
0.000000
  70
    32
  0
VERTEX
  8
0
  5
B75B
 10
154.500
 20
138.495
 30
0.000000
  70
    32
  0
VERTEX
  8
0
  5
B75C
 10
154.500
 20
138.495
 30
0.000000
  70
    32
  0
VERTEX
  8
0
  5
B75D
 10
154.500
 20
138.495
 30
0.000000
  70
    32
  0
VERTEX
  8
0
  5
B75E
 10
154.500
 20
138.495
 30
0.000000
  70
    32
  0
VERTEX
  8
0
  5
B75F
 10
154.500
 20
138.495
 30
0.000000
  70
    32
  0
VERTEX
  8
0
  5
B760
 10
154.500
 20
138.495
 30
0.000000
  70
    32
  0
VERTEX
  8
0
  5
B761
 10
154.500
 20
138.495
 30
0.000000
  70
    32
  0
VERTEX
  8
0
  5
B762
 10
154.500
 20
138.495
 30
0.000000
  70
    32
  0
VERTEX
  8
0
  5
B763
 10
154.500
 20
138.495
 30
0.000000
  70
    32
  0
VERTEX
  8
0
  5
B764
 10
154.500
 20
138.495
 30
0.000000
  70
    32
  0
VERTEX
  8
0
  5
B765
 10
154.500
 20
138.495
 30
0.000000
  70
    32
  0
VERTEX
  8
0
  5
B766
 10
154.500
 20
138.495
 30
0.000000
  70
    32
  0
VERTEX
  8
0
  5
B767
 10
154.500
 20
138.495
 30
0.000000
  70
    32
  0
VERTEX
  8
0
  5
B768
 10
154.500
 20
138.495
 30
0.000000
  70
    32
  0
VERTEX
  8
0
  5
B769
 10
154.500
 20
138.495
 30
0.000000
  70
    32
  0
VERTEX
  8
0
  5
B76A
 10
154.500
 20
138.495
 30
0.000000
  70
    32
  0
VERTEX
  8
0
  5
B76B
 10
154.500
 20
138.495
 30
0.000000
  70
    32
  0
VERTEX
  8
0
  5
B76C
 10
154.500
 20
138.495
 30
0.000000
  70
    32
  0
VERTEX
  8
0
  5
B76D
 10
154.500
 20
138.495
 30
0.000000
  70
    32
  0
VERTEX
  8
0
  5
B76E
 10
154.500
 20
138.495
 30
0.000000
  70
    32
  0
VERTEX
  8
0
  5
B76F
 10
154.500
 20
138.495
 30
0.000000
  70
    32
  0
VERTEX
  8
0
  5
B770
 10
154.500
 20
138.495
 30
0.000000
  70
    32
  0
VERTEX
  8
0
  5
B771
 10
154.500
 20
138.495
 30
0.000000
  70
    32
  0
VERTEX
  8
0
  5
B772
 10
154.500
 20
138.495
 30
0.000000
  70
    32
  0
VERTEX
  8
0
  5
B773
 10
154.500
 20
138.495
 30
0.000000
  70
    32
  0
VERTEX
  8
0
  5
B774
 10
154.500
 20
138.495
 30
0.000000
  70
    32
  0
VERTEX
  8
0
  5
B775
 10
154.500
 20
138.496
 30
0.000000
  70
    32
  0
VERTEX
  8
0
  5
B776
 10
154.500
 20
138.496
 30
0.000000
  70
    32
  0
VERTEX
  8
0
  5
B777
 10
154.500
 20
138.496
 30
0.000000
  70
    32
  0
SEQEND
  8
0
  5
B778
  0
ARC
  5
B121
  8
0
 10
150.48537962808541
 20
139.45084200656879
 30
0.0
 40
0.4856283531028324
 50
181.83641551862061
 51
271.72541448405138
  0
ARC
  5
B122
  8
0
 10
154.0122217655281
 20
138.4774251265612
 30
0.0
 40
0.4881595560787143
 50
2.132191220637039
 51
91.424412450812667
  0
LINE
  5
B123
  8
0
 10
150.50000170954121
 20
138.96543383598319
 30
0.0
 11
154.00008703359021
 21
138.96543383598319
 31
0.0
  0
ARC
  5
B124
  8
0
 10
155.00000123270399
 20
126.5000009089708
 30
0.0
 40
0.5000000000000006
 50
180.0
 51
270.0
  0
ARC
  5
B125
  8
0
 10
150.50000123270399
 20
126.5000009089709
 30
0.0
 40
0.5000000000000006
 50
180.0
 51
269.99999999999682
  0
LINE
  5
B12C
  8
1
 10
181.00000123270399
 20
151.0000009089708
 30
0.0
 11
131.00015835164169
 21
151.0000009089708
 31
0.0
  0
LINE
  5
B282
  8
1
 10
55.000000372529023
 20
175.75000090897069
 30
0.0
 11
55.000000372529023
 21
166.2500009089708
 31
0.0
  0
LINE
  5
B283
  8
1
 10
59.75000037252903
 20
171.0000009089708
 30
0.0
 11
50.25000037252903
 21
171.0000009089708
 31
0.0
  0
LINE
  5
B284
  8
1
 10
95.000000372529016
 20
175.75000090897069
 30
0.0
 11
95.000000372529016
 21
166.2500009089708
 31
0.0
  0
LINE
  5
B285
  8
1
 10
99.750000372529044
 20
171.0000009089708
 30
0.0
 11
90.25000037252903
 21
171.0000009089708
 31
0.0
  0
LINE
  5
B286
  8
1
 10
95.000000372529016
 20
135.7500009089708
 30
0.0
 11
95.000000372529016
 21
126.2500009089708
 31
0.0
  0
LINE
  5
B287
  8
1
 10
99.750000372529044
 20
131.00000090897069
 30
0.0
 11
90.25000037252903
 21
131.00000090897069
 31
0.0
  0
LINE
  5
B288
  8
1
 10
55.000000372529023
 20
135.7500009089708
 30
0.0
 11
55.000000372529023
 21
126.2500009089708
 31
0.0
  0
LINE
  5
B289
  8
1
 10
59.75000037252903
 20
131.00000090897069
 30
0.0
 11
50.25000037252903
 21
131.00000090897069
 31
0.0
  0
LINE
  5
B28A
  8
1
 10
75.000000372529016
 20
181.00000128149969
 30
0.0
 11
75.000000372529016
 21
121.0000005364418
 31
0.0
  0
LINE
  5
B28B
  8
1
 10
105.0000007450581
 20
151.0000009089708
 30
0.0
 11
45.000000000000021
 21
151.0000009089708
 31
0.0
  0
ARC
  5
B370
  8
0
 10
75.000000372529016
 20
151.0000009089708
 30
0.0
 40
7.9999999999999982
 50
127.1459851512475
 51
232.851890962205
  0
ENDSEC
  0
EOF
