  0
SECTION
  2
HEADER
  9
$ACADVER
  1
AC1009
  9
$INSBASE
 10
0.0
 20
0.0
 30
0.0
  9
$EXTMIN
 10
0.0
 20
-2.960436562073669
 30
0.0
  9
$EXTMAX
 10
170.9999992424292
 20
247.00000017881399
 30
0.0
  9
$LIMMIN
 10
0.0
 20
0.0
  9
$LIMMAX
 10
770.0
 20
540.0
  9
$ORTHOMODE
 70
     1
  9
$REGENMODE
 70
     1
  9
$FILLMODE
 70
     1
  9
$QTEXTMODE
 70
     0
  9
$MIRRTEXT
 70
     0
  9
$DRAGMODE
 70
     2
  9
$LTSCALE
 40
10.0
  9
$OSMODE
 70
    37
  9
$ATTMODE
 70
     1
  9
$TEXTSIZE
 40
4.000000000000048
  9
$TRACEWID
 40
0.05
  9
$TEXTSTYLE
  7
STANDARD
  9
$CLAYER
  8
0
  9
$CELTYPE
  6
BYLAYER
  9
$CECOLOR
 62
   256
  9
$DIMSCALE
 40
2.0
  9
$DIMASZ
 40
3.0
  9
$DIMEXO
 40
2.0
  9
$DIMDLI
 40
0.38
  9
$DIMRND
 40
0.0
  9
$DIMDLE
 40
0.0
  9
$DIMEXE
 40
2.0
  9
$DIMTP
 40
0.0
  9
$DIMTM
 40
0.0
  9
$DIMTXT
 40
3.0
  9
$DIMCEN
 40
0.0
  9
$DIMTSZ
 40
0.0
  9
$DIMTOL
 70
     0
  9
$DIMLIM
 70
     0
  9
$DIMTIH
 70
     0
  9
$DIMTOH
 70
     0
  9
$DIMSE1
 70
     0
  9
$DIMSE2
 70
     0
  9
$DIMTAD
 70
     1
  9
$DIMZIN
 70
     0
  9
$DIMBLK
  1

  9
$DIMASO
 70
     0
  9
$DIMSHO
 70
     0
  9
$DIMPOST
  1

  9
$DIMAPOST
  1

  9
$DIMALT
 70
     0
  9
$DIMALTD
 70
     2
  9
$DIMALTF
 40
25.399999999999999
  9
$DIMLFAC
 40
1.0
  9
$DIMTOFL
 70
     0
  9
$DIMTVP
 40
1.6000000000000001
  9
$DIMTIX
 70
     1
  9
$DIMSOXD
 70
     0
  9
$DIMSAH
 70
     0
  9
$DIMBLK1
  1

  9
$DIMBLK2
  1

  9
$DIMSTYLE
  2
STANDARD
  9
$DIMCLRD
 70
     4
  9
$DIMCLRE
 70
     4
  9
$DIMCLRT
 70
     4
  9
$DIMTFAC
 40
1.0
  9
$DIMGAP
 40
0.09
  9
$LUNITS
 70
     2
  9
$LUPREC
 70
     1
  9
$SKETCHINC
 40
0.1
  9
$FILLETRAD
 40
0.0
  9
$AUNITS
 70
     0
  9
$AUPREC
 70
     0
  9
$MENU
  1
E:\r13\win\SUPPORT\ACAD
  9
$ELEVATION
 40
0.0
  9
$PELEVATION
 40
0.0
  9
$THICKNESS
 40
0.0
  9
$LIMCHECK
 70
     0
  9
$BLIPMODE
 70
     0
  9
$CHAMFERA
 40
1.1999999999999991
  9
$CHAMFERB
 40
1.1999999999999991
  9
$SKPOLY
 70
     0
  9
$TDCREATE
 40
2450158.583426042
  9
$TDUPDATE
 40
2456807.3889301391
  9
$TDINDWG
 40
0.4809987153
  9
$TDUSRTIMER
 40
0.4809987153
  9
$USRTIMER
 70
     1
  9
$ANGBASE
 50
0.0
  9
$ANGDIR
 70
     0
  9
$PDMODE
 70
     0
  9
$PDSIZE
 40
0.0
  9
$PLINEWID
 40
0.0
  9
$COORDS
 70
     1
  9
$SPLFRAME
 70
     0
  9
$SPLINETYPE
 70
     6
  9
$SPLINESEGS
 70
     8
  9
$ATTDIA
 70
     0
  9
$ATTREQ
 70
     1
  9
$HANDLING
 70
     1
  9
$HANDSEED
  5
9418
  9
$SURFTAB1
 70
     6
  9
$SURFTAB2
 70
     6
  9
$SURFTYPE
 70
     6
  9
$SURFU
 70
     6
  9
$SURFV
 70
     6
  9
$UCSNAME
  2

  9
$UCSORG
 10
0.0
 20
0.0
 30
0.0
  9
$UCSXDIR
 10
1.0
 20
0.0
 30
0.0
  9
$UCSYDIR
 10
0.0
 20
1.0
 30
0.0
  9
$PUCSNAME
  2

  9
$PUCSORG
 10
0.0
 20
0.0
 30
0.0
  9
$PUCSXDIR
 10
1.0
 20
0.0
 30
0.0
  9
$PUCSYDIR
 10
0.0
 20
1.0
 30
0.0
  9
$USERI1
 70
     3
  9
$USERI2
 70
     1
  9
$USERI3
 70
     0
  9
$USERI4
 70
     0
  9
$USERI5
 70
     0
  9
$USERR1
 40
2.0
  9
$USERR2
 40
3.0
  9
$USERR3
 40
3.0
  9
$USERR4
 40
3.0
  9
$USERR5
 40
10.0
  9
$WORLDVIEW
 70
     1
  9
$SHADEDGE
 70
     3
  9
$SHADEDIF
 70
    70
  9
$TILEMODE
 70
     1
  9
$MAXACTVP
 70
    16
  9
$PLIMCHECK
 70
     0
  9
$PEXTMIN
 10
1.0000000000000000E+020
 20
1.0000000000000000E+020
 30
1.0000000000000000E+020
  9
$PEXTMAX
 10
-1.0000000000000000E+020
 20
-1.0000000000000000E+020
 30
-1.0000000000000000E+020
  9
$PLIMMIN
 10
0.0
 20
0.0
  9
$PLIMMAX
 10
12.0
 20
9.0
  9
$UNITMODE
 70
     0
  9
$VISRETAIN
 70
     0
  9
$PLINEGEN
 70
     0
  9
$PSLTSCALE
 70
     0
  0
ENDSEC
  0
SECTION
  2
TABLES
  0
TABLE
  2
VPORT
 70
     1
  0
VPORT
  2
*ACTIVE
 70
     0
 10
0.0
 20
0.0
 11
1.0
 21
1.0
 12
235.63977746870651
 22
135.0
 13
0.0
 23
0.0
 14
10.0
 24
10.0
 15
10.0
 25
10.0
 16
0.0
 26
0.0
 36
1.0
 17
0.0
 27
0.0
 37
0.0
 40
270.0
 41
1.7454798331015291
 42
50.0
 43
0.0
 44
0.0
 50
0.0
 51
0.0
 71
     0
 72
   500
 73
     1
 74
     0
 75
     0
 76
     0
 77
     0
 78
     2
  0
ENDTAB
  0
TABLE
  2
LTYPE
 70
     3
  0
LTYPE
  2
CONTINUOUS
 70
     0
  3
Solid Line
 72
    65
 73
     0
 40
0.0
  0
LTYPE
  2
CENTER
 70
     0
  3
____ _ ____ _ ____ _ ____ _ ____ _ ____ _ ____
 72
    65
 73
     4
 40
2.0
 49
1.25
 49
-0.25
 49
0.25
 49
-0.25
  0
LTYPE
  2
PHANTOM2
 70
     0
  3
___ _ _ ___ _ _ ___ _ _ ___ _ _
 72
    65
 73
     6
 40
1.25
 49
0.625
 49
-0.125
 49
0.125
 49
-0.125
 49
0.125
 49
-0.125
  0
ENDTAB
  0
TABLE
  2
LAYER
 70
     4
  0
LAYER
  2
0
 70
     0
 62
     7
  6
CONTINUOUS
  0
LAYER
  2
1
 70
     0
 62
     1
  6
CENTER
  0
LAYER
  2
3
 70
     0
 62
     3
  6
CONTINUOUS
  0
LAYER
  2
DEFPOINTS
 70
     0
 62
     7
  6
CONTINUOUS
  0
ENDTAB
  0
TABLE
  2
STYLE
 70
     2
  0
STYLE
  2
STANDARD
 70
     0
 40
0.0
 41
1.0
 50
0.0
 71
     0
 42
4.000000000000048
  3
SIMPLEX
  4
BIGFONT
  0
STYLE
  2
STANDARD1
 70
     0
 40
0.0
 41
1.0
 50
0.0
 71
     0
 42
3.0
  3
txt
  4

  0
ENDTAB
  0
TABLE
  2
VIEW
 70
     1
  0
VIEW
  2
ALL
 70
     0
 40
179.5384664489153
 10
146.94997169852391
 20
89.769233224457665
 41
0.0
 11
0.0
 21
0.0
 31
1.0
 12
0.0
 22
0.0
 32
0.0
 42
50.0
 43
0.0
 44
0.0
 50
0.0
 71
     0
  0
ENDTAB
  0
TABLE
  2
UCS
 70
     0
  0
ENDTAB
  0
TABLE
  2
APPID
 70
     4
  0
APPID
  2
ACAD
 70
     0
  0
APPID
  2
ACAD_MLEADERVER
 70
     0
  0
APPID
  2
ACAD_NAV_VCDISPLAY
 70
     0
  0
APPID
  2
ACAD_EXEMPT_FROM_CAD_STANDARDS
 70
     0
  0
ENDTAB
  0
TABLE
  2
DIMSTYLE
 70
     1
  0
DIMSTYLE
  2
STANDARD
 70
     0
  3

  4

  5

  6

  7

 40
1.0
 41
0.18
 42
0.0625
 43
0.38
 44
0.18
 45
0.0
 46
0.0
 47
0.0
 48
0.0
140
0.18
141
0.09
142
0.0
143
25.399999999999999
144
1.0
145
0.0
146
1.0
147
0.09
 71
     0
 72
     0
 73
     1
 74
     1
 75
     0
 76
     0
 77
     0
 78
     0
170
     0
171
     2
172
     0
173
     0
174
     0
175
     0
176
     0
177
     0
178
     0
  0
ENDTAB
  0
ENDSEC
  0
SECTION
  2
BLOCKS
  0
BLOCK
  8
0
  2
$MODEL_SPACE
 70
     0
 10
0.0
 20
0.0
 30
0.0
  3
$MODEL_SPACE
  1

  0
ENDBLK
  5
644
  8
0
  0
BLOCK
 67
     1
  8
0
  2
$PAPER_SPACE
 70
     0
 10
0.0
 20
0.0
 30
0.0
  3
$PAPER_SPACE
  1

  0
ENDBLK
  5
642
 67
     1
  8
0
  0
ENDSEC
  0
SECTION
  2
ENTITIES
  0
TEXT
  5
43CB
  8
0
 62
     3
 10
0.0
 20
0.0
 30
0.0
 40
10.0
  1
QCSQ1616-OG
  7
STANDARD1
  0
LINE
  5
8097
  8
0
 10
71.886596921831355
 20
89.999999105930314
 30
0.0
 11
68.113402184098945
 21
89.999999105930314
 31
0.0
  0
ARC
  5
8098
  8
0
 10
66.077860211335334
 20
77.5
 30
0.0
 40
0.5
 50
176.99999999999761
 51
270.0
  0
ARC
  5
8099
  8
0
 10
73.922138894594966
 20
77.5
 30
0.0
 40
0.5
 50
270.0
 51
3.0000000000023421
  0
LINE
  5
809A
  8
0
 10
66.149015398696065
 20
88.411382585763931
 30
0.0
 11
65.578545629978166
 21
77.526168152689934
 31
0.0
  0
LINE
  5
809B
  8
0
 10
74.421453475952134
 20
77.526168152689934
 30
0.0
 11
73.850975325331092
 21
88.411542773246765
 31
0.0
  0
ARC
  5
809C
  8
0
 10
67.137242483325664
 20
88.373644251987457
 30
0.0
 40
0.9889473962915039
 50
121.70175818119
 51
177.81305620646151
  0
ARC
  5
809D
  8
0
 10
72.918651142123281
 20
88.402115902487694
 30
0.0
 40
0.9323718402474522
 50
0.5793065469214863
 51
60.35779261927371
  0
ARC
  5
809E
  8
0
 10
500.02048287044329
 20
748.04162592873683
 30
0.0
 40
784.90645460471171
 50
236.9903901415054
 51
237.07395180751359
  0
ARC
  5
809F
  8
0
 10
71.868960517405583
 20
88.998355999415665
 30
0.0
 40
1.0017983607440171
 50
56.671570144041361
 51
88.991270316756655
  0
ARC
  5
80A1
  8
0
 10
68.131038869593567
 20
88.998355089663363
 30
0.0
 40
1.001799275303517
 50
91.008744839885622
 51
123.3284146990088
  0
ARC
  5
80A2
  8
0
 10
20.47449624043929
 20
161.90649342286261
 30
0.0
 40
86.100114362185579
 50
302.40654838858632
 51
303.16887907539962
  0
LINE
  5
80A3
  8
0
 10
63.156322762370102
 20
77.482550591230392
 30
0.0
 11
63.20809451863169
 21
76.000000536441803
 31
0.0
  0
LINE
  5
80A4
  8
0
 10
76.791904587298632
 20
76.000000536441803
 30
0.0
 11
76.843676343560205
 21
77.482550591230392
 31
0.0
  0
ARC
  5
80A5
  8
0
 10
63.656018247486877
 20
77.5
 30
0.0
 40
0.5000000000000116
 50
104.9999999999978
 51
182.0000000000004
  0
ARC
  5
80A6
  8
0
 10
76.343980858443445
 20
77.5
 30
0.0
 40
0.5000000000000079
 50
358.0000000000029
 51
75.000000000002188
  0
LINE
  5
80A7
  8
0
 10
76.473390404134975
 20
77.982963249087334
 30
0.0
 11
74.367948062717915
 21
78.547113761305795
 31
0.0
  0
LINE
  5
80A8
  8
0
 10
65.632051043212414
 20
78.547113761305795
 30
0.0
 11
63.526608701795332
 21
77.982963249087334
 31
0.0
  0
LINE
  5
80A9
  8
0
 10
66.149023780599236
 20
88.411542773246765
 30
0.0
 11
66.149015398696065
 21
88.411382585763931
 31
0.0
  0
ARC
  5
80AB
  8
0
 10
67.807997950553556
 20
77.478715059576928
 30
0.0
 40
0.479582636227727
 50
174.32148311856091
 51
266.55173526915121
  0
ARC
  5
80AD
  8
0
 10
72.192001155376772
 20
77.478715059576928
 30
0.0
 40
0.479582636227727
 50
273.44826473085209
 51
5.6785168814390712
  0
LINE
  5
80AE
  8
0
 10
67.799455905333161
 20
87.485081702470765
 30
0.0
 11
67.330768750980496
 21
77.526168152689934
 31
0.0
  0
ARC
  5
80AF
  8
0
 10
69.999999552965164
 20
96.672608479493476
 30
0.0
 40
9.4473827393433343
 50
256.53058489496772
 51
283.46941510503569
  0
LINE
  5
80B0
  8
0
 10
72.200543200597167
 20
87.485081702470765
 30
0.0
 11
72.669230354949832
 21
77.526168152689934
 31
0.0
  0
POLYLINE
  5
80BE
  8
0
 66
     1
 10
0.0
 20
0.0
 30
0.0
 70
   128
  0
VERTEX
  5
9092
  8
0
 10
73.792659863829613
 20
88.390561938285813
 30
0.0
  0
VERTEX
  5
9093
  8
0
 10
73.080207407474504
 20
87.980847060680375
 30
0.0
  0
VERTEX
  5
9094
  8
0
 10
72.200543200597167
 20
87.485081702470765
 30
0.0
  0
SEQEND
  5
9095
  8
0
  0
POLYLINE
  5
80C1
  8
0
 66
     1
 10
0.0
 20
0.0
 30
0.0
 70
   128
  0
VERTEX
  5
9096
  8
0
 10
67.799455905333161
 20
87.485081702470765
 30
0.0
  0
VERTEX
  5
9097
  8
0
 10
66.925758216530085
 20
87.977449595928192
 30
0.0
  0
VERTEX
  5
9098
  8
0
 10
66.207339242100716
 20
88.390561938285813
 30
0.0
  0
SEQEND
  5
9099
  8
0
  0
LINE
  5
80C4
  8
0
 10
73.922975766194213
 20
77.000000700354562
 30
0.0
 11
66.077860258519635
 21
77.000000700354576
 31
0.0
  0
ARC
  5
80CA
  8
0
 10
60.050470584102072
 20
72.986124058830001
 30
0.0
 40
0.4870115604666671
 50
274.10555889624209
 51
1.6326984805196281
  0
LINE
  5
80DC
  8
0
 10
50.0
 20
50.0
 30
0.0
 11
50.0
 21
75.500668606489938
 31
0.0
  0
LINE
  5
80E4
  8
0
 10
60.537284426391118
 20
73.000000044703484
 30
0.0
 11
60.537284426391118
 21
75.499999523162842
 31
0.0
  0
LINE
  5
80F7
  8
0
 10
70.499999576713876
 20
50.0
 30
0.0
 11
70.499999576713833
 21
76.000000536441803
 31
0.0
  0
ARC
  5
80FE
  8
0
 10
61.022692596976697
 20
75.51462160461864
 30
0.0
 40
0.4856283531028325
 50
91.836415518617414
 51
181.72541448405141
  0
POLYLINE
  5
80FF
  8
0
 10
60.062695349038506
 20
72.5
 30
0.0
 66
     1
 70
     8
  0
VERTEX
  8
0
  5
910C
 10
60.0627
 20
72.5000
 30
0.000000
  70
    32
  0
VERTEX
  8
0
  5
910D
 10
60.0629
 20
72.5000
 30
0.000000
  70
    32
  0
VERTEX
  8
0
  5
910E
 10
60.0630
 20
72.5000
 30
0.000000
  70
    32
  0
VERTEX
  8
0
  5
910F
 10
60.0632
 20
72.5000
 30
0.000000
  70
    32
  0
VERTEX
  8
0
  5
9110
 10
60.0634
 20
72.5000
 30
0.000000
  70
    32
  0
VERTEX
  8
0
  5
9111
 10
60.0636
 20
72.5000
 30
0.000000
  70
    32
  0
VERTEX
  8
0
  5
9112
 10
60.0638
 20
72.5000
 30
0.000000
  70
    32
  0
VERTEX
  8
0
  5
9113
 10
60.0639
 20
72.5000
 30
0.000000
  70
    32
  0
VERTEX
  8
0
  5
9114
 10
60.0641
 20
72.5000
 30
0.000000
  70
    32
  0
VERTEX
  8
0
  5
9115
 10
60.0643
 20
72.5000
 30
0.000000
  70
    32
  0
VERTEX
  8
0
  5
9116
 10
60.0645
 20
72.5000
 30
0.000000
  70
    32
  0
VERTEX
  8
0
  5
9117
 10
60.0646
 20
72.5000
 30
0.000000
  70
    32
  0
VERTEX
  8
0
  5
9118
 10
60.0648
 20
72.5000
 30
0.000000
  70
    32
  0
VERTEX
  8
0
  5
9119
 10
60.0650
 20
72.5000
 30
0.000000
  70
    32
  0
VERTEX
  8
0
  5
911A
 10
60.0652
 20
72.5000
 30
0.000000
  70
    32
  0
VERTEX
  8
0
  5
911B
 10
60.0653
 20
72.5000
 30
0.000000
  70
    32
  0
VERTEX
  8
0
  5
911C
 10
60.0655
 20
72.5000
 30
0.000000
  70
    32
  0
VERTEX
  8
0
  5
911D
 10
60.0657
 20
72.5000
 30
0.000000
  70
    32
  0
VERTEX
  8
0
  5
911E
 10
60.0659
 20
72.5000
 30
0.000000
  70
    32
  0
VERTEX
  8
0
  5
911F
 10
60.0661
 20
72.5000
 30
0.000000
  70
    32
  0
VERTEX
  8
0
  5
9120
 10
60.0662
 20
72.5000
 30
0.000000
  70
    32
  0
VERTEX
  8
0
  5
9121
 10
60.0664
 20
72.5000
 30
0.000000
  70
    32
  0
VERTEX
  8
0
  5
9122
 10
60.0666
 20
72.5000
 30
0.000000
  70
    32
  0
VERTEX
  8
0
  5
9123
 10
60.0668
 20
72.5000
 30
0.000000
  70
    32
  0
VERTEX
  8
0
  5
9124
 10
60.0669
 20
72.5000
 30
0.000000
  70
    32
  0
VERTEX
  8
0
  5
9125
 10
60.0671
 20
72.5000
 30
0.000000
  70
    32
  0
VERTEX
  8
0
  5
9126
 10
60.0673
 20
72.5000
 30
0.000000
  70
    32
  0
VERTEX
  8
0
  5
9127
 10
60.0675
 20
72.5000
 30
0.000000
  70
    32
  0
VERTEX
  8
0
  5
9128
 10
60.0676
 20
72.5000
 30
0.000000
  70
    32
  0
VERTEX
  8
0
  5
9129
 10
60.0678
 20
72.5000
 30
0.000000
  70
    32
  0
VERTEX
  8
0
  5
912A
 10
60.0680
 20
72.5000
 30
0.000000
  70
    32
  0
VERTEX
  8
0
  5
912B
 10
60.0682
 20
72.5000
 30
0.000000
  70
    32
  0
VERTEX
  8
0
  5
912C
 10
60.0684
 20
72.5000
 30
0.000000
  70
    32
  0
VERTEX
  8
0
  5
912D
 10
60.0685
 20
72.5000
 30
0.000000
  70
    32
  0
VERTEX
  8
0
  5
912E
 10
60.0687
 20
72.5000
 30
0.000000
  70
    32
  0
VERTEX
  8
0
  5
912F
 10
60.0689
 20
72.5000
 30
0.000000
  70
    32
  0
VERTEX
  8
0
  5
9130
 10
60.0691
 20
72.5000
 30
0.000000
  70
    32
  0
VERTEX
  8
0
  5
9131
 10
60.0692
 20
72.5000
 30
0.000000
  70
    32
  0
VERTEX
  8
0
  5
9132
 10
60.0694
 20
72.5000
 30
0.000000
  70
    32
  0
VERTEX
  8
0
  5
9133
 10
60.0696
 20
72.5000
 30
0.000000
  70
    32
  0
VERTEX
  8
0
  5
9134
 10
60.0698
 20
72.5000
 30
0.000000
  70
    32
  0
VERTEX
  8
0
  5
9135
 10
60.0699
 20
72.5000
 30
0.000000
  70
    32
  0
VERTEX
  8
0
  5
9136
 10
60.0701
 20
72.5000
 30
0.000000
  70
    32
  0
VERTEX
  8
0
  5
9137
 10
60.0703
 20
72.5000
 30
0.000000
  70
    32
  0
VERTEX
  8
0
  5
9138
 10
60.0705
 20
72.5000
 30
0.000000
  70
    32
  0
VERTEX
  8
0
  5
9139
 10
60.0707
 20
72.5000
 30
0.000000
  70
    32
  0
VERTEX
  8
0
  5
913A
 10
60.0708
 20
72.5000
 30
0.000000
  70
    32
  0
VERTEX
  8
0
  5
913B
 10
60.0710
 20
72.5000
 30
0.000000
  70
    32
  0
VERTEX
  8
0
  5
913C
 10
60.0712
 20
72.5001
 30
0.000000
  70
    32
  0
VERTEX
  8
0
  5
913D
 10
60.0714
 20
72.5001
 30
0.000000
  70
    32
  0
VERTEX
  8
0
  5
913E
 10
60.0715
 20
72.5001
 30
0.000000
  70
    32
  0
VERTEX
  8
0
  5
913F
 10
60.0717
 20
72.5001
 30
0.000000
  70
    32
  0
VERTEX
  8
0
  5
9140
 10
60.0719
 20
72.5001
 30
0.000000
  70
    32
  0
VERTEX
  8
0
  5
9141
 10
60.0721
 20
72.5001
 30
0.000000
  70
    32
  0
VERTEX
  8
0
  5
9142
 10
60.0722
 20
72.5001
 30
0.000000
  70
    32
  0
VERTEX
  8
0
  5
9143
 10
60.0724
 20
72.5001
 30
0.000000
  70
    32
  0
VERTEX
  8
0
  5
9144
 10
60.0726
 20
72.5001
 30
0.000000
  70
    32
  0
VERTEX
  8
0
  5
9145
 10
60.0728
 20
72.5001
 30
0.000000
  70
    32
  0
VERTEX
  8
0
  5
9146
 10
60.0730
 20
72.5001
 30
0.000000
  70
    32
  0
VERTEX
  8
0
  5
9147
 10
60.0731
 20
72.5001
 30
0.000000
  70
    32
  0
VERTEX
  8
0
  5
9148
 10
60.0733
 20
72.5001
 30
0.000000
  70
    32
  0
VERTEX
  8
0
  5
9149
 10
60.0735
 20
72.5001
 30
0.000000
  70
    32
  0
VERTEX
  8
0
  5
914A
 10
60.0737
 20
72.5001
 30
0.000000
  70
    32
  0
VERTEX
  8
0
  5
914B
 10
60.0738
 20
72.5001
 30
0.000000
  70
    32
  0
VERTEX
  8
0
  5
914C
 10
60.0740
 20
72.5001
 30
0.000000
  70
    32
  0
VERTEX
  8
0
  5
914D
 10
60.0742
 20
72.5001
 30
0.000000
  70
    32
  0
VERTEX
  8
0
  5
914E
 10
60.0744
 20
72.5001
 30
0.000000
  70
    32
  0
VERTEX
  8
0
  5
914F
 10
60.0745
 20
72.5001
 30
0.000000
  70
    32
  0
VERTEX
  8
0
  5
9150
 10
60.0747
 20
72.5001
 30
0.000000
  70
    32
  0
VERTEX
  8
0
  5
9151
 10
60.0749
 20
72.5001
 30
0.000000
  70
    32
  0
VERTEX
  8
0
  5
9152
 10
60.0751
 20
72.5001
 30
0.000000
  70
    32
  0
VERTEX
  8
0
  5
9153
 10
60.0753
 20
72.5001
 30
0.000000
  70
    32
  0
VERTEX
  8
0
  5
9154
 10
60.0754
 20
72.5001
 30
0.000000
  70
    32
  0
VERTEX
  8
0
  5
9155
 10
60.0756
 20
72.5001
 30
0.000000
  70
    32
  0
VERTEX
  8
0
  5
9156
 10
60.0758
 20
72.5001
 30
0.000000
  70
    32
  0
VERTEX
  8
0
  5
9157
 10
60.0760
 20
72.5001
 30
0.000000
  70
    32
  0
VERTEX
  8
0
  5
9158
 10
60.0761
 20
72.5001
 30
0.000000
  70
    32
  0
VERTEX
  8
0
  5
9159
 10
60.0763
 20
72.5001
 30
0.000000
  70
    32
  0
VERTEX
  8
0
  5
915A
 10
60.0765
 20
72.5001
 30
0.000000
  70
    32
  0
VERTEX
  8
0
  5
915B
 10
60.0767
 20
72.5001
 30
0.000000
  70
    32
  0
VERTEX
  8
0
  5
915C
 10
60.0768
 20
72.5001
 30
0.000000
  70
    32
  0
VERTEX
  8
0
  5
915D
 10
60.0770
 20
72.5001
 30
0.000000
  70
    32
  0
VERTEX
  8
0
  5
915E
 10
60.0772
 20
72.5001
 30
0.000000
  70
    32
  0
VERTEX
  8
0
  5
915F
 10
60.0774
 20
72.5002
 30
0.000000
  70
    32
  0
VERTEX
  8
0
  5
9160
 10
60.0776
 20
72.5002
 30
0.000000
  70
    32
  0
VERTEX
  8
0
  5
9161
 10
60.0777
 20
72.5002
 30
0.000000
  70
    32
  0
VERTEX
  8
0
  5
9162
 10
60.0779
 20
72.5002
 30
0.000000
  70
    32
  0
VERTEX
  8
0
  5
9163
 10
60.0781
 20
72.5002
 30
0.000000
  70
    32
  0
VERTEX
  8
0
  5
9164
 10
60.0783
 20
72.5002
 30
0.000000
  70
    32
  0
VERTEX
  8
0
  5
9165
 10
60.0784
 20
72.5002
 30
0.000000
  70
    32
  0
VERTEX
  8
0
  5
9166
 10
60.0786
 20
72.5002
 30
0.000000
  70
    32
  0
VERTEX
  8
0
  5
9167
 10
60.0788
 20
72.5002
 30
0.000000
  70
    32
  0
VERTEX
  8
0
  5
9168
 10
60.0790
 20
72.5002
 30
0.000000
  70
    32
  0
VERTEX
  8
0
  5
9169
 10
60.0791
 20
72.5002
 30
0.000000
  70
    32
  0
VERTEX
  8
0
  5
916A
 10
60.0793
 20
72.5002
 30
0.000000
  70
    32
  0
VERTEX
  8
0
  5
916B
 10
60.0795
 20
72.5002
 30
0.000000
  70
    32
  0
VERTEX
  8
0
  5
916C
 10
60.0797
 20
72.5002
 30
0.000000
  70
    32
  0
VERTEX
  8
0
  5
916D
 10
60.0799
 20
72.5002
 30
0.000000
  70
    32
  0
VERTEX
  8
0
  5
916E
 10
60.0800
 20
72.5002
 30
0.000000
  70
    32
  0
VERTEX
  8
0
  5
916F
 10
60.0802
 20
72.5002
 30
0.000000
  70
    32
  0
VERTEX
  8
0
  5
9170
 10
60.0804
 20
72.5002
 30
0.000000
  70
    32
  0
VERTEX
  8
0
  5
9171
 10
60.0806
 20
72.5002
 30
0.000000
  70
    32
  0
VERTEX
  8
0
  5
9172
 10
60.0807
 20
72.5002
 30
0.000000
  70
    32
  0
VERTEX
  8
0
  5
9173
 10
60.0809
 20
72.5002
 30
0.000000
  70
    32
  0
VERTEX
  8
0
  5
9174
 10
60.0811
 20
72.5002
 30
0.000000
  70
    32
  0
VERTEX
  8
0
  5
9175
 10
60.0813
 20
72.5002
 30
0.000000
  70
    32
  0
VERTEX
  8
0
  5
9176
 10
60.0814
 20
72.5002
 30
0.000000
  70
    32
  0
VERTEX
  8
0
  5
9177
 10
60.0816
 20
72.5003
 30
0.000000
  70
    32
  0
VERTEX
  8
0
  5
9178
 10
60.0818
 20
72.5003
 30
0.000000
  70
    32
  0
VERTEX
  8
0
  5
9179
 10
60.0820
 20
72.5003
 30
0.000000
  70
    32
  0
VERTEX
  8
0
  5
917A
 10
60.0822
 20
72.5003
 30
0.000000
  70
    32
  0
VERTEX
  8
0
  5
917B
 10
60.0823
 20
72.5003
 30
0.000000
  70
    32
  0
VERTEX
  8
0
  5
917C
 10
60.0825
 20
72.5003
 30
0.000000
  70
    32
  0
VERTEX
  8
0
  5
917D
 10
60.0827
 20
72.5003
 30
0.000000
  70
    32
  0
VERTEX
  8
0
  5
917E
 10
60.0829
 20
72.5003
 30
0.000000
  70
    32
  0
VERTEX
  8
0
  5
917F
 10
60.0830
 20
72.5003
 30
0.000000
  70
    32
  0
VERTEX
  8
0
  5
9180
 10
60.0832
 20
72.5003
 30
0.000000
  70
    32
  0
VERTEX
  8
0
  5
9181
 10
60.0834
 20
72.5003
 30
0.000000
  70
    32
  0
VERTEX
  8
0
  5
9182
 10
60.0836
 20
72.5003
 30
0.000000
  70
    32
  0
VERTEX
  8
0
  5
9183
 10
60.0837
 20
72.5003
 30
0.000000
  70
    32
  0
VERTEX
  8
0
  5
9184
 10
60.0839
 20
72.5003
 30
0.000000
  70
    32
  0
VERTEX
  8
0
  5
9185
 10
60.0841
 20
72.5003
 30
0.000000
  70
    32
  0
VERTEX
  8
0
  5
9186
 10
60.0843
 20
72.5003
 30
0.000000
  70
    32
  0
VERTEX
  8
0
  5
9187
 10
60.0845
 20
72.5003
 30
0.000000
  70
    32
  0
VERTEX
  8
0
  5
9188
 10
60.0846
 20
72.5003
 30
0.000000
  70
    32
  0
VERTEX
  8
0
  5
9189
 10
60.0848
 20
72.5003
 30
0.000000
  70
    32
  0
VERTEX
  8
0
  5
918A
 10
60.0850
 20
72.5004
 30
0.000000
  70
    32
  0
VERTEX
  8
0
  5
918B
 10
60.0852
 20
72.5004
 30
0.000000
  70
    32
  0
VERTEX
  8
0
  5
918C
 10
60.0853
 20
72.5004
 30
0.000000
  70
    32
  0
SEQEND
  8
0
  5
918D
  0
LINE
  5
8101
  8
0
 10
50.499999150633812
 20
72.500000894069672
 30
0.0
 11
60.062695349038499
 21
72.5
 31
0.0
  0
ARC
  5
8102
  8
0
 10
50.499999552965171
 20
72.0
 30
0.0
 40
0.5
 50
90.0
 51
180.0
  0
LINE
  5
8105
  8
0
 10
89.999999105930272
 20
75.500668606489938
 30
0.0
 11
89.999999105930272
 21
50.0
 31
0.0
  0
LINE
  5
8106
  8
0
 10
89.999999105930272
 20
50.0
 30
0.0
 11
50.0
 21
50.0
 31
0.0
  0
LINE
  5
810F
  8
0
 10
69.499999529216382
 20
76.000000536441803
 30
0.0
 11
69.499999529216424
 21
50.0
 31
0.0
  0
LINE
  5
8111
  8
0
 10
69.499999529216424
 20
75.599999353289604
 30
0.0
 11
70.499999576713876
 21
75.599999353289604
 31
0.0
  0
LINE
  5
8146
  8
0
 10
70.499999576713876
 20
76.000000536441831
 30
0.0
 11
89.49999995529646
 21
76.000000536441803
 31
0.0
  0
ARC
  5
8148
  8
0
 10
50.499999552965171
 20
75.5
 30
0.0
 40
0.5
 50
90.0
 51
180.0
  0
LINE
  5
8149
  8
0
 10
50.499999150633812
 20
76.000000536441803
 30
0.0
 11
69.499999529216495
 21
76.000000536441831
 31
0.0
  0
LINE
  5
814F
  8
0
 10
66.207339242100716
 20
88.390561938285813
 30
0.0
 11
66.149015398696065
 21
88.411382585763931
 31
0.0
  0
POLYLINE
  5
8150
  8
0
 66
     1
 10
0.0
 20
0.0
 30
0.0
 70
   128
  0
VERTEX
  5
909A
  8
0
 10
73.850975325331092
 20
88.411542773246765
 30
0.0
  0
VERTEX
  5
909B
  8
0
 10
73.845619289204464
 20
88.404520601034164
 30
0.0
  0
VERTEX
  5
909C
  8
0
 10
73.792659863829613
 20
88.390561938285813
 30
0.0
  0
SEQEND
  5
909D
  8
0
  0
LINE
  5
8155
  8
0
 10
74.421834386885166
 20
77.482550591230392
 30
0.0
 11
76.843676343560205
 21
77.482550591230392
 31
0.0
  0
LINE
  5
8156
  8
0
 10
63.156322762370102
 20
77.482550591230392
 30
0.0
 11
65.578164719045162
 21
77.482550591230392
 31
0.0
  0
LINE
  5
8157
  8
0
 10
63.526608701795332
 20
77.982963249087334
 30
0.0
 11
65.602485276758671
 21
77.982963249087334
 31
0.0
  0
LINE
  5
8158
  8
0
 10
74.397513829171643
 20
77.982963249087334
 30
0.0
 11
76.473390404134975
 21
77.982963249087334
 31
0.0
  0
ARC
  5
8169
  8
0
 10
69.999999552965164
 20
146.000000089407
 30
0.0
 40
6.8439813054783238
 50
128.56165722280019
 51
231.43199823293389
  0
ARC
  5
816A
  8
0
 10
69.999999552965164
 20
146.000000089407
 30
0.0
 40
6.8439813054782999
 50
308.57304238079291
 51
51.439119887571657
  0
ARC
  5
817A
  8
0
 10
101.49999955296509
 20
146.000000089407
 30
0.0
 40
28.02757529526319
 50
165.54998095261729
 51
167.96176008462439
  0
ARC
  5
817B
  8
0
 10
77.149869017086871
 20
150.62444839263199
 30
0.0
 40
3.2956508633638188
 50
158.25224126629391
 51
172.79051037938251
  0
ARC
  5
817C
  8
0
 10
99.430993129323113
 20
146.000000089407
 30
0.0
 40
26.042679387206078
 50
168.8456113542569
 51
191.1543886457462
  0
ARC
  5
817D
  8
0
 10
78.438732314526874
 20
141.70836154050059
 30
0.0
 40
4.6191628815304719
 50
189.2991389462575
 51
199.6581094080679
  0
ARC
  5
817E
  8
0
 10
101.49999955296509
 20
146.000000089407
 30
0.0
 40
28.02757529526319
 50
192.0382399153755
 51
194.4500190473826
  0
ARC
  5
8180
  8
0
 10
100.5030633886189
 20
146.000000089407
 30
0.0
 40
27.634639613642729
 50
165.0341899847491
 51
194.9658100152505
  0
ARC
  5
8185
  8
0
 10
38.499999552965157
 20
146.000000089407
 30
0.0
 40
28.027575295263208
 50
345.54998095261737
 51
347.9617600846276
  0
ARC
  5
8186
  8
0
 10
62.85013008884345
 20
141.37555178618209
 30
0.0
 40
3.2956508633638131
 50
338.25224126629399
 51
352.79051037938251
  0
ARC
  5
8187
  8
0
 10
40.56900597660723
 20
146.000000089407
 30
0.0
 40
26.042679387206039
 50
348.84561135425702
 51
11.15438864574306
  0
ARC
  5
8188
  8
0
 10
61.561266791403462
 20
150.29163863831329
 30
0.0
 40
4.6191628815304719
 50
9.2991389462575658
 51
19.658109408067961
  0
ARC
  5
8189
  8
0
 10
38.499999552965157
 20
146.000000089407
 30
0.0
 40
28.027575295263208
 50
12.03823991537555
 51
14.45001904738267
  0
ARC
  5
818B
  8
0
 10
39.496935717311374
 20
146.000000089407
 30
0.0
 40
27.634639613642701
 50
345.03418998475229
 51
14.965810015250501
  0
POLYLINE
  5
819A
  8
0
 66
     1
 10
0.0
 20
0.0
 30
0.0
 70
   128
  0
VERTEX
  5
909E
  8
0
 10
66.194211086258292
 20
153.13644139096141
 30
0.0
  0
VERTEX
  5
909F
  8
0
 10
66.15437981672585
 20
153.6126350052655
 30
0.0
  0
VERTEX
  5
90A0
  8
0
 10
66.207339242100716
 20
153.89003362506631
 30
0.0
  0
SEQEND
  5
90A1
  8
0
  0
POLYLINE
  5
819C
  8
0
 66
     1
 10
0.0
 20
0.0
 30
0.0
 70
   128
  0
VERTEX
  5
90A2
  8
0
 10
73.805788019672036
 20
138.8635587878525
 30
0.0
  0
VERTEX
  5
90A3
  8
0
 10
73.845619289204464
 20
138.38736517354849
 30
0.0
  0
VERTEX
  5
90A4
  8
0
 10
73.792659863829613
 20
138.1099665537476
 30
0.0
  0
SEQEND
  5
90A5
  8
0
  0
POLYLINE
  5
819E
  8
0
 66
     1
 10
0.0
 20
0.0
 30
0.0
 70
   128
  0
VERTEX
  5
90A6
  8
0
 10
73.792659863829613
 20
153.89003362506631
 30
0.0
  0
VERTEX
  5
90A7
  8
0
 10
73.849091958254576
 20
153.41625120490789
 30
0.0
  0
VERTEX
  5
90A8
  8
0
 10
73.805788019672036
 20
153.13644139096141
 30
0.0
  0
SEQEND
  5
90A9
  8
0
  0
POLYLINE
  5
81A0
  8
0
 66
     1
 10
0.0
 20
0.0
 30
0.0
 70
   128
  0
VERTEX
  5
90AA
  8
0
 10
66.207339242100716
 20
138.1099665537476
 30
0.0
  0
VERTEX
  5
90AB
  8
0
 10
66.150907147675753
 20
138.58374897390601
 30
0.0
  0
VERTEX
  5
90AC
  8
0
 10
66.194211086258292
 20
138.8635587878525
 30
0.0
  0
SEQEND
  5
90AD
  8
0
  0
POLYLINE
  5
81A2
  8
0
 66
     1
 10
0.0
 20
0.0
 30
0.0
 70
   128
  0
VERTEX
  5
90AE
  8
0
 10
66.207339242100716
 20
153.89003362506631
 30
0.0
  0
VERTEX
  5
90AF
  8
0
 10
66.919791698455811
 20
156.01576343178749
 30
0.0
  0
VERTEX
  5
90B0
  8
0
 10
67.799455905333161
 20
158.0782201141119
 30
0.0
  0
SEQEND
  5
90B1
  8
0
  0
POLYLINE
  5
81A5
  8
0
 66
     1
 10
0.0
 20
0.0
 30
0.0
 70
   128
  0
VERTEX
  5
90B2
  8
0
 10
72.200543200597167
 20
158.0782201141119
 30
0.0
  0
VERTEX
  5
90B3
  8
0
 10
73.074240889400244
 20
156.03144690394399
 30
0.0
  0
VERTEX
  5
90B4
  8
0
 10
73.792659863829613
 20
153.89003362506631
 30
0.0
  0
SEQEND
  5
90B5
  8
0
  0
POLYLINE
  5
81A6
  8
0
 66
     1
 10
0.0
 20
0.0
 30
0.0
 70
   128
  0
VERTEX
  5
90B6
  8
0
 10
73.792659863829613
 20
138.1099665537476
 30
0.0
  0
VERTEX
  5
90B7
  8
0
 10
73.080207407474504
 20
135.98423674702639
 30
0.0
  0
VERTEX
  5
90B8
  8
0
 10
72.200543200597167
 20
133.92178006470201
 30
0.0
  0
SEQEND
  5
90B9
  8
0
  0
POLYLINE
  5
81A8
  8
0
 66
     1
 10
0.0
 20
0.0
 30
0.0
 70
   128
  0
VERTEX
  5
90BA
  8
0
 10
67.799455905333161
 20
133.92178006470201
 30
0.0
  0
VERTEX
  5
90BB
  8
0
 10
66.925758216530085
 20
135.96855327486989
 30
0.0
  0
VERTEX
  5
90BC
  8
0
 10
66.207339242100716
 20
138.1099665537476
 30
0.0
  0
SEQEND
  5
90BD
  8
0
  0
ARC
  5
81AA
  8
0
 10
67.550970148694887
 20
153.4860609658657
 30
0.0
 40
1.972424704736802
 50
163.2662054665426
 51
194.4500190473874
  0
ARC
  5
81AC
  8
0
 10
72.449028957235441
 20
138.5139392129482
 30
0.0
 40
1.9724247047368091
 50
343.26620546654749
 51
14.45001904738267
  0
ARC
  5
81AE
  8
0
 10
72.449028957235441
 20
153.4860609658657
 30
0.0
 40
1.9724247047367951
 50
345.54998095261737
 51
16.73379453345251
  0
ARC
  5
81B0
  8
0
 10
67.550970148694887
 20
138.5139392129482
 30
0.0
 40
1.9724247047368091
 50
165.54998095261729
 51
196.73379453345731
  0
ARC
  5
81B2
  8
0
 10
69.999999552965164
 20
157.02143672941261
 30
0.0
 40
2.4411438850076079
 50
25.652060280737849
 51
154.34793971926209
  0
ARC
  5
81B3
  8
0
 10
69.999999552965164
 20
134.97856344940121
 30
0.0
 40
2.4411438850075831
 50
205.65206028073791
 51
334.34793971926428
  0
ARC
  5
81B4
  8
0
 10
92.449943873608788
 20
146.000000089407
 30
0.0
 40
27.972424704736799
 50
153.8961188626609
 51
163.2662054665426
  0
ARC
  5
81B6
  8
0
 10
47.55005523232154
 20
146.000000089407
 30
0.0
 40
27.972424704736799
 50
16.733794533457338
 51
26.103881137339041
  0
ARC
  5
81B8
  8
0
 10
92.449943873608788
 20
146.000000089407
 30
0.0
 40
27.97242470473682
 50
196.73379453345731
 51
206.1038811373391
  0
ARC
  5
81BA
  8
0
 10
47.55005523232154
 20
146.000000089407
 30
0.0
 40
27.97242470473682
 50
333.89611886266101
 51
343.26620546654749
  0
ARC
  5
81BC
  8
0
 10
69.999999552965164
 20
157.000000089407
 30
0.0
 40
2.9724247047368122
 50
26.103881137339041
 51
153.8961188626609
  0
ARC
  5
81BD
  8
0
 10
69.999999552965164
 20
135.000000089407
 30
0.0
 40
2.9724247047367989
 50
206.1038811373391
 51
333.89611886266101
  0
ARC
  5
81CB
  8
0
 10
65.423628740660888
 20
151.74183891502591
 30
0.0
 40
0.4984904279895823
 50
308.47258278231692
 51
12.008893962009189
  0
ARC
  5
81CD
  8
0
 10
74.576384482817275
 20
140.25816030560139
 30
0.0
 40
0.4985040372306952
 50
128.31747736254741
 51
192.00844863730961
  0
ARC
  5
81D4
  8
0
 10
65.421286028950021
 20
140.25731960578261
 30
0.0
 40
0.5006083870760745
 50
348.14111935612817
 51
51.464166414199639
  0
ARC
  5
81D6
  8
0
 10
74.578716077675608
 20
151.74268134855339
 30
0.0
 40
0.5006111643573544
 50
168.14127679777391
 51
231.36659110188609
  0
LINE
  5
81F2
  8
0
 10
70.499999576713833
 20
126.0000005364418
 30
0.0
 11
70.499999576713876
 21
132.0699303630044
 31
0.0
  0
ARC
  5
81F3
  8
0
 10
69.999999552965164
 20
146.000000089407
 30
0.0
 40
7.0000000000000178
 50
305.6604336114367
 51
54.336231152302418
  0
LINE
  5
81F5
  8
0
 10
63.017879333347082
 20
146.50000011315569
 30
0.0
 11
57.999999448657029
 21
146.50000011315569
 31
0.0
  0
ARC
  5
81F6
  8
0
 10
57.999999552965171
 20
146.000000089407
 30
0.0
 40
0.5000000000000285
 50
90.0
 51
270.0
  0
LINE
  5
81F7
  8
0
 10
57.999999448657029
 20
145.50000006565821
 30
0.0
 11
63.017879333347082
 21
145.50000006565821
 31
0.0
  0
LINE
  5
81F9
  8
0
 10
69.499999529216424
 20
132.0699303630044
 30
0.0
 11
69.499999529216495
 21
126.0000005364418
 31
0.0
  0
ARC
  5
81FB
  8
0
 10
59.294942376179051
 20
150.20139876624549
 30
0.0
 40
0.5000000000000197
 50
204.99999999999901
 51
338.57155222573567
  0
ARC
  5
81FC
  8
0
 10
69.999999552965164
 20
146.000000089407
 30
0.0
 40
10.999999999999989
 50
111.428447774261
 51
158.57155222573829
  0
ARC
  5
81FD
  8
0
 10
65.798600876126784
 20
156.70505726619319
 30
0.0
 40
0.5000000000000254
 50
291.42844777426097
 51
65.000000000000313
  0
LINE
  5
81FE
  8
0
 10
66.009910032153115
 20
157.15821124613279
 30
0.0
 11
63.657073024660342
 21
158.25535673648119
 31
0.0
  0
ARC
  5
81FF
  8
0
 10
63.445764002372577
 20
157.80220311881419
 30
0.0
 40
0.5000000000000067
 50
65.000000000000313
 51
224.99999999999969
  0
LINE
  5
8200
  8
0
 10
63.09221051633358
 20
157.44864977896211
 30
0.0
 11
63.45661096274852
 21
157.08424933254719
 31
0.0
  0
ARC
  5
8201
  8
0
 10
63.244478715165819
 20
156.8721175561225
 30
0.0
 40
0.3000000000000198
 50
301.85524786216018
 51
44.999999999995111
  0
ARC
  5
8202
  8
0
 10
69.999999552965164
 20
146.000000089407
 30
0.0
 40
12.499999999999989
 50
121.85524786216079
 51
148.14475213783831
  0
ARC
  5
8203
  8
0
 10
59.127882086249713
 20
152.75552092720639
 30
0.0
 40
0.3000000000000032
 50
224.99999999999969
 51
328.14475213783629
  0
LINE
  5
8204
  8
0
 10
58.915750309824944
 20
152.5433886796236
 30
0.0
 11
58.551349863409989
 21
152.90778912603849
 31
0.0
  0
ARC
  5
8205
  8
0
 10
58.197796523557997
 20
152.55423563999949
 30
0.0
 40
0.5000000000000187
 50
44.999999999995111
 51
205.00000000000401
  0
LINE
  5
8206
  8
0
 10
57.744642905890942
 20
152.34292661771181
 30
0.0
 11
58.841788396239281
 21
149.990089610219
 31
0.0
  0
ARC
  5
8207
  8
0
 10
67.749999552965164
 20
161.250000089407
 30
0.0
 40
1.75
 50
180.0
 51
0.0
  0
LINE
  5
8208
  8
0
 10
69.499999529216424
 20
161.25000026077029
 30
0.0
 11
69.499999529216424
 21
162.75000050663951
 31
0.0
  0
ARC
  5
8209
  8
0
 10
67.749999552965164
 20
162.750000089407
 30
0.0
 40
1.75
 50
0.0
 51
180.0
  0
LINE
  5
820A
  8
0
 10
65.999999362975345
 20
162.75000050663951
 30
0.0
 11
65.999999362975345
 21
161.25000026077029
 31
0.0
  0
ARC
  5
820B
  8
0
 10
71.799999552965176
 20
161.21056310827791
 30
0.0
 40
0.2999999999999971
 50
32.005383208082463
 51
180.0
  0
LINE
  5
820C
  8
0
 10
72.054399130865932
 20
161.36956252157691
 30
0.0
 11
73.076000390574336
 21
159.73500106483701
 31
0.0
  0
ARC
  5
820D
  8
0
 10
73.499999552965164
 20
160.000000089407
 30
0.0
 40
0.5
 50
212.00538320808249
 51
0.0
  0
LINE
  5
820E
  8
0
 10
73.999999742954955
 20
160.00000052154061
 30
0.0
 11
73.999999742954955
 21
163.99999931454661
 31
0.0
  0
ARC
  5
820F
  8
0
 10
73.499999552965164
 20
164.000000089407
 30
0.0
 40
0.5
 50
0.0
 51
180.0
  0
LINE
  5
8210
  8
0
 10
72.999999579042196
 20
163.99999931454661
 30
0.0
 11
72.999999579042196
 21
162.789436429739
 31
0.0
  0
ARC
  5
8211
  8
0
 10
72.699999552965153
 20
162.78943707053611
 30
0.0
 40
0.3000000000000114
 50
212.0053832080873
 51
0.0
  0
LINE
  5
8212
  8
0
 10
72.445600014179945
 20
162.63043731451029
 30
0.0
 11
71.42399875447154
 21
164.26499970257279
 31
0.0
  0
ARC
  5
8213
  8
0
 10
70.999999552965164
 20
164.000000089407
 30
0.0
 40
0.5000000000000059
 50
32.005383208087302
 51
180.0
  0
LINE
  5
8214
  8
0
 10
70.499999576713876
 20
163.99999931454661
 30
0.0
 11
70.499999576713876
 21
160.00000052154061
 31
0.0
  0
LINE
  5
8215
  8
0
 10
70.499999576713876
 20
160.00000052154061
 30
0.0
 11
70.504935353528694
 21
159.9299184978008
 31
0.0
  0
POLYLINE
  5
8216
  8
0
 66
     1
 10
0.0
 20
0.0
 30
0.0
 70
   128
  0
VERTEX
  5
90BE
  8
0
 10
71.354002063162625
 20
159.64689608663321
 30
0.0
  0
VERTEX
  5
90BF
  8
0
 10
71.461939322762191
 20
159.80865843594071
 30
0.0
  0
VERTEX
  5
90C0
  8
0
 10
71.49999956600368
 20
160.00000052154061
 30
0.0
  0
SEQEND
  5
90C1
  8
0
  0
LINE
  5
8217
  8
0
 10
71.49999956600368
 20
160.00000052154061
 30
0.0
 11
71.49999956600368
 21
161.2105634063482
 31
0.0
  0
ARC
  5
8218
  8
0
 10
54.999999552965157
 20
142.000000089407
 30
0.0
 40
1.5
 50
270.0
 51
90.0
  0
LINE
  5
8219
  8
0
 10
54.999999888241291
 20
143.50000014528629
 30
0.0
 11
52.99999862909317
 21
143.50000014528629
 31
0.0
  0
ARC
  5
821A
  8
0
 10
52.999999552965171
 20
142.000000089407
 30
0.0
 40
1.5
 50
90.0
 51
270.0
  0
LINE
  5
821B
  8
0
 10
52.99999862909317
 20
140.50000011920929
 30
0.0
 11
54.999999888241291
 21
140.50000011920929
 31
0.0
  0
ARC
  5
821C
  8
0
 10
52.499999552965157
 20
145.500000089407
 30
0.0
 40
1.0
 50
180.0
 51
270.0
  0
LINE
  5
821D
  8
0
 10
52.499999478459351
 20
144.50000007636839
 30
0.0
 11
55.999999120831482
 21
144.50000007636839
 31
0.0
  0
ARC
  5
821E
  8
0
 10
55.999999552965157
 20
145.000000089407
 30
0.0
 40
0.5
 50
270.0
 51
90.0
  0
LINE
  5
821F
  8
0
 10
55.999999120831482
 20
145.50000006565821
 30
0.0
 11
54.799999296665192
 21
145.50000006565821
 31
0.0
  0
ARC
  5
8220
  8
0
 10
54.799999552965168
 20
145.80000008940701
 30
0.0
 40
0.3000000000000114
 50
180.0
 51
270.0
  0
LINE
  5
8221
  8
0
 10
54.499999806284897
 20
145.80000009445939
 30
0.0
 11
54.499999806284897
 21
146.60000011790541
 31
0.0
  0
ARC
  5
8222
  8
0
 10
53.999999552965157
 20
146.60000008940699
 30
0.0
 40
0.5
 50
0.0
 51
180.0
  0
LINE
  5
8223
  8
0
 10
53.499999642372131
 20
146.60000011790541
 30
0.0
 11
53.499999642372131
 21
145.80000009445939
 31
0.0
  0
ARC
  5
8224
  8
0
 10
53.199999552965153
 20
145.80000008940701
 30
0.0
 40
0.3000000000000114
 50
270.0
 51
0.0
  0
LINE
  5
8225
  8
0
 10
53.200000151991837
 20
145.50000006565821
 30
0.0
 11
52.799998968839638
 21
145.50000006565821
 31
0.0
  0
ARC
  5
8226
  8
0
 10
52.799999552965168
 20
145.80000008940701
 30
0.0
 40
0.3000000000000114
 50
180.0
 51
270.0
  0
LINE
  5
8227
  8
0
 10
52.499999478459351
 20
145.80000009445939
 30
0.0
 11
52.499999478459351
 21
147.00000013690439
 31
0.0
  0
ARC
  5
8228
  8
0
 10
51.999999552965157
 20
147.000000089407
 30
0.0
 40
0.5
 50
0.0
 51
180.0
  0
LINE
  5
8229
  8
0
 10
51.499999314546578
 20
147.00000013690439
 30
0.0
 11
51.499999314546578
 21
145.50000006565821
 31
0.0
  0
ARC
  5
822A
  8
0
 10
52.499999552965157
 20
149.500000089407
 30
0.0
 40
1.0
 50
180.0
 51
270.0
  0
LINE
  5
822B
  8
0
 10
52.499999478459351
 20
148.50000003352761
 30
0.0
 11
55.999999120831482
 21
148.50000003352761
 31
0.0
  0
ARC
  5
822C
  8
0
 10
55.999999552965157
 20
149.000000089407
 30
0.0
 40
0.5
 50
270.0
 51
90.0
  0
LINE
  5
822D
  8
0
 10
55.999999120831482
 20
149.50000019744039
 30
0.0
 11
54.799999296665192
 21
149.50000019744039
 31
0.0
  0
ARC
  5
822E
  8
0
 10
54.799999552965168
 20
149.80000008940701
 30
0.0
 40
0.2999999999999971
 50
180.0
 51
270.0
  0
LINE
  5
822F
  8
0
 10
54.499999806284897
 20
149.80000015348199
 30
0.0
 11
54.499999806284897
 21
150.60000019147989
 31
0.0
  0
ARC
  5
8230
  8
0
 10
53.999999552965157
 20
150.60000008940699
 30
0.0
 40
0.5
 50
0.0
 51
180.0
  0
LINE
  5
8231
  8
0
 10
53.499999642372131
 20
150.60000019147989
 30
0.0
 11
53.499999642372131
 21
149.80000015348199
 31
0.0
  0
ARC
  5
8232
  8
0
 10
53.199999552965153
 20
149.80000008940701
 30
0.0
 40
0.2999999999999971
 50
270.0
 51
0.0
  0
LINE
  5
8233
  8
0
 10
53.200000151991837
 20
149.50000019744039
 30
0.0
 11
52.799998968839638
 21
149.50000019744039
 31
0.0
  0
ARC
  5
8234
  8
0
 10
52.799999552965168
 20
149.80000008940701
 30
0.0
 40
0.2999999999999971
 50
180.0
 51
270.0
  0
LINE
  5
8235
  8
0
 10
52.499999478459351
 20
149.80000015348199
 30
0.0
 11
52.499999478459351
 21
150.99999997764829
 31
0.0
  0
ARC
  5
8236
  8
0
 10
51.999999552965157
 20
151.000000089407
 30
0.0
 40
0.5
 50
0.0
 51
180.0
  0
LINE
  5
8237
  8
0
 10
51.499999314546578
 20
150.99999997764829
 30
0.0
 11
51.499999314546578
 21
149.50000019744039
 31
0.0
  0
ARC
  5
8238
  8
0
 10
87.499999552965107
 20
140.000000089407
 30
0.0
 40
0.5
 50
180.0
 51
0.0
  0
LINE
  5
8239
  8
0
 10
87.999998778104725
 20
140.0000000372529
 30
0.0
 11
87.999998778104725
 21
152.000000141561
 31
0.0
  0
ARC
  5
823A
  8
0
 10
87.499999552965107
 20
152.000000089407
 30
0.0
 40
0.5
 50
0.0
 51
180.0
  0
LINE
  5
823B
  8
0
 10
87.000000476837101
 20
152.000000141561
 30
0.0
 11
87.000000476837101
 21
140.0000000372529
 31
0.0
  0
ARC
  5
823D
  8
0
 10
78.523022215311073
 20
165.000000089407
 30
0.0
 40
1.0
 50
20.000000000003709
 51
90.0
  0
LINE
  5
823F
  8
0
 10
70.499999576713876
 20
165.60000032186511
 30
0.0
 11
69.499999529216424
 21
165.60000032186511
 31
0.0
  0
LINE
  5
8240
  8
0
 10
70.499999576713876
 20
165.60000032186511
 30
0.0
 11
70.499999576713876
 21
165.9999996423721
 31
0.0
  0
LINE
  5
8244
  8
0
 10
69.499999529216424
 20
165.9999996423721
 30
0.0
 11
69.499999529216424
 21
165.60000032186511
 31
0.0
  0
ARC
  5
8245
  8
0
 10
61.476976890619248
 20
165.000000089407
 30
0.0
 40
1.0
 50
90.0
 51
159.99999999999591
  0
LINE
  5
8247
  8
0
 10
79.462714679539147
 20
165.3420202434063
 30
0.0
 11
81.30153659731144
 21
160.2898998185992
 31
0.0
  0
LINE
  5
8249
  8
0
 10
58.698462508618832
 20
160.2898998185992
 30
0.0
 11
60.537284426391118
 21
165.3420202434063
 31
0.0
  0
LINE
  5
824B
  8
0
 10
68.499999539926634
 20
161.25000026077029
 30
0.0
 11
68.499999539926634
 21
162.75000050663951
 31
0.0
  0
ARC
  5
824C
  8
0
 10
67.749999552965164
 20
161.250000089407
 30
0.0
 40
0.75
 50
180.0
 51
0.0
  0
LINE
  5
824D
  8
0
 10
66.999999526888132
 20
162.75000050663951
 30
0.0
 11
66.999999526888132
 21
161.25000026077029
 31
0.0
  0
ARC
  5
824E
  8
0
 10
67.749999552965164
 20
162.750000089407
 30
0.0
 40
0.75
 50
0.0
 51
180.0
  0
ARC
  5
824F
  8
0
 10
53.999999552965157
 20
162.000000089407
 30
0.0
 40
5.000000000000008
 50
290.00000000000011
 51
340.00000000000091
  0
ARC
  5
8251
  8
0
 10
85.999999552965093
 20
162.000000089407
 30
0.0
 40
4.9999999999999911
 50
199.9999999999992
 51
250.0
  0
LINE
  5
8253
  8
0
 10
84.289899282157464
 20
157.3015371337533
 30
0.0
 11
89.342019706964436
 21
155.46271521598101
 31
0.0
  0
LINE
  5
8255
  8
0
 10
50.657979398965828
 20
155.46271521598101
 30
0.0
 11
55.7100998237729
 21
157.3015371337533
 31
0.0
  0
ARC
  5
8257
  8
0
 10
50.999999552965157
 20
154.5230227517529
 30
0.0
 40
1.0
 50
110.0000000000001
 51
180.0
  0
ARC
  5
8259
  8
0
 10
88.999999552965107
 20
154.5230227517529
 30
0.0
 40
1.0
 50
0.0
 51
70.000000000000043
  0
LINE
  5
825F
  8
0
 10
52.99999862909317
 20
141.50000028312209
 30
0.0
 11
54.999999888241291
 21
141.50000028312209
 31
0.0
  0
ARC
  5
8260
  8
0
 10
52.999999552965171
 20
142.000000089407
 30
0.0
 40
0.5
 50
90.0
 51
270.0
  0
ARC
  5
8261
  8
0
 10
54.999999552965157
 20
142.000000089407
 30
0.0
 40
0.5
 50
270.0
 51
90.0
  0
LINE
  5
8262
  8
0
 10
54.999999888241291
 20
142.49999998137349
 30
0.0
 11
52.99999862909317
 21
142.49999998137349
 31
0.0
  0
LINE
  5
8264
  8
0
 10
89.342019706964436
 20
136.5372849628329
 30
0.0
 11
84.289899282157464
 21
134.69846304506061
 31
0.0
  0
LINE
  5
8266
  8
0
 10
55.7100998237729
 20
134.69846304506061
 30
0.0
 11
50.657979398965828
 21
136.5372849628329
 31
0.0
  0
ARC
  5
8269
  8
0
 10
50.999999552965157
 20
137.47697742706109
 30
0.0
 40
1.0
 50
180.0
 51
250.0
  0
ARC
  5
826A
  8
0
 10
88.999999552965107
 20
137.47697742706109
 30
0.0
 40
1.0
 50
290.00000000000011
 51
0.0
  0
ARC
  5
826B
  8
0
 10
53.999999552965157
 20
130.000000089407
 30
0.0
 40
5.000000000000008
 50
19.999999999999151
 51
70.000000000000043
  0
ARC
  5
826D
  8
0
 10
85.999999552965093
 20
130.000000089407
 30
0.0
 40
5.0000000000000169
 50
109.9999999999999
 51
160.0000000000008
  0
LINE
  5
826F
  8
0
 10
60.537284426391118
 20
126.6579799354076
 30
0.0
 11
58.698462508618832
 21
131.71010036021471
 31
0.0
  0
LINE
  5
8271
  8
0
 10
81.30153659731144
 20
131.71010036021471
 30
0.0
 11
79.462714679539147
 21
126.6579799354076
 31
0.0
  0
ARC
  5
8274
  8
0
 10
61.476976890619248
 20
127.000000089407
 30
0.0
 40
1.0
 50
199.9999999999992
 51
270.0
  0
ARC
  5
8275
  8
0
 10
78.523022215311073
 20
127.000000089407
 30
0.0
 40
1.0
 50
270.0
 51
340.00000000000091
  0
ARC
  5
827B
  8
0
 10
69.999999552965164
 20
146.000000089407
 30
0.0
 40
7.0
 50
125.6604277967168
 51
234.33623435793641
  0
LINE
  5
827C
  8
0
 10
69.499999529216424
 20
126.3999998569488
 30
0.0
 11
70.499999576713876
 21
126.3999998569488
 31
0.0
  0
LINE
  5
82CB
  8
0
 10
53.999998793005943
 20
165.9999996423721
 30
0.0
 11
69.499999529216424
 21
165.99999964237219
 31
0.0
  0
ARC
  5
82D1
  8
0
 10
85.999999552965093
 20
162.000000089407
 30
0.0
 40
4.0
 50
0.0
 51
90.0
  0
LINE
  5
82D3
  8
0
 10
70.499999576713947
 20
165.99999964237219
 30
0.0
 11
86.000000312924428
 21
165.9999996423721
 31
0.0
  0
ARC
  5
82D8
  8
0
 10
53.999999552965157
 20
162.000000089407
 30
0.0
 40
4.0
 50
90.0
 51
180.0
  0
CIRCLE
  5
82D9
  8
0
 10
53.999999552965157
 20
162.000000089407
 30
0.0
 40
2.2499999999999849
  0
CIRCLE
  5
82DA
  8
0
 10
85.999999552965093
 20
162.000000089407
 30
0.0
 40
2.25
  0
LINE
  5
82DB
  8
0
 10
50.000000000000057
 20
129.99810898420719
 30
0.0
 11
50.0
 21
162.00000084936619
 31
0.0
  0
LINE
  5
82DC
  8
0
 10
89.999999105930272
 20
162.00000084936619
 30
0.0
 11
89.999999105930272
 21
129.99810898420719
 31
0.0
  0
CIRCLE
  5
82E9
  8
0
 10
85.999999552965093
 20
130.000000089407
 30
0.0
 40
2.25
  0
CIRCLE
  5
82EA
  8
0
 10
53.999999552965157
 20
130.000000089407
 30
0.0
 40
2.2499999999999849
  0
ARC
  5
82EC
  8
0
 10
53.999999552965157
 20
130.000000089407
 30
0.0
 40
4.0
 50
180.0
 51
270.0
  0
ARC
  5
82ED
  8
0
 10
85.999999552965093
 20
130.000000089407
 30
0.0
 40
4.0
 50
270.0
 51
0.0
  0
LINE
  5
82EF
  8
0
 10
86.000000312924428
 20
126.0000005364418
 30
0.0
 11
70.499999576713876
 21
126.0000005364418
 31
0.0
  0
LINE
  5
82F0
  8
0
 10
69.499999529216495
 20
126.0000005364418
 30
0.0
 11
53.999998793005943
 21
126.0000005364418
 31
0.0
  0
LINE
  5
8300
  8
0
 10
139.48255029559559
 20
139.18908016188911
 30
0.0
 11
139.99999870598739
 21
139.2071496824818
 31
0.0
  0
LINE
  5
8301
  8
0
 10
139.99999870598739
 20
152.7909597511487
 30
0.0
 11
139.48255029559559
 21
152.80902927174139
 31
0.0
  0
ARC
  5
8302
  8
0
 10
139.49999924242931
 20
153.30872479710061
 30
0.0
 40
0.5000000000000096
 50
180.0
 51
267.99999999999642
  0
ARC
  5
8303
  8
0
 10
139.49999924242931
 20
138.68938463652989
 30
0.0
 40
0.5
 50
91.999999999997144
 51
180.0
  0
ARC
  5
8304
  8
0
 10
138.49999924242931
 20
159.4721646541748
 30
0.0
 40
0.5
 50
0.0
 51
92.999999999999076
  0
ARC
  5
8305
  8
0
 10
138.49999924242931
 20
132.5259447794557
 30
0.0
 40
0.5000000000000271
 50
267.00000000000091
 51
0.0
  0
LINE
  5
8306
  8
0
 10
138.47383108973929
 20
159.97147961883709
 30
0.0
 11
128.74359821021989
 21
159.46153953104189
 31
0.0
  0
LINE
  5
8307
  8
0
 10
128.74359821021989
 20
132.53656990258861
 30
0.0
 11
138.47383108973929
 21
132.0266298147933
 31
0.0
  0
ARC
  5
8308
  8
0
 10
128.81508449221289
 20
158.4469358891468
 30
0.0
 40
1.017118891113483
 50
94.030248450718304
 51
164.88286215374359
  0
ARC
  5
8309
  8
0
 10
128.8122137392026
 20
133.54761934399869
 30
0.0
 40
1.0133750854413679
 50
195.0097763622235
 51
266.11753784095271
  0
LINE
  5
8311
  8
0
 10
138.51744865119889
 20
140.6480435411529
 30
0.0
 11
138.51744865119889
 21
151.35006589247749
 31
0.0
  0
ARC
  5
8316
  8
0
 10
155.61956000710401
 20
145.99905471681521
 30
0.0
 40
18.748890587292301
 50
164.4123859865127
 51
195.5876140134873
  0
ARC
  5
831A
  8
0
 10
171.00016675120949
 20
145.99905471681521
 30
0.0
 40
45.000166751209711
 50
170.3368887554135
 51
189.6631112445865
  0
ARC
  5
831D
  8
0
 10
138.5223748559709
 20
150.8691329223341
 30
0.0
 40
0.9766854164869867
 50
92.8489207524362
 51
170.09728658323019
  0
ARC
  5
831E
  8
0
 10
138.54337237028409
 20
141.15273234540089
 30
0.0
 40
1.0016510550218169
 50
191.03484941935261
 51
266.01894324498119
  0
POLYLINE
  5
8323
  8
0
 66
     1
 10
0.0
 20
0.0
 30
0.0
 70
   128
  0
VERTEX
  5
90C2
  8
0
 10
138.47383108973929
 20
154.05302710263891
 30
0.0
  0
VERTEX
  5
90C3
  8
0
 10
138.57498203456831
 20
154.05159565984181
 30
0.0
  0
VERTEX
  5
90C4
  8
0
 10
138.67305775225589
 20
154.0443257558243
 30
0.0
  0
VERTEX
  5
90C5
  8
0
 10
138.7640330666346
 20
154.03151448248789
 30
0.0
  0
VERTEX
  5
90C6
  8
0
 10
138.84417709947061
 20
154.01368803708721
 30
0.0
  0
VERTEX
  5
90C7
  8
0
 10
138.9102004194302
 20
153.9915775078432
 30
0.0
  0
VERTEX
  5
90C8
  8
0
 10
138.95939474046659
 20
153.9660900029437
 30
0.0
  0
VERTEX
  5
90C9
  8
0
 10
138.98974281788301
 20
153.93827046631739
 30
0.0
  0
VERTEX
  5
90CA
  8
0
 10
138.99999854207471
 20
153.9092616307633
 30
0.0
  0
SEQEND
  5
90CB
  8
0
  0
POLYLINE
  5
8327
  8
0
 66
     1
 10
0.0
 20
0.0
 30
0.0
 70
   128
  0
VERTEX
  5
90CC
  8
0
 10
138.99999854207471
 20
138.08884780286721
 30
0.0
  0
VERTEX
  5
90CD
  8
0
 10
138.98974281788301
 20
138.059838967313
 30
0.0
  0
VERTEX
  5
90CE
  8
0
 10
138.95939474046659
 20
138.03201943068669
 30
0.0
  0
VERTEX
  5
90CF
  8
0
 10
138.9102004194302
 20
138.00653192578719
 30
0.0
  0
VERTEX
  5
90D0
  8
0
 10
138.84417709947061
 20
137.98442139654321
 30
0.0
  0
VERTEX
  5
90D1
  8
0
 10
138.7640330666346
 20
137.9665949511425
 30
0.0
  0
VERTEX
  5
90D2
  8
0
 10
138.67305775225589
 20
137.95378367780609
 30
0.0
  0
VERTEX
  5
90D3
  8
0
 10
138.57498203456831
 20
137.94651377378869
 30
0.0
  0
VERTEX
  5
90D4
  8
0
 10
138.47383108973929
 20
137.94508233099151
 30
0.0
  0
SEQEND
  5
90D5
  8
0
  0
LINE
  5
832B
  8
0
 10
127.6094373041434
 20
153.88908825247449
 30
0.0
 11
138.47383108973929
 21
154.05302710263891
 31
0.0
  0
LINE
  5
832C
  8
0
 10
127.6094373041434
 20
138.1090211811559
 30
0.0
 11
138.47383108973929
 21
137.94508233099151
 31
0.0
  0
ARC
  5
832F
  8
0
 10
138.5167830081906
 20
152.32842237403719
 30
0.0
 40
0.4834223213616613
 50
270.07889281359382
 51
358.32408541474501
  0
LINE
  5
8330
  8
0
 10
138.47383108973929
 20
151.84461121811441
 30
0.0
 11
138.51744865119889
 21
151.8450005109506
 31
0.0
  0
LINE
  5
8331
  8
0
 10
138.99999854207471
 20
139.6838252562182
 30
0.0
 11
138.99999924242931
 21
132.5259448345615
 31
0.0
  0
LINE
  5
8332
  8
0
 10
138.51744865119889
 20
140.15310892267991
 30
0.0
 11
138.47383108973929
 21
140.15349821551609
 31
0.0
  0
ARC
  5
8333
  8
0
 10
138.51924476823979
 20
139.67221841137061
 30
0.0
 40
0.4808938655293598
 50
1.3830241048105449
 51
90.213997666847504
  0
ARC
  5
8340
  8
0
 10
148.29294798655729
 20
140.4005762319164
 30
0.0
 40
9.7786311580268421
 50
178.5498638770317
 51
181.45013612296819
  0
ARC
  5
8341
  8
0
 10
148.29294798655729
 20
151.59753320171399
 30
0.0
 40
9.7786311580268421
 50
178.5498638770317
 51
181.45013612296819
  0
POLYLINE
  5
8344
  8
0
 66
     1
 10
0.0
 20
0.0
 30
0.0
 70
   128
  0
VERTEX
  5
90D6
  8
0
 10
126.6768108779235
 20
153.77434139504001
 30
0.0
  0
VERTEX
  5
90D7
  8
0
 10
126.7020757967276
 20
153.82101043491531
 30
0.0
  0
VERTEX
  5
90D8
  8
0
 10
126.75962780654859
 20
153.86029734640289
 30
0.0
  0
VERTEX
  5
90D9
  8
0
 10
126.8475260311408
 20
153.89087918578551
 30
0.0
  0
VERTEX
  5
90DA
  8
0
 10
126.9628163152976
 20
153.9117287042634
 30
0.0
  0
VERTEX
  5
90DB
  8
0
 10
127.10162435710861
 20
153.9221427532928
 30
0.0
  0
VERTEX
  5
90DC
  8
0
 10
127.2592749172492
 20
153.92177208690811
 30
0.0
  0
VERTEX
  5
90DD
  8
0
 10
127.43046318233441
 20
153.9106288123028
 30
0.0
  0
VERTEX
  5
90DE
  8
0
 10
127.6094373041434
 20
153.88908825247449
 30
0.0
  0
SEQEND
  5
90DF
  8
0
  0
POLYLINE
  5
8345
  8
0
 66
     1
 10
0.0
 20
0.0
 30
0.0
 70
   128
  0
VERTEX
  5
90E0
  8
0
 10
126.638473915462
 20
153.55254506125021
 30
0.0
  0
VERTEX
  5
90E1
  8
0
 10
126.65254433691931
 20
153.63471891163749
 30
0.0
  0
VERTEX
  5
90E2
  8
0
 10
126.6768108779235
 20
153.77434139504001
 30
0.0
  0
SEQEND
  5
90E3
  8
0
  0
POLYLINE
  5
8346
  8
0
 66
     1
 10
0.0
 20
0.0
 30
0.0
 70
   128
  0
VERTEX
  5
90E4
  8
0
 10
127.6094373041434
 20
138.1090211811559
 30
0.0
  0
VERTEX
  5
90E5
  8
0
 10
127.43046318233441
 20
138.08748062132759
 30
0.0
  0
VERTEX
  5
90E6
  8
0
 10
127.2592749172492
 20
138.0763373467224
 30
0.0
  0
VERTEX
  5
90E7
  8
0
 10
127.10162435710861
 20
138.0759666803377
 30
0.0
  0
VERTEX
  5
90E8
  8
0
 10
126.9628163152976
 20
138.08638072936699
 30
0.0
  0
VERTEX
  5
90E9
  8
0
 10
126.8475260311408
 20
138.10723024784491
 30
0.0
  0
VERTEX
  5
90EA
  8
0
 10
126.75962780654859
 20
138.13781208722759
 30
0.0
  0
VERTEX
  5
90EB
  8
0
 10
126.7020757967276
 20
138.17709899871511
 30
0.0
  0
VERTEX
  5
90EC
  8
0
 10
126.6768108779235
 20
138.22376803859041
 30
0.0
  0
SEQEND
  5
90ED
  8
0
  0
POLYLINE
  5
8347
  8
0
 66
     1
 10
0.0
 20
0.0
 30
0.0
 70
   128
  0
VERTEX
  5
90EE
  8
0
 10
126.6768108779235
 20
138.22376803859041
 30
0.0
  0
VERTEX
  5
90EF
  8
0
 10
126.66253556549979
 20
138.3055912460284
 30
0.0
  0
VERTEX
  5
90F0
  8
0
 10
126.638473915462
 20
138.4455643723802
 30
0.0
  0
SEQEND
  5
90F1
  8
0
  0
POLYLINE
  5
8349
  8
0
 66
     1
 10
0.0
 20
0.0
 30
0.0
 70
   128
  0
VERTEX
  5
90F2
  8
0
 10
126.6768108779235
 20
153.77434139504001
 30
0.0
  0
VERTEX
  5
90F3
  8
0
 10
127.0957495743079
 20
155.8690576943653
 30
0.0
  0
VERTEX
  5
90F4
  8
0
 10
127.60287334263749
 20
157.9023965763943
 30
0.0
  0
SEQEND
  5
90F5
  8
0
  0
POLYLINE
  5
834B
  8
0
 66
     1
 10
0.0
 20
0.0
 30
0.0
 70
   128
  0
VERTEX
  5
90F6
  8
0
 10
127.60287334263749
 20
134.09571285723609
 30
0.0
  0
VERTEX
  5
90F7
  8
0
 10
127.0991768413825
 20
136.11382740913791
 30
0.0
  0
VERTEX
  5
90F8
  8
0
 10
126.6768108779235
 20
138.22376803859041
 30
0.0
  0
SEQEND
  5
90F9
  8
0
  0
LINE
  5
834C
  8
0
 10
138.99999854207471
 20
159.4721649902956
 30
0.0
 11
138.99999854207471
 21
152.3142841774123
 31
0.0
  0
ARC
  5
834E
  8
0
 10
169.82333094182951
 20
146.33359890281429
 30
0.0
 40
43.776753185879279
 50
163.57461720505361
 51
164.6765346021177
  0
POLYLINE
  5
834F
  8
0
 66
     1
 10
0.0
 20
0.0
 30
0.0
 70
   128
  0
VERTEX
  5
90FA
  8
0
 10
127.8334133395979
 20
133.28517155580639
 30
0.0
  0
VERTEX
  5
90FB
  8
0
 10
127.8334133395979
 20
133.28517155580639
 30
0.0
  0
VERTEX
  5
90FC
  8
0
 10
127.8014983707709
 20
133.3939221817152
 30
0.0
  0
VERTEX
  5
90FD
  8
0
 10
127.71719877660701
 20
133.68648971795011
 30
0.0
  0
VERTEX
  5
90FE
  8
0
 10
127.60287334263749
 20
134.09571285723609
 30
0.0
  0
SEQEND
  5
90FF
  8
0
  0
LINE
  5
8367
  8
0
 10
165.99999924242931
 20
153.99905509679479
 30
0.0
 11
149.99999848247001
 21
153.99905509679479
 31
0.0
  0
LINE
  5
8368
  8
0
 10
149.99999848247001
 20
153.99905509679479
 30
0.0
 11
149.99999848247001
 21
137.9990543368356
 31
0.0
  0
LINE
  5
8369
  8
0
 10
149.99999848247001
 20
137.9990543368356
 30
0.0
 11
165.99999924242931
 21
137.9990543368356
 31
0.0
  0
LINE
  5
836A
  8
0
 10
165.9999992424294
 20
125.9990551638501
 30
0.0
 11
165.99999924242931
 21
137.9990543368356
 31
0.0
  0
LINE
  5
8371
  8
0
 10
165.99999924242931
 20
153.99905509679479
 30
0.0
 11
165.9999992424294
 21
165.9990542697804
 31
0.0
  0
LINE
  5
8378
  8
0
 10
139.9999991059303
 20
126.4990551167581
 30
0.0
 11
139.9999991059301
 21
165.49905471681521
 31
0.0
  0
LINE
  5
83BA
  8
0
 10
140.49999971926641
 20
165.9990542697804
 30
0.0
 11
165.9999992424294
 21
165.9990542697804
 31
0.0
  0
LINE
  5
83BE
  8
0
 10
165.9999992424294
 20
125.9990551638501
 30
0.0
 11
140.49999971926641
 21
125.9990551638501
 31
0.0
  0
ARC
  5
8C2E
  8
0
 10
79.949528521828313
 20
72.986124058830001
 30
0.0
 40
0.4870115604666671
 50
178.36730151948041
 51
265.89444110375791
  0
LINE
  5
8C2F
  8
0
 10
79.462714679539147
 20
73.000000044703484
 30
0.0
 11
79.462714679539147
 21
75.499999523162842
 31
0.0
  0
ARC
  5
8C30
  8
0
 10
78.977306508953632
 20
75.51462160461864
 30
0.0
 40
0.4856283531028325
 50
358.27458551594862
 51
88.163584481385854
  0
POLYLINE
  5
8C31
  8
0
 10
79.937303756891822
 20
72.5
 30
0.0
 66
     1
 70
     8
  0
VERTEX
  8
0
  5
918E
 10
79.9373
 20
72.5000
 30
0.000000
  70
    32
  0
VERTEX
  8
0
  5
918F
 10
79.9371
 20
72.5000
 30
0.000000
  70
    32
  0
VERTEX
  8
0
  5
9190
 10
79.9369
 20
72.5000
 30
0.000000
  70
    32
  0
VERTEX
  8
0
  5
9191
 10
79.9368
 20
72.5000
 30
0.000000
  70
    32
  0
VERTEX
  8
0
  5
9192
 10
79.9366
 20
72.5000
 30
0.000000
  70
    32
  0
VERTEX
  8
0
  5
9193
 10
79.9364
 20
72.5000
 30
0.000000
  70
    32
  0
VERTEX
  8
0
  5
9194
 10
79.9362
 20
72.5000
 30
0.000000
  70
    32
  0
VERTEX
  8
0
  5
9195
 10
79.9361
 20
72.5000
 30
0.000000
  70
    32
  0
VERTEX
  8
0
  5
9196
 10
79.9359
 20
72.5000
 30
0.000000
  70
    32
  0
VERTEX
  8
0
  5
9197
 10
79.9357
 20
72.5000
 30
0.000000
  70
    32
  0
VERTEX
  8
0
  5
9198
 10
79.9355
 20
72.5000
 30
0.000000
  70
    32
  0
VERTEX
  8
0
  5
9199
 10
79.9354
 20
72.5000
 30
0.000000
  70
    32
  0
VERTEX
  8
0
  5
919A
 10
79.9352
 20
72.5000
 30
0.000000
  70
    32
  0
VERTEX
  8
0
  5
919B
 10
79.9350
 20
72.5000
 30
0.000000
  70
    32
  0
VERTEX
  8
0
  5
919C
 10
79.9348
 20
72.5000
 30
0.000000
  70
    32
  0
VERTEX
  8
0
  5
919D
 10
79.9346
 20
72.5000
 30
0.000000
  70
    32
  0
VERTEX
  8
0
  5
919E
 10
79.9345
 20
72.5000
 30
0.000000
  70
    32
  0
VERTEX
  8
0
  5
919F
 10
79.9343
 20
72.5000
 30
0.000000
  70
    32
  0
VERTEX
  8
0
  5
91A0
 10
79.9341
 20
72.5000
 30
0.000000
  70
    32
  0
VERTEX
  8
0
  5
91A1
 10
79.9339
 20
72.5000
 30
0.000000
  70
    32
  0
VERTEX
  8
0
  5
91A2
 10
79.9338
 20
72.5000
 30
0.000000
  70
    32
  0
VERTEX
  8
0
  5
91A3
 10
79.9336
 20
72.5000
 30
0.000000
  70
    32
  0
VERTEX
  8
0
  5
91A4
 10
79.9334
 20
72.5000
 30
0.000000
  70
    32
  0
VERTEX
  8
0
  5
91A5
 10
79.9332
 20
72.5000
 30
0.000000
  70
    32
  0
VERTEX
  8
0
  5
91A6
 10
79.9331
 20
72.5000
 30
0.000000
  70
    32
  0
VERTEX
  8
0
  5
91A7
 10
79.9329
 20
72.5000
 30
0.000000
  70
    32
  0
VERTEX
  8
0
  5
91A8
 10
79.9327
 20
72.5000
 30
0.000000
  70
    32
  0
VERTEX
  8
0
  5
91A9
 10
79.9325
 20
72.5000
 30
0.000000
  70
    32
  0
VERTEX
  8
0
  5
91AA
 10
79.9323
 20
72.5000
 30
0.000000
  70
    32
  0
VERTEX
  8
0
  5
91AB
 10
79.9322
 20
72.5000
 30
0.000000
  70
    32
  0
VERTEX
  8
0
  5
91AC
 10
79.9320
 20
72.5000
 30
0.000000
  70
    32
  0
VERTEX
  8
0
  5
91AD
 10
79.9318
 20
72.5000
 30
0.000000
  70
    32
  0
VERTEX
  8
0
  5
91AE
 10
79.9316
 20
72.5000
 30
0.000000
  70
    32
  0
VERTEX
  8
0
  5
91AF
 10
79.9315
 20
72.5000
 30
0.000000
  70
    32
  0
VERTEX
  8
0
  5
91B0
 10
79.9313
 20
72.5000
 30
0.000000
  70
    32
  0
VERTEX
  8
0
  5
91B1
 10
79.9311
 20
72.5000
 30
0.000000
  70
    32
  0
VERTEX
  8
0
  5
91B2
 10
79.9309
 20
72.5000
 30
0.000000
  70
    32
  0
VERTEX
  8
0
  5
91B3
 10
79.9308
 20
72.5000
 30
0.000000
  70
    32
  0
VERTEX
  8
0
  5
91B4
 10
79.9306
 20
72.5000
 30
0.000000
  70
    32
  0
VERTEX
  8
0
  5
91B5
 10
79.9304
 20
72.5000
 30
0.000000
  70
    32
  0
VERTEX
  8
0
  5
91B6
 10
79.9302
 20
72.5000
 30
0.000000
  70
    32
  0
VERTEX
  8
0
  5
91B7
 10
79.9300
 20
72.5000
 30
0.000000
  70
    32
  0
VERTEX
  8
0
  5
91B8
 10
79.9299
 20
72.5000
 30
0.000000
  70
    32
  0
VERTEX
  8
0
  5
91B9
 10
79.9297
 20
72.5000
 30
0.000000
  70
    32
  0
VERTEX
  8
0
  5
91BA
 10
79.9295
 20
72.5000
 30
0.000000
  70
    32
  0
VERTEX
  8
0
  5
91BB
 10
79.9293
 20
72.5000
 30
0.000000
  70
    32
  0
VERTEX
  8
0
  5
91BC
 10
79.9292
 20
72.5000
 30
0.000000
  70
    32
  0
VERTEX
  8
0
  5
91BD
 10
79.9290
 20
72.5000
 30
0.000000
  70
    32
  0
VERTEX
  8
0
  5
91BE
 10
79.9288
 20
72.5001
 30
0.000000
  70
    32
  0
VERTEX
  8
0
  5
91BF
 10
79.9286
 20
72.5001
 30
0.000000
  70
    32
  0
VERTEX
  8
0
  5
91C0
 10
79.9285
 20
72.5001
 30
0.000000
  70
    32
  0
VERTEX
  8
0
  5
91C1
 10
79.9283
 20
72.5001
 30
0.000000
  70
    32
  0
VERTEX
  8
0
  5
91C2
 10
79.9281
 20
72.5001
 30
0.000000
  70
    32
  0
VERTEX
  8
0
  5
91C3
 10
79.9279
 20
72.5001
 30
0.000000
  70
    32
  0
VERTEX
  8
0
  5
91C4
 10
79.9277
 20
72.5001
 30
0.000000
  70
    32
  0
VERTEX
  8
0
  5
91C5
 10
79.9276
 20
72.5001
 30
0.000000
  70
    32
  0
VERTEX
  8
0
  5
91C6
 10
79.9274
 20
72.5001
 30
0.000000
  70
    32
  0
VERTEX
  8
0
  5
91C7
 10
79.9272
 20
72.5001
 30
0.000000
  70
    32
  0
VERTEX
  8
0
  5
91C8
 10
79.9270
 20
72.5001
 30
0.000000
  70
    32
  0
VERTEX
  8
0
  5
91C9
 10
79.9269
 20
72.5001
 30
0.000000
  70
    32
  0
VERTEX
  8
0
  5
91CA
 10
79.9267
 20
72.5001
 30
0.000000
  70
    32
  0
VERTEX
  8
0
  5
91CB
 10
79.9265
 20
72.5001
 30
0.000000
  70
    32
  0
VERTEX
  8
0
  5
91CC
 10
79.9263
 20
72.5001
 30
0.000000
  70
    32
  0
VERTEX
  8
0
  5
91CD
 10
79.9262
 20
72.5001
 30
0.000000
  70
    32
  0
VERTEX
  8
0
  5
91CE
 10
79.9260
 20
72.5001
 30
0.000000
  70
    32
  0
VERTEX
  8
0
  5
91CF
 10
79.9258
 20
72.5001
 30
0.000000
  70
    32
  0
VERTEX
  8
0
  5
91D0
 10
79.9256
 20
72.5001
 30
0.000000
  70
    32
  0
VERTEX
  8
0
  5
91D1
 10
79.9254
 20
72.5001
 30
0.000000
  70
    32
  0
VERTEX
  8
0
  5
91D2
 10
79.9253
 20
72.5001
 30
0.000000
  70
    32
  0
VERTEX
  8
0
  5
91D3
 10
79.9251
 20
72.5001
 30
0.000000
  70
    32
  0
VERTEX
  8
0
  5
91D4
 10
79.9249
 20
72.5001
 30
0.000000
  70
    32
  0
VERTEX
  8
0
  5
91D5
 10
79.9247
 20
72.5001
 30
0.000000
  70
    32
  0
VERTEX
  8
0
  5
91D6
 10
79.9246
 20
72.5001
 30
0.000000
  70
    32
  0
VERTEX
  8
0
  5
91D7
 10
79.9244
 20
72.5001
 30
0.000000
  70
    32
  0
VERTEX
  8
0
  5
91D8
 10
79.9242
 20
72.5001
 30
0.000000
  70
    32
  0
VERTEX
  8
0
  5
91D9
 10
79.9240
 20
72.5001
 30
0.000000
  70
    32
  0
VERTEX
  8
0
  5
91DA
 10
79.9239
 20
72.5001
 30
0.000000
  70
    32
  0
VERTEX
  8
0
  5
91DB
 10
79.9237
 20
72.5001
 30
0.000000
  70
    32
  0
VERTEX
  8
0
  5
91DC
 10
79.9235
 20
72.5001
 30
0.000000
  70
    32
  0
VERTEX
  8
0
  5
91DD
 10
79.9233
 20
72.5001
 30
0.000000
  70
    32
  0
VERTEX
  8
0
  5
91DE
 10
79.9231
 20
72.5001
 30
0.000000
  70
    32
  0
VERTEX
  8
0
  5
91DF
 10
79.9230
 20
72.5001
 30
0.000000
  70
    32
  0
VERTEX
  8
0
  5
91E0
 10
79.9228
 20
72.5001
 30
0.000000
  70
    32
  0
VERTEX
  8
0
  5
91E1
 10
79.9226
 20
72.5002
 30
0.000000
  70
    32
  0
VERTEX
  8
0
  5
91E2
 10
79.9224
 20
72.5002
 30
0.000000
  70
    32
  0
VERTEX
  8
0
  5
91E3
 10
79.9223
 20
72.5002
 30
0.000000
  70
    32
  0
VERTEX
  8
0
  5
91E4
 10
79.9221
 20
72.5002
 30
0.000000
  70
    32
  0
VERTEX
  8
0
  5
91E5
 10
79.9219
 20
72.5002
 30
0.000000
  70
    32
  0
VERTEX
  8
0
  5
91E6
 10
79.9217
 20
72.5002
 30
0.000000
  70
    32
  0
VERTEX
  8
0
  5
91E7
 10
79.9216
 20
72.5002
 30
0.000000
  70
    32
  0
VERTEX
  8
0
  5
91E8
 10
79.9214
 20
72.5002
 30
0.000000
  70
    32
  0
VERTEX
  8
0
  5
91E9
 10
79.9212
 20
72.5002
 30
0.000000
  70
    32
  0
VERTEX
  8
0
  5
91EA
 10
79.9210
 20
72.5002
 30
0.000000
  70
    32
  0
VERTEX
  8
0
  5
91EB
 10
79.9209
 20
72.5002
 30
0.000000
  70
    32
  0
VERTEX
  8
0
  5
91EC
 10
79.9207
 20
72.5002
 30
0.000000
  70
    32
  0
VERTEX
  8
0
  5
91ED
 10
79.9205
 20
72.5002
 30
0.000000
  70
    32
  0
VERTEX
  8
0
  5
91EE
 10
79.9203
 20
72.5002
 30
0.000000
  70
    32
  0
VERTEX
  8
0
  5
91EF
 10
79.9201
 20
72.5002
 30
0.000000
  70
    32
  0
VERTEX
  8
0
  5
91F0
 10
79.9200
 20
72.5002
 30
0.000000
  70
    32
  0
VERTEX
  8
0
  5
91F1
 10
79.9198
 20
72.5002
 30
0.000000
  70
    32
  0
VERTEX
  8
0
  5
91F2
 10
79.9196
 20
72.5002
 30
0.000000
  70
    32
  0
VERTEX
  8
0
  5
91F3
 10
79.9194
 20
72.5002
 30
0.000000
  70
    32
  0
VERTEX
  8
0
  5
91F4
 10
79.9193
 20
72.5002
 30
0.000000
  70
    32
  0
VERTEX
  8
0
  5
91F5
 10
79.9191
 20
72.5002
 30
0.000000
  70
    32
  0
VERTEX
  8
0
  5
91F6
 10
79.9189
 20
72.5002
 30
0.000000
  70
    32
  0
VERTEX
  8
0
  5
91F7
 10
79.9187
 20
72.5002
 30
0.000000
  70
    32
  0
VERTEX
  8
0
  5
91F8
 10
79.9186
 20
72.5002
 30
0.000000
  70
    32
  0
VERTEX
  8
0
  5
91F9
 10
79.9184
 20
72.5003
 30
0.000000
  70
    32
  0
VERTEX
  8
0
  5
91FA
 10
79.9182
 20
72.5003
 30
0.000000
  70
    32
  0
VERTEX
  8
0
  5
91FB
 10
79.9180
 20
72.5003
 30
0.000000
  70
    32
  0
VERTEX
  8
0
  5
91FC
 10
79.9178
 20
72.5003
 30
0.000000
  70
    32
  0
VERTEX
  8
0
  5
91FD
 10
79.9177
 20
72.5003
 30
0.000000
  70
    32
  0
VERTEX
  8
0
  5
91FE
 10
79.9175
 20
72.5003
 30
0.000000
  70
    32
  0
VERTEX
  8
0
  5
91FF
 10
79.9173
 20
72.5003
 30
0.000000
  70
    32
  0
VERTEX
  8
0
  5
9200
 10
79.9171
 20
72.5003
 30
0.000000
  70
    32
  0
VERTEX
  8
0
  5
9201
 10
79.9170
 20
72.5003
 30
0.000000
  70
    32
  0
VERTEX
  8
0
  5
9202
 10
79.9168
 20
72.5003
 30
0.000000
  70
    32
  0
VERTEX
  8
0
  5
9203
 10
79.9166
 20
72.5003
 30
0.000000
  70
    32
  0
VERTEX
  8
0
  5
9204
 10
79.9164
 20
72.5003
 30
0.000000
  70
    32
  0
VERTEX
  8
0
  5
9205
 10
79.9163
 20
72.5003
 30
0.000000
  70
    32
  0
VERTEX
  8
0
  5
9206
 10
79.9161
 20
72.5003
 30
0.000000
  70
    32
  0
VERTEX
  8
0
  5
9207
 10
79.9159
 20
72.5003
 30
0.000000
  70
    32
  0
VERTEX
  8
0
  5
9208
 10
79.9157
 20
72.5003
 30
0.000000
  70
    32
  0
VERTEX
  8
0
  5
9209
 10
79.9155
 20
72.5003
 30
0.000000
  70
    32
  0
VERTEX
  8
0
  5
920A
 10
79.9154
 20
72.5003
 30
0.000000
  70
    32
  0
VERTEX
  8
0
  5
920B
 10
79.9152
 20
72.5003
 30
0.000000
  70
    32
  0
VERTEX
  8
0
  5
920C
 10
79.9150
 20
72.5004
 30
0.000000
  70
    32
  0
VERTEX
  8
0
  5
920D
 10
79.9148
 20
72.5004
 30
0.000000
  70
    32
  0
VERTEX
  8
0
  5
920E
 10
79.9147
 20
72.5004
 30
0.000000
  70
    32
  0
SEQEND
  8
0
  5
920F
  0
LINE
  5
8C32
  8
0
 10
89.49999995529646
 20
72.500000894069672
 30
0.0
 11
79.937303756891822
 21
72.5
 31
0.0
  0
ARC
  5
8C33
  8
0
 10
89.499999552965093
 20
72.0
 30
0.0
 40
0.5
 50
0.0
 51
90.0
  0
ARC
  5
8C34
  8
0
 10
89.499999552965093
 20
75.5
 30
0.0
 40
0.5
 50
0.0
 51
90.0
  0
CIRCLE
  5
8C36
  8
3
 10
59.999999552965107
 20
58.0
 30
0.0
 40
1.5
  0
CIRCLE
  5
8C37
  8
0
 10
59.999999552965107
 20
58.0
 30
0.0
 40
1.2295
  0
CIRCLE
  5
8C38
  8
3
 10
79.999999552965107
 20
58.0
 30
0.0
 40
1.5
  0
CIRCLE
  5
8C39
  8
0
 10
79.999999552965107
 20
58.0
 30
0.0
 40
1.2295
  0
LINE
  5
8C3A
  8
1
 10
56.499999552965107
 20
58.0
 30
0.0
 11
63.4999995529651
 21
58.0
 31
0.0
  0
LINE
  5
8C3B
  8
1
 10
76.499999552965107
 20
58.0
 30
0.0
 11
83.499999552965093
 21
58.0
 31
0.0
  0
LINE
  5
8C3C
  8
1
 10
79.999999552965107
 20
54.5
 30
0.0
 11
79.999999552965107
 21
61.5
 31
0.0
  0
LINE
  5
8C3D
  8
1
 10
59.999999552965107
 20
54.5
 30
0.0
 11
59.999999552965107
 21
61.5
 31
0.0
  0
LINE
  5
8C3E
  8
1
 10
69.999999552965107
 20
94.999999105930314
 30
0.0
 11
69.999999552965107
 21
45.0
 31
0.0
  0
LINE
  5
8C86
  8
0
 10
71.886596921831355
 20
202.00000107288361
 30
0.0
 11
68.113402184098945
 21
202.00000107288361
 31
0.0
  0
ARC
  5
8C87
  8
0
 10
66.077860211335334
 20
214.50000017881399
 30
0.0
 40
0.5
 50
90.0
 51
183.0000000000023
  0
ARC
  5
8C88
  8
0
 10
73.922138894594966
 20
214.50000017881399
 30
0.0
 40
0.5
 50
356.99999999999761
 51
90.0
  0
LINE
  5
8C89
  8
0
 10
66.149015398696065
 20
203.58861759305
 30
0.0
 11
65.578545629978166
 21
214.473832026124
 31
0.0
  0
LINE
  5
8C8A
  8
0
 10
74.421453475952134
 20
214.473832026124
 30
0.0
 11
73.850975325331092
 21
203.5884574055672
 31
0.0
  0
ARC
  5
8C8B
  8
0
 10
67.137242483325664
 20
203.62635592682651
 30
0.0
 40
0.9889473962915039
 50
182.18694379353809
 51
238.29824181881
  0
ARC
  5
8C8C
  8
0
 10
72.918651142123281
 20
203.59788427632631
 30
0.0
 40
0.9323718402474522
 50
299.64220738072629
 51
359.42069345307772
  0
ARC
  5
8C8D
  8
0
 10
500.02048287044329
 20
-456.0416257499229
 30
0.0
 40
784.90645460471171
 50
122.9260481924866
 51
123.0096098584943
  0
ARC
  5
8C8E
  8
0
 10
71.868960517405583
 20
203.00164417939831
 30
0.0
 40
1.0017983607440171
 50
271.0087296832433
 51
303.32842985595857
  0
ARC
  5
8C8F
  8
0
 10
68.131038869593567
 20
203.0016450891506
 30
0.0
 40
1.001799275303517
 50
236.67158530099169
 51
268.99125516011429
  0
ARC
  5
8C90
  8
0
 10
20.47449624043929
 20
130.09350675595141
 30
0.0
 40
86.100114362185579
 50
56.831120924600171
 51
57.593451611413641
  0
LINE
  5
8C91
  8
0
 10
63.156322762370102
 20
214.5174495875836
 30
0.0
 11
63.20809451863169
 21
215.99999964237219
 31
0.0
  0
LINE
  5
8C92
  8
0
 10
76.791904587298632
 20
215.99999964237219
 30
0.0
 11
76.843676343560205
 21
214.5174495875836
 31
0.0
  0
ARC
  5
8C93
  8
0
 10
63.656018247486877
 20
214.50000017881399
 30
0.0
 40
0.5000000000000116
 50
177.9999999999996
 51
255.00000000000219
  0
ARC
  5
8C94
  8
0
 10
76.343980858443445
 20
214.50000017881399
 30
0.0
 40
0.5000000000000079
 50
284.99999999999778
 51
1.9999999999971021
  0
LINE
  5
8C95
  8
0
 10
76.473390404134975
 20
214.0170369297266
 30
0.0
 11
74.367948062717915
 21
213.45288641750821
 31
0.0
  0
LINE
  5
8C96
  8
0
 10
65.632051043212414
 20
213.45288641750821
 30
0.0
 11
63.526608701795332
 21
214.0170369297266
 31
0.0
  0
LINE
  5
8C97
  8
0
 10
66.149023780599236
 20
203.5884574055672
 30
0.0
 11
66.149015398696065
 21
203.58861759305
 31
0.0
  0
ARC
  5
8C98
  8
0
 10
67.807997950553556
 20
214.52128511923701
 30
0.0
 40
0.479582636227727
 50
93.448264730848791
 51
185.67851688143901
  0
ARC
  5
8C99
  8
0
 10
72.192001155376772
 20
214.52128511923701
 30
0.0
 40
0.479582636227727
 50
354.32148311856088
 51
86.551735269147954
  0
LINE
  5
8C9A
  8
0
 10
67.799455905333161
 20
204.51491847634321
 30
0.0
 11
67.330768750980496
 21
214.473832026124
 31
0.0
  0
ARC
  5
8C9B
  8
0
 10
69.999999552965164
 20
195.32739169932049
 30
0.0
 40
9.4473827393433343
 50
76.530584894964306
 51
103.4694151050323
  0
LINE
  5
8C9C
  8
0
 10
72.200543200597167
 20
204.51491847634321
 30
0.0
 11
72.669230354949832
 21
214.473832026124
 31
0.0
  0
POLYLINE
  5
8C9D
  8
0
 66
     1
 10
0.0
 20
0.0
 30
0.0
 70
   128
  0
VERTEX
  5
9100
  8
0
 10
73.792659863829613
 20
203.60943824052811
 30
0.0
  0
VERTEX
  5
9101
  8
0
 10
73.080207407474504
 20
204.0191531181336
 30
0.0
  0
VERTEX
  5
9102
  8
0
 10
72.200543200597167
 20
204.51491847634321
 30
0.0
  0
SEQEND
  5
9103
  8
0
  0
POLYLINE
  5
8C9E
  8
0
 66
     1
 10
0.0
 20
0.0
 30
0.0
 70
   128
  0
VERTEX
  5
9104
  8
0
 10
67.799455905333161
 20
204.51491847634321
 30
0.0
  0
VERTEX
  5
9105
  8
0
 10
66.925758216530085
 20
204.0225505828858
 30
0.0
  0
VERTEX
  5
9106
  8
0
 10
66.207339242100716
 20
203.60943824052811
 30
0.0
  0
SEQEND
  5
9107
  8
0
  0
LINE
  5
8C9F
  8
0
 10
73.922975766194213
 20
214.99999947845939
 30
0.0
 11
66.077860258519635
 21
214.99999947845939
 31
0.0
  0
ARC
  5
8CA0
  8
0
 10
60.050470584102072
 20
219.01387611998399
 30
0.0
 40
0.4870115604666671
 50
358.36730151948041
 51
85.894441103757899
  0
LINE
  5
8CA1
  8
0
 10
50.0
 20
242.00000017881399
 30
0.0
 11
50.0
 21
216.499331572324
 31
0.0
  0
LINE
  5
8CA2
  8
0
 10
60.537284426391118
 20
219.00000013411051
 30
0.0
 11
60.537284426391118
 21
216.50000065565109
 31
0.0
  0
LINE
  5
8CA3
  8
0
 10
70.499999576713876
 20
242.00000017881399
 30
0.0
 11
70.499999576713833
 21
215.99999964237219
 31
0.0
  0
ARC
  5
8CA4
  8
0
 10
61.022692596976697
 20
216.48537857419529
 30
0.0
 40
0.4856283531028325
 50
178.27458551594859
 51
268.1635844813826
  0
POLYLINE
  5
8CA5
  8
0
 10
60.062695349038506
 20
219.50000017881399
 30
0.0
 66
     1
 70
     8
  0
VERTEX
  8
0
  5
9210
 10
60.0627
 20
219.500
 30
0.000000
  70
    32
  0
VERTEX
  8
0
  5
9211
 10
60.0629
 20
219.500
 30
0.000000
  70
    32
  0
VERTEX
  8
0
  5
9212
 10
60.0630
 20
219.500
 30
0.000000
  70
    32
  0
VERTEX
  8
0
  5
9213
 10
60.0632
 20
219.500
 30
0.000000
  70
    32
  0
VERTEX
  8
0
  5
9214
 10
60.0634
 20
219.500
 30
0.000000
  70
    32
  0
VERTEX
  8
0
  5
9215
 10
60.0636
 20
219.500
 30
0.000000
  70
    32
  0
VERTEX
  8
0
  5
9216
 10
60.0638
 20
219.500
 30
0.000000
  70
    32
  0
VERTEX
  8
0
  5
9217
 10
60.0639
 20
219.500
 30
0.000000
  70
    32
  0
VERTEX
  8
0
  5
9218
 10
60.0641
 20
219.500
 30
0.000000
  70
    32
  0
VERTEX
  8
0
  5
9219
 10
60.0643
 20
219.500
 30
0.000000
  70
    32
  0
VERTEX
  8
0
  5
921A
 10
60.0645
 20
219.500
 30
0.000000
  70
    32
  0
VERTEX
  8
0
  5
921B
 10
60.0646
 20
219.500
 30
0.000000
  70
    32
  0
VERTEX
  8
0
  5
921C
 10
60.0648
 20
219.500
 30
0.000000
  70
    32
  0
VERTEX
  8
0
  5
921D
 10
60.0650
 20
219.500
 30
0.000000
  70
    32
  0
VERTEX
  8
0
  5
921E
 10
60.0652
 20
219.500
 30
0.000000
  70
    32
  0
VERTEX
  8
0
  5
921F
 10
60.0653
 20
219.500
 30
0.000000
  70
    32
  0
VERTEX
  8
0
  5
9220
 10
60.0655
 20
219.500
 30
0.000000
  70
    32
  0
VERTEX
  8
0
  5
9221
 10
60.0657
 20
219.500
 30
0.000000
  70
    32
  0
VERTEX
  8
0
  5
9222
 10
60.0659
 20
219.500
 30
0.000000
  70
    32
  0
VERTEX
  8
0
  5
9223
 10
60.0661
 20
219.500
 30
0.000000
  70
    32
  0
VERTEX
  8
0
  5
9224
 10
60.0662
 20
219.500
 30
0.000000
  70
    32
  0
VERTEX
  8
0
  5
9225
 10
60.0664
 20
219.500
 30
0.000000
  70
    32
  0
VERTEX
  8
0
  5
9226
 10
60.0666
 20
219.500
 30
0.000000
  70
    32
  0
VERTEX
  8
0
  5
9227
 10
60.0668
 20
219.500
 30
0.000000
  70
    32
  0
VERTEX
  8
0
  5
9228
 10
60.0669
 20
219.500
 30
0.000000
  70
    32
  0
VERTEX
  8
0
  5
9229
 10
60.0671
 20
219.500
 30
0.000000
  70
    32
  0
VERTEX
  8
0
  5
922A
 10
60.0673
 20
219.500
 30
0.000000
  70
    32
  0
VERTEX
  8
0
  5
922B
 10
60.0675
 20
219.500
 30
0.000000
  70
    32
  0
VERTEX
  8
0
  5
922C
 10
60.0676
 20
219.500
 30
0.000000
  70
    32
  0
VERTEX
  8
0
  5
922D
 10
60.0678
 20
219.500
 30
0.000000
  70
    32
  0
VERTEX
  8
0
  5
922E
 10
60.0680
 20
219.500
 30
0.000000
  70
    32
  0
VERTEX
  8
0
  5
922F
 10
60.0682
 20
219.500
 30
0.000000
  70
    32
  0
VERTEX
  8
0
  5
9230
 10
60.0684
 20
219.500
 30
0.000000
  70
    32
  0
VERTEX
  8
0
  5
9231
 10
60.0685
 20
219.500
 30
0.000000
  70
    32
  0
VERTEX
  8
0
  5
9232
 10
60.0687
 20
219.500
 30
0.000000
  70
    32
  0
VERTEX
  8
0
  5
9233
 10
60.0689
 20
219.500
 30
0.000000
  70
    32
  0
VERTEX
  8
0
  5
9234
 10
60.0691
 20
219.500
 30
0.000000
  70
    32
  0
VERTEX
  8
0
  5
9235
 10
60.0692
 20
219.500
 30
0.000000
  70
    32
  0
VERTEX
  8
0
  5
9236
 10
60.0694
 20
219.500
 30
0.000000
  70
    32
  0
VERTEX
  8
0
  5
9237
 10
60.0696
 20
219.500
 30
0.000000
  70
    32
  0
VERTEX
  8
0
  5
9238
 10
60.0698
 20
219.500
 30
0.000000
  70
    32
  0
VERTEX
  8
0
  5
9239
 10
60.0699
 20
219.500
 30
0.000000
  70
    32
  0
VERTEX
  8
0
  5
923A
 10
60.0701
 20
219.500
 30
0.000000
  70
    32
  0
VERTEX
  8
0
  5
923B
 10
60.0703
 20
219.500
 30
0.000000
  70
    32
  0
VERTEX
  8
0
  5
923C
 10
60.0705
 20
219.500
 30
0.000000
  70
    32
  0
VERTEX
  8
0
  5
923D
 10
60.0707
 20
219.500
 30
0.000000
  70
    32
  0
VERTEX
  8
0
  5
923E
 10
60.0708
 20
219.500
 30
0.000000
  70
    32
  0
VERTEX
  8
0
  5
923F
 10
60.0710
 20
219.500
 30
0.000000
  70
    32
  0
VERTEX
  8
0
  5
9240
 10
60.0712
 20
219.500
 30
0.000000
  70
    32
  0
VERTEX
  8
0
  5
9241
 10
60.0714
 20
219.500
 30
0.000000
  70
    32
  0
VERTEX
  8
0
  5
9242
 10
60.0715
 20
219.500
 30
0.000000
  70
    32
  0
VERTEX
  8
0
  5
9243
 10
60.0717
 20
219.500
 30
0.000000
  70
    32
  0
VERTEX
  8
0
  5
9244
 10
60.0719
 20
219.500
 30
0.000000
  70
    32
  0
VERTEX
  8
0
  5
9245
 10
60.0721
 20
219.500
 30
0.000000
  70
    32
  0
VERTEX
  8
0
  5
9246
 10
60.0722
 20
219.500
 30
0.000000
  70
    32
  0
VERTEX
  8
0
  5
9247
 10
60.0724
 20
219.500
 30
0.000000
  70
    32
  0
VERTEX
  8
0
  5
9248
 10
60.0726
 20
219.500
 30
0.000000
  70
    32
  0
VERTEX
  8
0
  5
9249
 10
60.0728
 20
219.500
 30
0.000000
  70
    32
  0
VERTEX
  8
0
  5
924A
 10
60.0730
 20
219.500
 30
0.000000
  70
    32
  0
VERTEX
  8
0
  5
924B
 10
60.0731
 20
219.500
 30
0.000000
  70
    32
  0
VERTEX
  8
0
  5
924C
 10
60.0733
 20
219.500
 30
0.000000
  70
    32
  0
VERTEX
  8
0
  5
924D
 10
60.0735
 20
219.500
 30
0.000000
  70
    32
  0
VERTEX
  8
0
  5
924E
 10
60.0737
 20
219.500
 30
0.000000
  70
    32
  0
VERTEX
  8
0
  5
924F
 10
60.0738
 20
219.500
 30
0.000000
  70
    32
  0
VERTEX
  8
0
  5
9250
 10
60.0740
 20
219.500
 30
0.000000
  70
    32
  0
VERTEX
  8
0
  5
9251
 10
60.0742
 20
219.500
 30
0.000000
  70
    32
  0
VERTEX
  8
0
  5
9252
 10
60.0744
 20
219.500
 30
0.000000
  70
    32
  0
VERTEX
  8
0
  5
9253
 10
60.0745
 20
219.500
 30
0.000000
  70
    32
  0
VERTEX
  8
0
  5
9254
 10
60.0747
 20
219.500
 30
0.000000
  70
    32
  0
VERTEX
  8
0
  5
9255
 10
60.0749
 20
219.500
 30
0.000000
  70
    32
  0
VERTEX
  8
0
  5
9256
 10
60.0751
 20
219.500
 30
0.000000
  70
    32
  0
VERTEX
  8
0
  5
9257
 10
60.0753
 20
219.500
 30
0.000000
  70
    32
  0
VERTEX
  8
0
  5
9258
 10
60.0754
 20
219.500
 30
0.000000
  70
    32
  0
VERTEX
  8
0
  5
9259
 10
60.0756
 20
219.500
 30
0.000000
  70
    32
  0
VERTEX
  8
0
  5
925A
 10
60.0758
 20
219.500
 30
0.000000
  70
    32
  0
VERTEX
  8
0
  5
925B
 10
60.0760
 20
219.500
 30
0.000000
  70
    32
  0
VERTEX
  8
0
  5
925C
 10
60.0761
 20
219.500
 30
0.000000
  70
    32
  0
VERTEX
  8
0
  5
925D
 10
60.0763
 20
219.500
 30
0.000000
  70
    32
  0
VERTEX
  8
0
  5
925E
 10
60.0765
 20
219.500
 30
0.000000
  70
    32
  0
VERTEX
  8
0
  5
925F
 10
60.0767
 20
219.500
 30
0.000000
  70
    32
  0
VERTEX
  8
0
  5
9260
 10
60.0768
 20
219.500
 30
0.000000
  70
    32
  0
VERTEX
  8
0
  5
9261
 10
60.0770
 20
219.500
 30
0.000000
  70
    32
  0
VERTEX
  8
0
  5
9262
 10
60.0772
 20
219.500
 30
0.000000
  70
    32
  0
VERTEX
  8
0
  5
9263
 10
60.0774
 20
219.500
 30
0.000000
  70
    32
  0
VERTEX
  8
0
  5
9264
 10
60.0776
 20
219.500
 30
0.000000
  70
    32
  0
VERTEX
  8
0
  5
9265
 10
60.0777
 20
219.500
 30
0.000000
  70
    32
  0
VERTEX
  8
0
  5
9266
 10
60.0779
 20
219.500
 30
0.000000
  70
    32
  0
VERTEX
  8
0
  5
9267
 10
60.0781
 20
219.500
 30
0.000000
  70
    32
  0
VERTEX
  8
0
  5
9268
 10
60.0783
 20
219.500
 30
0.000000
  70
    32
  0
VERTEX
  8
0
  5
9269
 10
60.0784
 20
219.500
 30
0.000000
  70
    32
  0
VERTEX
  8
0
  5
926A
 10
60.0786
 20
219.500
 30
0.000000
  70
    32
  0
VERTEX
  8
0
  5
926B
 10
60.0788
 20
219.500
 30
0.000000
  70
    32
  0
VERTEX
  8
0
  5
926C
 10
60.0790
 20
219.500
 30
0.000000
  70
    32
  0
VERTEX
  8
0
  5
926D
 10
60.0791
 20
219.500
 30
0.000000
  70
    32
  0
VERTEX
  8
0
  5
926E
 10
60.0793
 20
219.500
 30
0.000000
  70
    32
  0
VERTEX
  8
0
  5
926F
 10
60.0795
 20
219.500
 30
0.000000
  70
    32
  0
VERTEX
  8
0
  5
9270
 10
60.0797
 20
219.500
 30
0.000000
  70
    32
  0
VERTEX
  8
0
  5
9271
 10
60.0799
 20
219.500
 30
0.000000
  70
    32
  0
VERTEX
  8
0
  5
9272
 10
60.0800
 20
219.500
 30
0.000000
  70
    32
  0
VERTEX
  8
0
  5
9273
 10
60.0802
 20
219.500
 30
0.000000
  70
    32
  0
VERTEX
  8
0
  5
9274
 10
60.0804
 20
219.500
 30
0.000000
  70
    32
  0
VERTEX
  8
0
  5
9275
 10
60.0806
 20
219.500
 30
0.000000
  70
    32
  0
VERTEX
  8
0
  5
9276
 10
60.0807
 20
219.500
 30
0.000000
  70
    32
  0
VERTEX
  8
0
  5
9277
 10
60.0809
 20
219.500
 30
0.000000
  70
    32
  0
VERTEX
  8
0
  5
9278
 10
60.0811
 20
219.500
 30
0.000000
  70
    32
  0
VERTEX
  8
0
  5
9279
 10
60.0813
 20
219.500
 30
0.000000
  70
    32
  0
VERTEX
  8
0
  5
927A
 10
60.0814
 20
219.500
 30
0.000000
  70
    32
  0
VERTEX
  8
0
  5
927B
 10
60.0816
 20
219.500
 30
0.000000
  70
    32
  0
VERTEX
  8
0
  5
927C
 10
60.0818
 20
219.500
 30
0.000000
  70
    32
  0
VERTEX
  8
0
  5
927D
 10
60.0820
 20
219.500
 30
0.000000
  70
    32
  0
VERTEX
  8
0
  5
927E
 10
60.0822
 20
219.500
 30
0.000000
  70
    32
  0
VERTEX
  8
0
  5
927F
 10
60.0823
 20
219.500
 30
0.000000
  70
    32
  0
VERTEX
  8
0
  5
9280
 10
60.0825
 20
219.500
 30
0.000000
  70
    32
  0
VERTEX
  8
0
  5
9281
 10
60.0827
 20
219.500
 30
0.000000
  70
    32
  0
VERTEX
  8
0
  5
9282
 10
60.0829
 20
219.500
 30
0.000000
  70
    32
  0
VERTEX
  8
0
  5
9283
 10
60.0830
 20
219.500
 30
0.000000
  70
    32
  0
VERTEX
  8
0
  5
9284
 10
60.0832
 20
219.500
 30
0.000000
  70
    32
  0
VERTEX
  8
0
  5
9285
 10
60.0834
 20
219.500
 30
0.000000
  70
    32
  0
VERTEX
  8
0
  5
9286
 10
60.0836
 20
219.500
 30
0.000000
  70
    32
  0
VERTEX
  8
0
  5
9287
 10
60.0837
 20
219.500
 30
0.000000
  70
    32
  0
VERTEX
  8
0
  5
9288
 10
60.0839
 20
219.500
 30
0.000000
  70
    32
  0
VERTEX
  8
0
  5
9289
 10
60.0841
 20
219.500
 30
0.000000
  70
    32
  0
VERTEX
  8
0
  5
928A
 10
60.0843
 20
219.500
 30
0.000000
  70
    32
  0
VERTEX
  8
0
  5
928B
 10
60.0845
 20
219.500
 30
0.000000
  70
    32
  0
VERTEX
  8
0
  5
928C
 10
60.0846
 20
219.500
 30
0.000000
  70
    32
  0
VERTEX
  8
0
  5
928D
 10
60.0848
 20
219.500
 30
0.000000
  70
    32
  0
VERTEX
  8
0
  5
928E
 10
60.0850
 20
219.500
 30
0.000000
  70
    32
  0
VERTEX
  8
0
  5
928F
 10
60.0852
 20
219.500
 30
0.000000
  70
    32
  0
VERTEX
  8
0
  5
9290
 10
60.0853
 20
219.500
 30
0.000000
  70
    32
  0
SEQEND
  8
0
  5
9291
  0
LINE
  5
8CA6
  8
0
 10
50.499999150633812
 20
219.49999928474429
 30
0.0
 11
60.062695349038499
 21
219.50000017881399
 31
0.0
  0
ARC
  5
8CA7
  8
0
 10
50.499999552965171
 20
220.00000017881399
 30
0.0
 40
0.5
 50
180.0
 51
270.0
  0
LINE
  5
8CA8
  8
0
 10
89.999999105930272
 20
216.499331572324
 30
0.0
 11
89.999999105930272
 21
242.00000017881399
 31
0.0
  0
LINE
  5
8CA9
  8
0
 10
89.999999105930272
 20
242.00000017881399
 30
0.0
 11
50.0
 21
242.00000017881399
 31
0.0
  0
LINE
  5
8CAA
  8
0
 10
69.499999529216382
 20
215.99999964237219
 30
0.0
 11
69.499999529216424
 21
242.00000017881399
 31
0.0
  0
LINE
  5
8CAB
  8
0
 10
69.499999529216424
 20
216.40000082552439
 30
0.0
 11
70.499999576713876
 21
216.40000082552439
 31
0.0
  0
LINE
  5
8CAC
  8
0
 10
70.499999576713876
 20
215.99999964237219
 30
0.0
 11
89.49999995529646
 21
215.99999964237219
 31
0.0
  0
ARC
  5
8CAD
  8
0
 10
50.499999552965171
 20
216.50000017881399
 30
0.0
 40
0.5
 50
180.0
 51
270.0
  0
LINE
  5
8CAE
  8
0
 10
50.499999150633812
 20
215.99999964237219
 30
0.0
 11
69.499999529216495
 21
215.99999964237219
 31
0.0
  0
LINE
  5
8CAF
  8
0
 10
66.207339242100716
 20
203.60943824052811
 30
0.0
 11
66.149015398696065
 21
203.58861759305
 31
0.0
  0
POLYLINE
  5
8CB0
  8
0
 66
     1
 10
0.0
 20
0.0
 30
0.0
 70
   128
  0
VERTEX
  5
9108
  8
0
 10
73.850975325331092
 20
203.5884574055672
 30
0.0
  0
VERTEX
  5
9109
  8
0
 10
73.845619289204464
 20
203.5954795777798
 30
0.0
  0
VERTEX
  5
910A
  8
0
 10
73.792659863829613
 20
203.60943824052811
 30
0.0
  0
SEQEND
  5
910B
  8
0
  0
LINE
  5
8CB1
  8
0
 10
74.421834386885166
 20
214.5174495875836
 30
0.0
 11
76.843676343560205
 21
214.5174495875836
 31
0.0
  0
LINE
  5
8CB2
  8
0
 10
63.156322762370102
 20
214.5174495875836
 30
0.0
 11
65.578164719045162
 21
214.5174495875836
 31
0.0
  0
LINE
  5
8CB3
  8
0
 10
63.526608701795332
 20
214.0170369297266
 30
0.0
 11
65.602485276758671
 21
214.0170369297266
 31
0.0
  0
LINE
  5
8CB4
  8
0
 10
74.397513829171643
 20
214.0170369297266
 30
0.0
 11
76.473390404134975
 21
214.0170369297266
 31
0.0
  0
ARC
  5
8CB5
  8
0
 10
79.949528521828313
 20
219.01387611998399
 30
0.0
 40
0.4870115604666671
 50
94.105558896242115
 51
181.63269848051959
  0
LINE
  5
8CB6
  8
0
 10
79.462714679539147
 20
219.00000013411051
 30
0.0
 11
79.462714679539147
 21
216.50000065565109
 31
0.0
  0
ARC
  5
8CB7
  8
0
 10
78.977306508953632
 20
216.48537857419529
 30
0.0
 40
0.4856283531028325
 50
271.8364155186141
 51
1.7254144840513821
  0
POLYLINE
  5
8CB8
  8
0
 10
79.937303756891822
 20
219.50000017881399
 30
0.0
 66
     1
 70
     8
  0
VERTEX
  8
0
  5
9292
 10
79.9373
 20
219.500
 30
0.000000
  70
    32
  0
VERTEX
  8
0
  5
9293
 10
79.9371
 20
219.500
 30
0.000000
  70
    32
  0
VERTEX
  8
0
  5
9294
 10
79.9369
 20
219.500
 30
0.000000
  70
    32
  0
VERTEX
  8
0
  5
9295
 10
79.9368
 20
219.500
 30
0.000000
  70
    32
  0
VERTEX
  8
0
  5
9296
 10
79.9366
 20
219.500
 30
0.000000
  70
    32
  0
VERTEX
  8
0
  5
9297
 10
79.9364
 20
219.500
 30
0.000000
  70
    32
  0
VERTEX
  8
0
  5
9298
 10
79.9362
 20
219.500
 30
0.000000
  70
    32
  0
VERTEX
  8
0
  5
9299
 10
79.9361
 20
219.500
 30
0.000000
  70
    32
  0
VERTEX
  8
0
  5
929A
 10
79.9359
 20
219.500
 30
0.000000
  70
    32
  0
VERTEX
  8
0
  5
929B
 10
79.9357
 20
219.500
 30
0.000000
  70
    32
  0
VERTEX
  8
0
  5
929C
 10
79.9355
 20
219.500
 30
0.000000
  70
    32
  0
VERTEX
  8
0
  5
929D
 10
79.9354
 20
219.500
 30
0.000000
  70
    32
  0
VERTEX
  8
0
  5
929E
 10
79.9352
 20
219.500
 30
0.000000
  70
    32
  0
VERTEX
  8
0
  5
929F
 10
79.9350
 20
219.500
 30
0.000000
  70
    32
  0
VERTEX
  8
0
  5
92A0
 10
79.9348
 20
219.500
 30
0.000000
  70
    32
  0
VERTEX
  8
0
  5
92A1
 10
79.9346
 20
219.500
 30
0.000000
  70
    32
  0
VERTEX
  8
0
  5
92A2
 10
79.9345
 20
219.500
 30
0.000000
  70
    32
  0
VERTEX
  8
0
  5
92A3
 10
79.9343
 20
219.500
 30
0.000000
  70
    32
  0
VERTEX
  8
0
  5
92A4
 10
79.9341
 20
219.500
 30
0.000000
  70
    32
  0
VERTEX
  8
0
  5
92A5
 10
79.9339
 20
219.500
 30
0.000000
  70
    32
  0
VERTEX
  8
0
  5
92A6
 10
79.9338
 20
219.500
 30
0.000000
  70
    32
  0
VERTEX
  8
0
  5
92A7
 10
79.9336
 20
219.500
 30
0.000000
  70
    32
  0
VERTEX
  8
0
  5
92A8
 10
79.9334
 20
219.500
 30
0.000000
  70
    32
  0
VERTEX
  8
0
  5
92A9
 10
79.9332
 20
219.500
 30
0.000000
  70
    32
  0
VERTEX
  8
0
  5
92AA
 10
79.9331
 20
219.500
 30
0.000000
  70
    32
  0
VERTEX
  8
0
  5
92AB
 10
79.9329
 20
219.500
 30
0.000000
  70
    32
  0
VERTEX
  8
0
  5
92AC
 10
79.9327
 20
219.500
 30
0.000000
  70
    32
  0
VERTEX
  8
0
  5
92AD
 10
79.9325
 20
219.500
 30
0.000000
  70
    32
  0
VERTEX
  8
0
  5
92AE
 10
79.9323
 20
219.500
 30
0.000000
  70
    32
  0
VERTEX
  8
0
  5
92AF
 10
79.9322
 20
219.500
 30
0.000000
  70
    32
  0
VERTEX
  8
0
  5
92B0
 10
79.9320
 20
219.500
 30
0.000000
  70
    32
  0
VERTEX
  8
0
  5
92B1
 10
79.9318
 20
219.500
 30
0.000000
  70
    32
  0
VERTEX
  8
0
  5
92B2
 10
79.9316
 20
219.500
 30
0.000000
  70
    32
  0
VERTEX
  8
0
  5
92B3
 10
79.9315
 20
219.500
 30
0.000000
  70
    32
  0
VERTEX
  8
0
  5
92B4
 10
79.9313
 20
219.500
 30
0.000000
  70
    32
  0
VERTEX
  8
0
  5
92B5
 10
79.9311
 20
219.500
 30
0.000000
  70
    32
  0
VERTEX
  8
0
  5
92B6
 10
79.9309
 20
219.500
 30
0.000000
  70
    32
  0
VERTEX
  8
0
  5
92B7
 10
79.9308
 20
219.500
 30
0.000000
  70
    32
  0
VERTEX
  8
0
  5
92B8
 10
79.9306
 20
219.500
 30
0.000000
  70
    32
  0
VERTEX
  8
0
  5
92B9
 10
79.9304
 20
219.500
 30
0.000000
  70
    32
  0
VERTEX
  8
0
  5
92BA
 10
79.9302
 20
219.500
 30
0.000000
  70
    32
  0
VERTEX
  8
0
  5
92BB
 10
79.9300
 20
219.500
 30
0.000000
  70
    32
  0
VERTEX
  8
0
  5
92BC
 10
79.9299
 20
219.500
 30
0.000000
  70
    32
  0
VERTEX
  8
0
  5
92BD
 10
79.9297
 20
219.500
 30
0.000000
  70
    32
  0
VERTEX
  8
0
  5
92BE
 10
79.9295
 20
219.500
 30
0.000000
  70
    32
  0
VERTEX
  8
0
  5
92BF
 10
79.9293
 20
219.500
 30
0.000000
  70
    32
  0
VERTEX
  8
0
  5
92C0
 10
79.9292
 20
219.500
 30
0.000000
  70
    32
  0
VERTEX
  8
0
  5
92C1
 10
79.9290
 20
219.500
 30
0.000000
  70
    32
  0
VERTEX
  8
0
  5
92C2
 10
79.9288
 20
219.500
 30
0.000000
  70
    32
  0
VERTEX
  8
0
  5
92C3
 10
79.9286
 20
219.500
 30
0.000000
  70
    32
  0
VERTEX
  8
0
  5
92C4
 10
79.9285
 20
219.500
 30
0.000000
  70
    32
  0
VERTEX
  8
0
  5
92C5
 10
79.9283
 20
219.500
 30
0.000000
  70
    32
  0
VERTEX
  8
0
  5
92C6
 10
79.9281
 20
219.500
 30
0.000000
  70
    32
  0
VERTEX
  8
0
  5
92C7
 10
79.9279
 20
219.500
 30
0.000000
  70
    32
  0
VERTEX
  8
0
  5
92C8
 10
79.9277
 20
219.500
 30
0.000000
  70
    32
  0
VERTEX
  8
0
  5
92C9
 10
79.9276
 20
219.500
 30
0.000000
  70
    32
  0
VERTEX
  8
0
  5
92CA
 10
79.9274
 20
219.500
 30
0.000000
  70
    32
  0
VERTEX
  8
0
  5
92CB
 10
79.9272
 20
219.500
 30
0.000000
  70
    32
  0
VERTEX
  8
0
  5
92CC
 10
79.9270
 20
219.500
 30
0.000000
  70
    32
  0
VERTEX
  8
0
  5
92CD
 10
79.9269
 20
219.500
 30
0.000000
  70
    32
  0
VERTEX
  8
0
  5
92CE
 10
79.9267
 20
219.500
 30
0.000000
  70
    32
  0
VERTEX
  8
0
  5
92CF
 10
79.9265
 20
219.500
 30
0.000000
  70
    32
  0
VERTEX
  8
0
  5
92D0
 10
79.9263
 20
219.500
 30
0.000000
  70
    32
  0
VERTEX
  8
0
  5
92D1
 10
79.9262
 20
219.500
 30
0.000000
  70
    32
  0
VERTEX
  8
0
  5
92D2
 10
79.9260
 20
219.500
 30
0.000000
  70
    32
  0
VERTEX
  8
0
  5
92D3
 10
79.9258
 20
219.500
 30
0.000000
  70
    32
  0
VERTEX
  8
0
  5
92D4
 10
79.9256
 20
219.500
 30
0.000000
  70
    32
  0
VERTEX
  8
0
  5
92D5
 10
79.9254
 20
219.500
 30
0.000000
  70
    32
  0
VERTEX
  8
0
  5
92D6
 10
79.9253
 20
219.500
 30
0.000000
  70
    32
  0
VERTEX
  8
0
  5
92D7
 10
79.9251
 20
219.500
 30
0.000000
  70
    32
  0
VERTEX
  8
0
  5
92D8
 10
79.9249
 20
219.500
 30
0.000000
  70
    32
  0
VERTEX
  8
0
  5
92D9
 10
79.9247
 20
219.500
 30
0.000000
  70
    32
  0
VERTEX
  8
0
  5
92DA
 10
79.9246
 20
219.500
 30
0.000000
  70
    32
  0
VERTEX
  8
0
  5
92DB
 10
79.9244
 20
219.500
 30
0.000000
  70
    32
  0
VERTEX
  8
0
  5
92DC
 10
79.9242
 20
219.500
 30
0.000000
  70
    32
  0
VERTEX
  8
0
  5
92DD
 10
79.9240
 20
219.500
 30
0.000000
  70
    32
  0
VERTEX
  8
0
  5
92DE
 10
79.9239
 20
219.500
 30
0.000000
  70
    32
  0
VERTEX
  8
0
  5
92DF
 10
79.9237
 20
219.500
 30
0.000000
  70
    32
  0
VERTEX
  8
0
  5
92E0
 10
79.9235
 20
219.500
 30
0.000000
  70
    32
  0
VERTEX
  8
0
  5
92E1
 10
79.9233
 20
219.500
 30
0.000000
  70
    32
  0
VERTEX
  8
0
  5
92E2
 10
79.9231
 20
219.500
 30
0.000000
  70
    32
  0
VERTEX
  8
0
  5
92E3
 10
79.9230
 20
219.500
 30
0.000000
  70
    32
  0
VERTEX
  8
0
  5
92E4
 10
79.9228
 20
219.500
 30
0.000000
  70
    32
  0
VERTEX
  8
0
  5
92E5
 10
79.9226
 20
219.500
 30
0.000000
  70
    32
  0
VERTEX
  8
0
  5
92E6
 10
79.9224
 20
219.500
 30
0.000000
  70
    32
  0
VERTEX
  8
0
  5
92E7
 10
79.9223
 20
219.500
 30
0.000000
  70
    32
  0
VERTEX
  8
0
  5
92E8
 10
79.9221
 20
219.500
 30
0.000000
  70
    32
  0
VERTEX
  8
0
  5
92E9
 10
79.9219
 20
219.500
 30
0.000000
  70
    32
  0
VERTEX
  8
0
  5
92EA
 10
79.9217
 20
219.500
 30
0.000000
  70
    32
  0
VERTEX
  8
0
  5
92EB
 10
79.9216
 20
219.500
 30
0.000000
  70
    32
  0
VERTEX
  8
0
  5
92EC
 10
79.9214
 20
219.500
 30
0.000000
  70
    32
  0
VERTEX
  8
0
  5
92ED
 10
79.9212
 20
219.500
 30
0.000000
  70
    32
  0
VERTEX
  8
0
  5
92EE
 10
79.9210
 20
219.500
 30
0.000000
  70
    32
  0
VERTEX
  8
0
  5
92EF
 10
79.9209
 20
219.500
 30
0.000000
  70
    32
  0
VERTEX
  8
0
  5
92F0
 10
79.9207
 20
219.500
 30
0.000000
  70
    32
  0
VERTEX
  8
0
  5
92F1
 10
79.9205
 20
219.500
 30
0.000000
  70
    32
  0
VERTEX
  8
0
  5
92F2
 10
79.9203
 20
219.500
 30
0.000000
  70
    32
  0
VERTEX
  8
0
  5
92F3
 10
79.9201
 20
219.500
 30
0.000000
  70
    32
  0
VERTEX
  8
0
  5
92F4
 10
79.9200
 20
219.500
 30
0.000000
  70
    32
  0
VERTEX
  8
0
  5
92F5
 10
79.9198
 20
219.500
 30
0.000000
  70
    32
  0
VERTEX
  8
0
  5
92F6
 10
79.9196
 20
219.500
 30
0.000000
  70
    32
  0
VERTEX
  8
0
  5
92F7
 10
79.9194
 20
219.500
 30
0.000000
  70
    32
  0
VERTEX
  8
0
  5
92F8
 10
79.9193
 20
219.500
 30
0.000000
  70
    32
  0
VERTEX
  8
0
  5
92F9
 10
79.9191
 20
219.500
 30
0.000000
  70
    32
  0
VERTEX
  8
0
  5
92FA
 10
79.9189
 20
219.500
 30
0.000000
  70
    32
  0
VERTEX
  8
0
  5
92FB
 10
79.9187
 20
219.500
 30
0.000000
  70
    32
  0
VERTEX
  8
0
  5
92FC
 10
79.9186
 20
219.500
 30
0.000000
  70
    32
  0
VERTEX
  8
0
  5
92FD
 10
79.9184
 20
219.500
 30
0.000000
  70
    32
  0
VERTEX
  8
0
  5
92FE
 10
79.9182
 20
219.500
 30
0.000000
  70
    32
  0
VERTEX
  8
0
  5
92FF
 10
79.9180
 20
219.500
 30
0.000000
  70
    32
  0
VERTEX
  8
0
  5
9300
 10
79.9178
 20
219.500
 30
0.000000
  70
    32
  0
VERTEX
  8
0
  5
9301
 10
79.9177
 20
219.500
 30
0.000000
  70
    32
  0
VERTEX
  8
0
  5
9302
 10
79.9175
 20
219.500
 30
0.000000
  70
    32
  0
VERTEX
  8
0
  5
9303
 10
79.9173
 20
219.500
 30
0.000000
  70
    32
  0
VERTEX
  8
0
  5
9304
 10
79.9171
 20
219.500
 30
0.000000
  70
    32
  0
VERTEX
  8
0
  5
9305
 10
79.9170
 20
219.500
 30
0.000000
  70
    32
  0
VERTEX
  8
0
  5
9306
 10
79.9168
 20
219.500
 30
0.000000
  70
    32
  0
VERTEX
  8
0
  5
9307
 10
79.9166
 20
219.500
 30
0.000000
  70
    32
  0
VERTEX
  8
0
  5
9308
 10
79.9164
 20
219.500
 30
0.000000
  70
    32
  0
VERTEX
  8
0
  5
9309
 10
79.9163
 20
219.500
 30
0.000000
  70
    32
  0
VERTEX
  8
0
  5
930A
 10
79.9161
 20
219.500
 30
0.000000
  70
    32
  0
VERTEX
  8
0
  5
930B
 10
79.9159
 20
219.500
 30
0.000000
  70
    32
  0
VERTEX
  8
0
  5
930C
 10
79.9157
 20
219.500
 30
0.000000
  70
    32
  0
VERTEX
  8
0
  5
930D
 10
79.9155
 20
219.500
 30
0.000000
  70
    32
  0
VERTEX
  8
0
  5
930E
 10
79.9154
 20
219.500
 30
0.000000
  70
    32
  0
VERTEX
  8
0
  5
930F
 10
79.9152
 20
219.500
 30
0.000000
  70
    32
  0
VERTEX
  8
0
  5
9310
 10
79.9150
 20
219.500
 30
0.000000
  70
    32
  0
VERTEX
  8
0
  5
9311
 10
79.9148
 20
219.500
 30
0.000000
  70
    32
  0
VERTEX
  8
0
  5
9312
 10
79.9147
 20
219.500
 30
0.000000
  70
    32
  0
SEQEND
  8
0
  5
9313
  0
LINE
  5
8CB9
  8
0
 10
89.49999995529646
 20
219.49999928474429
 30
0.0
 11
79.937303756891822
 21
219.50000017881399
 31
0.0
  0
ARC
  5
8CBA
  8
0
 10
89.499999552965093
 20
220.00000017881399
 30
0.0
 40
0.5
 50
270.0
 51
0.0
  0
ARC
  5
8CBB
  8
0
 10
89.499999552965093
 20
216.50000017881399
 30
0.0
 40
0.5
 50
270.0
 51
0.0
  0
LINE
  5
8CC4
  8
1
 10
69.999999552965107
 20
197.00000107288361
 30
0.0
 11
69.999999552965107
 21
247.00000017881399
 31
0.0
  0
ARC
  5
8D22
  8
0
 10
143.0138750471001
 20
155.94858368567819
 30
0.0
 40
0.4870115604666671
 50
268.36730151948041
 51
355.89444110375791
  0
LINE
  5
8D24
  8
0
 10
142.99999906122659
 20
155.46176984338931
 30
0.0
 11
140.49999958276729
 21
155.46176984338931
 31
0.0
  0
ARC
  5
8D26
  8
0
 10
140.4853775013114
 20
154.97636167280359
 30
0.0
 40
0.4856283531028325
 50
88.274585515948644
 51
178.1635844813793
  0
POLYLINE
  5
8D27
  8
0
 10
143.4999991059301
 20
155.93635892074181
 30
0.0
 66
     1
 70
     8
  0
VERTEX
  8
0
  5
9314
 10
143.500
 20
155.936
 30
0.000000
  70
    32
  0
VERTEX
  8
0
  5
9315
 10
143.500
 20
155.936
 30
0.000000
  70
    32
  0
VERTEX
  8
0
  5
9316
 10
143.500
 20
155.936
 30
0.000000
  70
    32
  0
VERTEX
  8
0
  5
9317
 10
143.500
 20
155.936
 30
0.000000
  70
    32
  0
VERTEX
  8
0
  5
9318
 10
143.500
 20
155.936
 30
0.000000
  70
    32
  0
VERTEX
  8
0
  5
9319
 10
143.500
 20
155.935
 30
0.000000
  70
    32
  0
VERTEX
  8
0
  5
931A
 10
143.500
 20
155.935
 30
0.000000
  70
    32
  0
VERTEX
  8
0
  5
931B
 10
143.500
 20
155.935
 30
0.000000
  70
    32
  0
VERTEX
  8
0
  5
931C
 10
143.500
 20
155.935
 30
0.000000
  70
    32
  0
VERTEX
  8
0
  5
931D
 10
143.500
 20
155.935
 30
0.000000
  70
    32
  0
VERTEX
  8
0
  5
931E
 10
143.500
 20
155.935
 30
0.000000
  70
    32
  0
VERTEX
  8
0
  5
931F
 10
143.500
 20
155.934
 30
0.000000
  70
    32
  0
VERTEX
  8
0
  5
9320
 10
143.500
 20
155.934
 30
0.000000
  70
    32
  0
VERTEX
  8
0
  5
9321
 10
143.500
 20
155.934
 30
0.000000
  70
    32
  0
VERTEX
  8
0
  5
9322
 10
143.500
 20
155.934
 30
0.000000
  70
    32
  0
VERTEX
  8
0
  5
9323
 10
143.500
 20
155.934
 30
0.000000
  70
    32
  0
VERTEX
  8
0
  5
9324
 10
143.500
 20
155.934
 30
0.000000
  70
    32
  0
VERTEX
  8
0
  5
9325
 10
143.500
 20
155.933
 30
0.000000
  70
    32
  0
VERTEX
  8
0
  5
9326
 10
143.500
 20
155.933
 30
0.000000
  70
    32
  0
VERTEX
  8
0
  5
9327
 10
143.500
 20
155.933
 30
0.000000
  70
    32
  0
VERTEX
  8
0
  5
9328
 10
143.500
 20
155.933
 30
0.000000
  70
    32
  0
VERTEX
  8
0
  5
9329
 10
143.500
 20
155.933
 30
0.000000
  70
    32
  0
VERTEX
  8
0
  5
932A
 10
143.500
 20
155.932
 30
0.000000
  70
    32
  0
VERTEX
  8
0
  5
932B
 10
143.500
 20
155.932
 30
0.000000
  70
    32
  0
VERTEX
  8
0
  5
932C
 10
143.500
 20
155.932
 30
0.000000
  70
    32
  0
VERTEX
  8
0
  5
932D
 10
143.500
 20
155.932
 30
0.000000
  70
    32
  0
VERTEX
  8
0
  5
932E
 10
143.500
 20
155.932
 30
0.000000
  70
    32
  0
VERTEX
  8
0
  5
932F
 10
143.500
 20
155.932
 30
0.000000
  70
    32
  0
VERTEX
  8
0
  5
9330
 10
143.500
 20
155.931
 30
0.000000
  70
    32
  0
VERTEX
  8
0
  5
9331
 10
143.500
 20
155.931
 30
0.000000
  70
    32
  0
VERTEX
  8
0
  5
9332
 10
143.500
 20
155.931
 30
0.000000
  70
    32
  0
VERTEX
  8
0
  5
9333
 10
143.500
 20
155.931
 30
0.000000
  70
    32
  0
VERTEX
  8
0
  5
9334
 10
143.500
 20
155.931
 30
0.000000
  70
    32
  0
VERTEX
  8
0
  5
9335
 10
143.500
 20
155.931
 30
0.000000
  70
    32
  0
VERTEX
  8
0
  5
9336
 10
143.500
 20
155.930
 30
0.000000
  70
    32
  0
VERTEX
  8
0
  5
9337
 10
143.500
 20
155.930
 30
0.000000
  70
    32
  0
VERTEX
  8
0
  5
9338
 10
143.500
 20
155.930
 30
0.000000
  70
    32
  0
VERTEX
  8
0
  5
9339
 10
143.500
 20
155.930
 30
0.000000
  70
    32
  0
VERTEX
  8
0
  5
933A
 10
143.500
 20
155.930
 30
0.000000
  70
    32
  0
VERTEX
  8
0
  5
933B
 10
143.500
 20
155.929
 30
0.000000
  70
    32
  0
VERTEX
  8
0
  5
933C
 10
143.500
 20
155.929
 30
0.000000
  70
    32
  0
VERTEX
  8
0
  5
933D
 10
143.500
 20
155.929
 30
0.000000
  70
    32
  0
VERTEX
  8
0
  5
933E
 10
143.500
 20
155.929
 30
0.000000
  70
    32
  0
VERTEX
  8
0
  5
933F
 10
143.500
 20
155.929
 30
0.000000
  70
    32
  0
VERTEX
  8
0
  5
9340
 10
143.500
 20
155.929
 30
0.000000
  70
    32
  0
VERTEX
  8
0
  5
9341
 10
143.500
 20
155.928
 30
0.000000
  70
    32
  0
VERTEX
  8
0
  5
9342
 10
143.500
 20
155.928
 30
0.000000
  70
    32
  0
VERTEX
  8
0
  5
9343
 10
143.500
 20
155.928
 30
0.000000
  70
    32
  0
VERTEX
  8
0
  5
9344
 10
143.500
 20
155.928
 30
0.000000
  70
    32
  0
VERTEX
  8
0
  5
9345
 10
143.500
 20
155.928
 30
0.000000
  70
    32
  0
VERTEX
  8
0
  5
9346
 10
143.500
 20
155.928
 30
0.000000
  70
    32
  0
VERTEX
  8
0
  5
9347
 10
143.500
 20
155.927
 30
0.000000
  70
    32
  0
VERTEX
  8
0
  5
9348
 10
143.500
 20
155.927
 30
0.000000
  70
    32
  0
VERTEX
  8
0
  5
9349
 10
143.500
 20
155.927
 30
0.000000
  70
    32
  0
VERTEX
  8
0
  5
934A
 10
143.500
 20
155.927
 30
0.000000
  70
    32
  0
VERTEX
  8
0
  5
934B
 10
143.500
 20
155.927
 30
0.000000
  70
    32
  0
VERTEX
  8
0
  5
934C
 10
143.500
 20
155.926
 30
0.000000
  70
    32
  0
VERTEX
  8
0
  5
934D
 10
143.500
 20
155.926
 30
0.000000
  70
    32
  0
VERTEX
  8
0
  5
934E
 10
143.500
 20
155.926
 30
0.000000
  70
    32
  0
VERTEX
  8
0
  5
934F
 10
143.500
 20
155.926
 30
0.000000
  70
    32
  0
VERTEX
  8
0
  5
9350
 10
143.500
 20
155.926
 30
0.000000
  70
    32
  0
VERTEX
  8
0
  5
9351
 10
143.500
 20
155.926
 30
0.000000
  70
    32
  0
VERTEX
  8
0
  5
9352
 10
143.500
 20
155.925
 30
0.000000
  70
    32
  0
VERTEX
  8
0
  5
9353
 10
143.500
 20
155.925
 30
0.000000
  70
    32
  0
VERTEX
  8
0
  5
9354
 10
143.500
 20
155.925
 30
0.000000
  70
    32
  0
VERTEX
  8
0
  5
9355
 10
143.500
 20
155.925
 30
0.000000
  70
    32
  0
VERTEX
  8
0
  5
9356
 10
143.500
 20
155.925
 30
0.000000
  70
    32
  0
VERTEX
  8
0
  5
9357
 10
143.500
 20
155.925
 30
0.000000
  70
    32
  0
VERTEX
  8
0
  5
9358
 10
143.500
 20
155.924
 30
0.000000
  70
    32
  0
VERTEX
  8
0
  5
9359
 10
143.500
 20
155.924
 30
0.000000
  70
    32
  0
VERTEX
  8
0
  5
935A
 10
143.500
 20
155.924
 30
0.000000
  70
    32
  0
VERTEX
  8
0
  5
935B
 10
143.500
 20
155.924
 30
0.000000
  70
    32
  0
VERTEX
  8
0
  5
935C
 10
143.500
 20
155.924
 30
0.000000
  70
    32
  0
VERTEX
  8
0
  5
935D
 10
143.500
 20
155.923
 30
0.000000
  70
    32
  0
VERTEX
  8
0
  5
935E
 10
143.500
 20
155.923
 30
0.000000
  70
    32
  0
VERTEX
  8
0
  5
935F
 10
143.500
 20
155.923
 30
0.000000
  70
    32
  0
VERTEX
  8
0
  5
9360
 10
143.500
 20
155.923
 30
0.000000
  70
    32
  0
VERTEX
  8
0
  5
9361
 10
143.500
 20
155.923
 30
0.000000
  70
    32
  0
VERTEX
  8
0
  5
9362
 10
143.500
 20
155.923
 30
0.000000
  70
    32
  0
VERTEX
  8
0
  5
9363
 10
143.500
 20
155.922
 30
0.000000
  70
    32
  0
VERTEX
  8
0
  5
9364
 10
143.500
 20
155.922
 30
0.000000
  70
    32
  0
VERTEX
  8
0
  5
9365
 10
143.500
 20
155.922
 30
0.000000
  70
    32
  0
VERTEX
  8
0
  5
9366
 10
143.500
 20
155.922
 30
0.000000
  70
    32
  0
VERTEX
  8
0
  5
9367
 10
143.500
 20
155.922
 30
0.000000
  70
    32
  0
VERTEX
  8
0
  5
9368
 10
143.500
 20
155.921
 30
0.000000
  70
    32
  0
VERTEX
  8
0
  5
9369
 10
143.500
 20
155.921
 30
0.000000
  70
    32
  0
VERTEX
  8
0
  5
936A
 10
143.500
 20
155.921
 30
0.000000
  70
    32
  0
VERTEX
  8
0
  5
936B
 10
143.500
 20
155.921
 30
0.000000
  70
    32
  0
VERTEX
  8
0
  5
936C
 10
143.500
 20
155.921
 30
0.000000
  70
    32
  0
VERTEX
  8
0
  5
936D
 10
143.500
 20
155.921
 30
0.000000
  70
    32
  0
VERTEX
  8
0
  5
936E
 10
143.500
 20
155.920
 30
0.000000
  70
    32
  0
VERTEX
  8
0
  5
936F
 10
143.500
 20
155.920
 30
0.000000
  70
    32
  0
VERTEX
  8
0
  5
9370
 10
143.500
 20
155.920
 30
0.000000
  70
    32
  0
VERTEX
  8
0
  5
9371
 10
143.500
 20
155.920
 30
0.000000
  70
    32
  0
VERTEX
  8
0
  5
9372
 10
143.500
 20
155.920
 30
0.000000
  70
    32
  0
VERTEX
  8
0
  5
9373
 10
143.500
 20
155.920
 30
0.000000
  70
    32
  0
VERTEX
  8
0
  5
9374
 10
143.500
 20
155.919
 30
0.000000
  70
    32
  0
VERTEX
  8
0
  5
9375
 10
143.500
 20
155.919
 30
0.000000
  70
    32
  0
VERTEX
  8
0
  5
9376
 10
143.500
 20
155.919
 30
0.000000
  70
    32
  0
VERTEX
  8
0
  5
9377
 10
143.500
 20
155.919
 30
0.000000
  70
    32
  0
VERTEX
  8
0
  5
9378
 10
143.500
 20
155.919
 30
0.000000
  70
    32
  0
VERTEX
  8
0
  5
9379
 10
143.500
 20
155.918
 30
0.000000
  70
    32
  0
VERTEX
  8
0
  5
937A
 10
143.500
 20
155.918
 30
0.000000
  70
    32
  0
VERTEX
  8
0
  5
937B
 10
143.500
 20
155.918
 30
0.000000
  70
    32
  0
VERTEX
  8
0
  5
937C
 10
143.500
 20
155.918
 30
0.000000
  70
    32
  0
VERTEX
  8
0
  5
937D
 10
143.500
 20
155.918
 30
0.000000
  70
    32
  0
VERTEX
  8
0
  5
937E
 10
143.500
 20
155.918
 30
0.000000
  70
    32
  0
VERTEX
  8
0
  5
937F
 10
143.500
 20
155.917
 30
0.000000
  70
    32
  0
VERTEX
  8
0
  5
9380
 10
143.500
 20
155.917
 30
0.000000
  70
    32
  0
VERTEX
  8
0
  5
9381
 10
143.500
 20
155.917
 30
0.000000
  70
    32
  0
VERTEX
  8
0
  5
9382
 10
143.500
 20
155.917
 30
0.000000
  70
    32
  0
VERTEX
  8
0
  5
9383
 10
143.500
 20
155.917
 30
0.000000
  70
    32
  0
VERTEX
  8
0
  5
9384
 10
143.500
 20
155.917
 30
0.000000
  70
    32
  0
VERTEX
  8
0
  5
9385
 10
143.500
 20
155.916
 30
0.000000
  70
    32
  0
VERTEX
  8
0
  5
9386
 10
143.500
 20
155.916
 30
0.000000
  70
    32
  0
VERTEX
  8
0
  5
9387
 10
143.500
 20
155.916
 30
0.000000
  70
    32
  0
VERTEX
  8
0
  5
9388
 10
143.500
 20
155.916
 30
0.000000
  70
    32
  0
VERTEX
  8
0
  5
9389
 10
143.500
 20
155.916
 30
0.000000
  70
    32
  0
VERTEX
  8
0
  5
938A
 10
143.500
 20
155.915
 30
0.000000
  70
    32
  0
VERTEX
  8
0
  5
938B
 10
143.500
 20
155.915
 30
0.000000
  70
    32
  0
VERTEX
  8
0
  5
938C
 10
143.500
 20
155.915
 30
0.000000
  70
    32
  0
VERTEX
  8
0
  5
938D
 10
143.500
 20
155.915
 30
0.000000
  70
    32
  0
VERTEX
  8
0
  5
938E
 10
143.500
 20
155.915
 30
0.000000
  70
    32
  0
VERTEX
  8
0
  5
938F
 10
143.500
 20
155.915
 30
0.000000
  70
    32
  0
VERTEX
  8
0
  5
9390
 10
143.500
 20
155.914
 30
0.000000
  70
    32
  0
VERTEX
  8
0
  5
9391
 10
143.500
 20
155.914
 30
0.000000
  70
    32
  0
VERTEX
  8
0
  5
9392
 10
143.500
 20
155.914
 30
0.000000
  70
    32
  0
VERTEX
  8
0
  5
9393
 10
143.500
 20
155.914
 30
0.000000
  70
    32
  0
VERTEX
  8
0
  5
9394
 10
143.500
 20
155.914
 30
0.000000
  70
    32
  0
SEQEND
  8
0
  5
9395
  0
LINE
  5
8D28
  8
0
 10
143.49999821186049
 20
165.49905511914659
 30
0.0
 11
143.4999991059301
 21
155.93635892074181
 31
0.0
  0
ARC
  5
8D29
  8
0
 10
143.9999991059301
 20
165.49905471681521
 30
0.0
 40
0.5
 50
90.0
 51
180.0
  0
ARC
  5
8D2F
  8
0
 10
140.4999991059301
 20
165.49905471681521
 30
0.0
 40
0.5
 50
90.0
 51
180.0
  0
ARC
  5
8D37
  8
0
 10
143.0138750471001
 20
136.049525747952
 30
0.0
 40
0.4870115604666671
 50
4.1055588962420728
 51
91.632698480519593
  0
LINE
  5
8D38
  8
0
 10
142.99999906122659
 20
136.5363395902412
 30
0.0
 11
140.49999958276729
 21
136.5363395902412
 31
0.0
  0
ARC
  5
8D39
  8
0
 10
140.4853775013114
 20
137.02174776082671
 30
0.0
 40
0.4856283531028325
 50
181.8364155186141
 51
271.72541448405138
  0
POLYLINE
  5
8D3A
  8
0
 10
143.4999991059301
 20
136.06175051288849
 30
0.0
 66
     1
 70
     8
  0
VERTEX
  8
0
  5
9396
 10
143.500
 20
136.062
 30
0.000000
  70
    32
  0
VERTEX
  8
0
  5
9397
 10
143.500
 20
136.062
 30
0.000000
  70
    32
  0
VERTEX
  8
0
  5
9398
 10
143.500
 20
136.062
 30
0.000000
  70
    32
  0
VERTEX
  8
0
  5
9399
 10
143.500
 20
136.062
 30
0.000000
  70
    32
  0
VERTEX
  8
0
  5
939A
 10
143.500
 20
136.062
 30
0.000000
  70
    32
  0
VERTEX
  8
0
  5
939B
 10
143.500
 20
136.063
 30
0.000000
  70
    32
  0
VERTEX
  8
0
  5
939C
 10
143.500
 20
136.063
 30
0.000000
  70
    32
  0
VERTEX
  8
0
  5
939D
 10
143.500
 20
136.063
 30
0.000000
  70
    32
  0
VERTEX
  8
0
  5
939E
 10
143.500
 20
136.063
 30
0.000000
  70
    32
  0
VERTEX
  8
0
  5
939F
 10
143.500
 20
136.063
 30
0.000000
  70
    32
  0
VERTEX
  8
0
  5
93A0
 10
143.500
 20
136.064
 30
0.000000
  70
    32
  0
VERTEX
  8
0
  5
93A1
 10
143.500
 20
136.064
 30
0.000000
  70
    32
  0
VERTEX
  8
0
  5
93A2
 10
143.500
 20
136.064
 30
0.000000
  70
    32
  0
VERTEX
  8
0
  5
93A3
 10
143.500
 20
136.064
 30
0.000000
  70
    32
  0
VERTEX
  8
0
  5
93A4
 10
143.500
 20
136.064
 30
0.000000
  70
    32
  0
VERTEX
  8
0
  5
93A5
 10
143.500
 20
136.064
 30
0.000000
  70
    32
  0
VERTEX
  8
0
  5
93A6
 10
143.500
 20
136.065
 30
0.000000
  70
    32
  0
VERTEX
  8
0
  5
93A7
 10
143.500
 20
136.065
 30
0.000000
  70
    32
  0
VERTEX
  8
0
  5
93A8
 10
143.500
 20
136.065
 30
0.000000
  70
    32
  0
VERTEX
  8
0
  5
93A9
 10
143.500
 20
136.065
 30
0.000000
  70
    32
  0
VERTEX
  8
0
  5
93AA
 10
143.500
 20
136.065
 30
0.000000
  70
    32
  0
VERTEX
  8
0
  5
93AB
 10
143.500
 20
136.065
 30
0.000000
  70
    32
  0
VERTEX
  8
0
  5
93AC
 10
143.500
 20
136.066
 30
0.000000
  70
    32
  0
VERTEX
  8
0
  5
93AD
 10
143.500
 20
136.066
 30
0.000000
  70
    32
  0
VERTEX
  8
0
  5
93AE
 10
143.500
 20
136.066
 30
0.000000
  70
    32
  0
VERTEX
  8
0
  5
93AF
 10
143.500
 20
136.066
 30
0.000000
  70
    32
  0
VERTEX
  8
0
  5
93B0
 10
143.500
 20
136.066
 30
0.000000
  70
    32
  0
VERTEX
  8
0
  5
93B1
 10
143.500
 20
136.067
 30
0.000000
  70
    32
  0
VERTEX
  8
0
  5
93B2
 10
143.500
 20
136.067
 30
0.000000
  70
    32
  0
VERTEX
  8
0
  5
93B3
 10
143.500
 20
136.067
 30
0.000000
  70
    32
  0
VERTEX
  8
0
  5
93B4
 10
143.500
 20
136.067
 30
0.000000
  70
    32
  0
VERTEX
  8
0
  5
93B5
 10
143.500
 20
136.067
 30
0.000000
  70
    32
  0
VERTEX
  8
0
  5
93B6
 10
143.500
 20
136.067
 30
0.000000
  70
    32
  0
VERTEX
  8
0
  5
93B7
 10
143.500
 20
136.068
 30
0.000000
  70
    32
  0
VERTEX
  8
0
  5
93B8
 10
143.500
 20
136.068
 30
0.000000
  70
    32
  0
VERTEX
  8
0
  5
93B9
 10
143.500
 20
136.068
 30
0.000000
  70
    32
  0
VERTEX
  8
0
  5
93BA
 10
143.500
 20
136.068
 30
0.000000
  70
    32
  0
VERTEX
  8
0
  5
93BB
 10
143.500
 20
136.068
 30
0.000000
  70
    32
  0
VERTEX
  8
0
  5
93BC
 10
143.500
 20
136.068
 30
0.000000
  70
    32
  0
VERTEX
  8
0
  5
93BD
 10
143.500
 20
136.069
 30
0.000000
  70
    32
  0
VERTEX
  8
0
  5
93BE
 10
143.500
 20
136.069
 30
0.000000
  70
    32
  0
VERTEX
  8
0
  5
93BF
 10
143.500
 20
136.069
 30
0.000000
  70
    32
  0
VERTEX
  8
0
  5
93C0
 10
143.500
 20
136.069
 30
0.000000
  70
    32
  0
VERTEX
  8
0
  5
93C1
 10
143.500
 20
136.069
 30
0.000000
  70
    32
  0
VERTEX
  8
0
  5
93C2
 10
143.500
 20
136.070
 30
0.000000
  70
    32
  0
VERTEX
  8
0
  5
93C3
 10
143.500
 20
136.070
 30
0.000000
  70
    32
  0
VERTEX
  8
0
  5
93C4
 10
143.500
 20
136.070
 30
0.000000
  70
    32
  0
VERTEX
  8
0
  5
93C5
 10
143.500
 20
136.070
 30
0.000000
  70
    32
  0
VERTEX
  8
0
  5
93C6
 10
143.500
 20
136.070
 30
0.000000
  70
    32
  0
VERTEX
  8
0
  5
93C7
 10
143.500
 20
136.070
 30
0.000000
  70
    32
  0
VERTEX
  8
0
  5
93C8
 10
143.500
 20
136.071
 30
0.000000
  70
    32
  0
VERTEX
  8
0
  5
93C9
 10
143.500
 20
136.071
 30
0.000000
  70
    32
  0
VERTEX
  8
0
  5
93CA
 10
143.500
 20
136.071
 30
0.000000
  70
    32
  0
VERTEX
  8
0
  5
93CB
 10
143.500
 20
136.071
 30
0.000000
  70
    32
  0
VERTEX
  8
0
  5
93CC
 10
143.500
 20
136.071
 30
0.000000
  70
    32
  0
VERTEX
  8
0
  5
93CD
 10
143.500
 20
136.071
 30
0.000000
  70
    32
  0
VERTEX
  8
0
  5
93CE
 10
143.500
 20
136.072
 30
0.000000
  70
    32
  0
VERTEX
  8
0
  5
93CF
 10
143.500
 20
136.072
 30
0.000000
  70
    32
  0
VERTEX
  8
0
  5
93D0
 10
143.500
 20
136.072
 30
0.000000
  70
    32
  0
VERTEX
  8
0
  5
93D1
 10
143.500
 20
136.072
 30
0.000000
  70
    32
  0
VERTEX
  8
0
  5
93D2
 10
143.500
 20
136.072
 30
0.000000
  70
    32
  0
VERTEX
  8
0
  5
93D3
 10
143.500
 20
136.073
 30
0.000000
  70
    32
  0
VERTEX
  8
0
  5
93D4
 10
143.500
 20
136.073
 30
0.000000
  70
    32
  0
VERTEX
  8
0
  5
93D5
 10
143.500
 20
136.073
 30
0.000000
  70
    32
  0
VERTEX
  8
0
  5
93D6
 10
143.500
 20
136.073
 30
0.000000
  70
    32
  0
VERTEX
  8
0
  5
93D7
 10
143.500
 20
136.073
 30
0.000000
  70
    32
  0
VERTEX
  8
0
  5
93D8
 10
143.500
 20
136.073
 30
0.000000
  70
    32
  0
VERTEX
  8
0
  5
93D9
 10
143.500
 20
136.074
 30
0.000000
  70
    32
  0
VERTEX
  8
0
  5
93DA
 10
143.500
 20
136.074
 30
0.000000
  70
    32
  0
VERTEX
  8
0
  5
93DB
 10
143.500
 20
136.074
 30
0.000000
  70
    32
  0
VERTEX
  8
0
  5
93DC
 10
143.500
 20
136.074
 30
0.000000
  70
    32
  0
VERTEX
  8
0
  5
93DD
 10
143.500
 20
136.074
 30
0.000000
  70
    32
  0
VERTEX
  8
0
  5
93DE
 10
143.500
 20
136.074
 30
0.000000
  70
    32
  0
VERTEX
  8
0
  5
93DF
 10
143.500
 20
136.075
 30
0.000000
  70
    32
  0
VERTEX
  8
0
  5
93E0
 10
143.500
 20
136.075
 30
0.000000
  70
    32
  0
VERTEX
  8
0
  5
93E1
 10
143.500
 20
136.075
 30
0.000000
  70
    32
  0
VERTEX
  8
0
  5
93E2
 10
143.500
 20
136.075
 30
0.000000
  70
    32
  0
VERTEX
  8
0
  5
93E3
 10
143.500
 20
136.075
 30
0.000000
  70
    32
  0
VERTEX
  8
0
  5
93E4
 10
143.500
 20
136.076
 30
0.000000
  70
    32
  0
VERTEX
  8
0
  5
93E5
 10
143.500
 20
136.076
 30
0.000000
  70
    32
  0
VERTEX
  8
0
  5
93E6
 10
143.500
 20
136.076
 30
0.000000
  70
    32
  0
VERTEX
  8
0
  5
93E7
 10
143.500
 20
136.076
 30
0.000000
  70
    32
  0
VERTEX
  8
0
  5
93E8
 10
143.500
 20
136.076
 30
0.000000
  70
    32
  0
VERTEX
  8
0
  5
93E9
 10
143.500
 20
136.076
 30
0.000000
  70
    32
  0
VERTEX
  8
0
  5
93EA
 10
143.500
 20
136.077
 30
0.000000
  70
    32
  0
VERTEX
  8
0
  5
93EB
 10
143.500
 20
136.077
 30
0.000000
  70
    32
  0
VERTEX
  8
0
  5
93EC
 10
143.500
 20
136.077
 30
0.000000
  70
    32
  0
VERTEX
  8
0
  5
93ED
 10
143.500
 20
136.077
 30
0.000000
  70
    32
  0
VERTEX
  8
0
  5
93EE
 10
143.500
 20
136.077
 30
0.000000
  70
    32
  0
VERTEX
  8
0
  5
93EF
 10
143.500
 20
136.077
 30
0.000000
  70
    32
  0
VERTEX
  8
0
  5
93F0
 10
143.500
 20
136.078
 30
0.000000
  70
    32
  0
VERTEX
  8
0
  5
93F1
 10
143.500
 20
136.078
 30
0.000000
  70
    32
  0
VERTEX
  8
0
  5
93F2
 10
143.500
 20
136.078
 30
0.000000
  70
    32
  0
VERTEX
  8
0
  5
93F3
 10
143.500
 20
136.078
 30
0.000000
  70
    32
  0
VERTEX
  8
0
  5
93F4
 10
143.500
 20
136.078
 30
0.000000
  70
    32
  0
VERTEX
  8
0
  5
93F5
 10
143.500
 20
136.079
 30
0.000000
  70
    32
  0
VERTEX
  8
0
  5
93F6
 10
143.500
 20
136.079
 30
0.000000
  70
    32
  0
VERTEX
  8
0
  5
93F7
 10
143.500
 20
136.079
 30
0.000000
  70
    32
  0
VERTEX
  8
0
  5
93F8
 10
143.500
 20
136.079
 30
0.000000
  70
    32
  0
VERTEX
  8
0
  5
93F9
 10
143.500
 20
136.079
 30
0.000000
  70
    32
  0
VERTEX
  8
0
  5
93FA
 10
143.500
 20
136.079
 30
0.000000
  70
    32
  0
VERTEX
  8
0
  5
93FB
 10
143.500
 20
136.080
 30
0.000000
  70
    32
  0
VERTEX
  8
0
  5
93FC
 10
143.500
 20
136.080
 30
0.000000
  70
    32
  0
VERTEX
  8
0
  5
93FD
 10
143.500
 20
136.080
 30
0.000000
  70
    32
  0
VERTEX
  8
0
  5
93FE
 10
143.500
 20
136.080
 30
0.000000
  70
    32
  0
VERTEX
  8
0
  5
93FF
 10
143.500
 20
136.080
 30
0.000000
  70
    32
  0
VERTEX
  8
0
  5
9400
 10
143.500
 20
136.081
 30
0.000000
  70
    32
  0
VERTEX
  8
0
  5
9401
 10
143.500
 20
136.081
 30
0.000000
  70
    32
  0
VERTEX
  8
0
  5
9402
 10
143.500
 20
136.081
 30
0.000000
  70
    32
  0
VERTEX
  8
0
  5
9403
 10
143.500
 20
136.081
 30
0.000000
  70
    32
  0
VERTEX
  8
0
  5
9404
 10
143.500
 20
136.081
 30
0.000000
  70
    32
  0
VERTEX
  8
0
  5
9405
 10
143.500
 20
136.081
 30
0.000000
  70
    32
  0
VERTEX
  8
0
  5
9406
 10
143.500
 20
136.082
 30
0.000000
  70
    32
  0
VERTEX
  8
0
  5
9407
 10
143.500
 20
136.082
 30
0.000000
  70
    32
  0
VERTEX
  8
0
  5
9408
 10
143.500
 20
136.082
 30
0.000000
  70
    32
  0
VERTEX
  8
0
  5
9409
 10
143.500
 20
136.082
 30
0.000000
  70
    32
  0
VERTEX
  8
0
  5
940A
 10
143.500
 20
136.082
 30
0.000000
  70
    32
  0
VERTEX
  8
0
  5
940B
 10
143.500
 20
136.082
 30
0.000000
  70
    32
  0
VERTEX
  8
0
  5
940C
 10
143.500
 20
136.083
 30
0.000000
  70
    32
  0
VERTEX
  8
0
  5
940D
 10
143.500
 20
136.083
 30
0.000000
  70
    32
  0
VERTEX
  8
0
  5
940E
 10
143.500
 20
136.083
 30
0.000000
  70
    32
  0
VERTEX
  8
0
  5
940F
 10
143.500
 20
136.083
 30
0.000000
  70
    32
  0
VERTEX
  8
0
  5
9410
 10
143.500
 20
136.083
 30
0.000000
  70
    32
  0
VERTEX
  8
0
  5
9411
 10
143.500
 20
136.084
 30
0.000000
  70
    32
  0
VERTEX
  8
0
  5
9412
 10
143.500
 20
136.084
 30
0.000000
  70
    32
  0
VERTEX
  8
0
  5
9413
 10
143.500
 20
136.084
 30
0.000000
  70
    32
  0
VERTEX
  8
0
  5
9414
 10
143.500
 20
136.084
 30
0.000000
  70
    32
  0
VERTEX
  8
0
  5
9415
 10
143.500
 20
136.084
 30
0.000000
  70
    32
  0
VERTEX
  8
0
  5
9416
 10
143.500
 20
136.084
 30
0.000000
  70
    32
  0
SEQEND
  8
0
  5
9417
  0
LINE
  5
8D3B
  8
0
 10
143.49999821186049
 20
126.4990543144839
 30
0.0
 11
143.4999991059301
 21
136.06175051288849
 31
0.0
  0
ARC
  5
8D3C
  8
0
 10
143.9999991059301
 20
126.49905471681519
 30
0.0
 40
0.5
 50
180.0
 51
270.0
  0
ARC
  5
8D3D
  8
0
 10
140.4999991059301
 20
126.49905471681519
 30
0.0
 40
0.5
 50
180.0
 51
270.0
  0
LINE
  5
8D85
  8
1
 10
170.9999992424292
 20
145.99905471681521
 30
0.0
 11
120.9999999999998
 21
145.99905471681521
 31
0.0
  0
LINE
  5
8ED7
  8
1
 10
69.999999552965221
 20
170.9981092971712
 30
0.0
 11
69.999999552965221
 21
120.9981101912409
 31
0.0
  0
LINE
  5
8ED8
  8
1
 10
94.999999105930385
 20
145.99905491678669
 30
0.0
 11
45.000000000000057
 21
145.99905491678669
 31
0.0
  0
LINE
  5
8ED9
  8
1
 10
53.999999552965221
 20
166.24810974420609
 30
0.0
 11
53.999999552965221
 21
157.74810974420609
 31
0.0
  0
LINE
  5
8EDA
  8
1
 10
58.249999552965221
 20
161.99810974420609
 30
0.0
 11
49.749999552965221
 21
161.99810974420609
 31
0.0
  0
LINE
  5
8EDB
  8
1
 10
85.999999552965235
 20
166.24810974420609
 30
0.0
 11
85.999999552965235
 21
157.74810974420609
 31
0.0
  0
LINE
  5
8EDC
  8
1
 10
90.249999552965221
 20
161.99810974420609
 30
0.0
 11
81.749999552965221
 21
161.99810974420609
 31
0.0
  0
LINE
  5
8EDD
  8
1
 10
85.999999552965235
 20
134.24810974420609
 30
0.0
 11
85.999999552965235
 21
125.7481097442061
 31
0.0
  0
LINE
  5
8EDE
  8
1
 10
90.249999552965221
 20
129.99810974420609
 30
0.0
 11
81.749999552965221
 21
129.99810974420609
 31
0.0
  0
LINE
  5
8EDF
  8
1
 10
53.999999552965221
 20
134.24810974420609
 30
0.0
 11
53.999999552965221
 21
125.7481097442061
 31
0.0
  0
LINE
  5
8EE0
  8
1
 10
58.249999552965221
 20
129.99810974420609
 30
0.0
 11
49.749999552965221
 21
129.99810974420609
 31
0.0
  0
ENDSEC
  0
EOF
